You are on page 1of 3

Verso1

ABm
e|------0-----------------------------------------------|
B|-----2---------------------------3-------3------------|
G|----2----------------------------------4---4---4------|
D|---2---------------------------------4-------4--------|
A|--0--------------------------------2------------------|
E|-0----------------------------------------------------|
Mirndotealosojos,jurara,

EA
e|------------------------------------------------------|
B|-----------0-----0-----0---------2-------2------------|
G|-1-----1------1------------1-----------2---2---2------|
D|----2---------------2----------------2-------2--------|
A|-----------------------------------0------------------|
E|------------------------------------------------------|
quetienesalgonuevoquecontarme,
DA
e|------------------------------------------------------|
B|-----------3-----3-----3-------2-------2--------------|
G|-2-----2------2------------2---------2---2---2--------|
D|----0---------------0--------------2-------2----------|
A|---------------------------------0--------------------|
E|------------------------------------------------------|
empiezayamujer,notengasmiedo,
DA
e|------------------------------------------------------|
B|-----------3-----3-----3-------2-------2--------------|
G|-2-----2------2------------2---------2---2---2--------|
D|----0---------------0--------------2-------2----------|
A|---------------------------------0--------------------|
E|------------------------------------------------------|
quizparamaanaseatarde,
DA
e|------------------------------------------------------|
B|-----------3-----3-----3-------2-------2--------------|
G|-2-----2------2------------2---------2---2---2--------|
D|----0---------------0--------------2-------2----------|
A|---------------------------------0--------------------|
E|------------------------------------------------------|
quizparamaanaseatarde.

Verso2(PunteandoigualqueelVerso1peroestosacordes)
DEA
Ycmoesl,enqulugarseenamordeti,
BmEA
dedndees,aqudedicaeltiempolibre,
BmEA
pregntale,porquharobadountrozodemivida,
BmEA
esunladrn,quemeharobadotodo.

Verso3(IgualqueelVerso1)

ABm
Arrglatemujer,setehacetarde,
EA
yllvateelparaguasporsillueve,
A
e|0|
B|222|
G|22|
D|22|
A|0|
DE||
lestaresperandoparaamarte,
DA
yyoestarcelosodeperderte.

Verso4(IgualqueelVerso2)
DEA
Yabrgate,tesientabienesevestidogris,
BmE
e|-------2-----0--|
B|---3-------0----|
G|-4---4---1------|
D|----------------|
A|----------------|
E|----------------|
A
sonrete,quenosospechequehasllorado,
BmE
e|-------2-----0--|
B|---3-------0----|
G|-4---4---1------|
D|----------------|
A|----------------|
E|----------------|
A
ydjame,quevayapreparandomiequipaje,
BmEA
perdname,sitehagootrapregunta.

Verso5(IgualqueelVerso4,peroconlaletradelVerso2)

ParaBea,quescuantolegustaestacancin...

ABmE
Mirandotealosojosjuraria
A
quetienesalgonuevoquecontarme
DA
empiezayamujer,notengasmiedo
DA
quizasparama&anaseatarde
DA
quizasparama&anaseatarde.
DE
Ycomoesel

A
enquelugarseenamorodeti
BmE
dedondees
A
aquededicaeltiempolibre
BmE
preguntale
A
porqueharobadountrozodemivida
BmEA
esunladronquemeharobadotodo.

(Elsiguienteparrafoesexactamenteigual).
ABmE
Arreglatemujer,setehacetarde
A
ylleveteelparaguasporsillueve
DA
elteestaraesperandoparaamarte
DA
yyoestarecelosodeperderte.
DE
Yabrigate
A
tesientabienesevestidogris
BmE
sonriete
A
quenosospechequehasllorado
BmE
ydejame
A
quevayapreparandomiequipaje
BmEA
perdoname,sitehagootrapregunta.
Bm
Ycomoesel...etc.