You are on page 1of 182

Led Zeppelin

Tablature.host.sk

Pagina 1 di 182

Achilles' Last Stand


Babe I'm Gonna Leave You
Battle of Evermore
Black Country Womam
Black Mountain Sise
Boogie With Stu
Bring It On Home
Bron Y Aur Stomp
Celebration Day
Communicaton Breakdown
Custard Pie
Dancing Days
Dazed and Confused
Fool in the Rain
For Your Life
Four Sticks
Friends
Gallows Pole
Going To California
Good Times, Bad Times
Heartbreaker
Hey Hey What Can I Do
Hot Dog
Houses Of The Holy
How Many More Times
I Cant Quit You Baby
I'm Gonna Crawl
Immigrant Song
In My Time Of Dying
In the Evening
In The Light
Kashmir
Living Loving Maid
Moby Dick
No Quarter
Nobody's Fault But Mine
Out on the Tiles
Over The Hills And Far Away
The Rain Song
Ramble On
Rock And Roll
Since I've Been Loving You
Stairway To Heaven
Tangerine
Tea For One
Ten Years Gone
Thank You
That's the Way
The Crunge
The Lemon Song
The Ocean
The Song Remains the Same
Trampled Underfoot
Wanton Song
What is And What Should Never Be
White Summer
Whole Lotta Love
You Shook Me
Your Time Is Gonna Come

Tablature.host.sk

Pagina 2 di 182

Achilles' Last Stand


by Led Zeppelin
The intro is double-tracked:
e-----------2p0--------------------2p0---------------------------------------b---------0-----3p0--------------------3p0-----------------------------------g---------------------0----------3----------0--------------------------------d------4-----------------------4---------------------------------------------a----2-----------------------4-----------------------------------------------E--0----------------------2--------------------------------------------------The main rythym is:
e---9\----7-7---------------------7-----------------------------------------b---10\---8-8---------------------7-----------------------------------------g---11\---9-9---------------------7-----------------------------------------d---------------7-7-7-7-8-9-7-----7-----------------------------------------a-----------------------------7---------------------------------------------E------------------------------0--------------------------------------------During the Lyrics its:
e-----9----7------------5-----------------------------------------------------b-----10---8--------9---7-----------------------------------------------------g-----11---9--------9---7-----------------------------------------------------d-------------------9---------------------------------------------------------a-----------------------------------------------------------------------------E--0------------0-------------------------------------------------------------The bridge sort of thing is:
e----------------------------------------------------------------------------b--9--7-8-9--9-7-8-9-7-9-10--------------------------------------------------g--9--7-8-9--9-7-8-9-7-9-10--------------------------------------------------d--9--7-8-9--9-7-8-9-7-9-10--------------------------------------------------a----------------------------------------------------------------------------E----------------------------------------------------------------------------The ascending bit is played in two octaves. The lower one goes like this:
(Im probably making a mistake near the end of this) Play this one out,
then (I think) play it again an octave higher.
e---------------------------------------------------------------------------b---------------------------------------------------------------------------g-------------------------------------------------------9-------------------d-----------------------------------9----/10----/12-------11----------------a-2---/3---/5---/7---/8-----/10-------10-----12-----14----------------------E---3----5----7----8----10------12------------------------------------------Here's the start of the solo(and it'll probably have a couple of errors
as well)
e--------7----------------------------------------------3-3h5p3------------b-----5-----7--5-5---8^10^8---------5-5---3-5-3h5p3--5--5-5------7-5-5-----g--/4------------------------7^9^7--5-5--------------5--4-4------7-5-5-----d--------------------------------------------------------------------------a--------------------------------------------------------------------------E---------------------------------------------------------------------------

Tablature.host.sk

Pagina 3 di 182

e------7-------------------------------12-14-15--14h15p14p12--14h15p14p12--b----5----7--5-5--8--10--7h8p7-10^12---------------------------------------g-/4-----------------------------------------------------------------------d--------------------------------------------------------------------------a--------------------------------------------------------------------------E--------------------------------------------------------------------------Then it breaks down and basically stays in


XIV position for a while.
e--12--15--12--15^17-------------------------------------------------------b---------------------13-13------------------------------------------------g--------------------------------------------------------------------------d--------------------------------------------------------------------------a--------------------------------------------------------------------------E--------------------------------------------------------------------------The only other part I can remember goes something like this:
e------0------0------0--------------------------------------------------------b----0------0------0----------------------------------------------------------g--------------------------------------------------------------------------d--------------------------------------------------------------------------a-------------------------0-------------------------------------------------E--0------2------3------3/5--3-2--1-----------------------------------------Sorry about any mistakes, but I hope this helps.
CHUCK

Tablature.host.sk

Pagina 4 di 182

Babe I'm Gonna Leave You (parts thereof)


-------3-------0-------3-------0------------------------------------------------------------------------3-------1-------1-------0------2-------2-------0-------0-------2-------2-------2-------1------2-------2-------2-------2-------0-------0-------3-------2------0-------0------------------------------------------------------------------------3-------3-------2-------2-------1-------0-------repeat this a bunch of times, then do the following twice:
------------------------------------------3-------1-------3-------0--------2-------2-------1-------1--------3-------3-------2-------2-------------------------------------------1-------1-------0-------0---------Do the first lick again, except the first high G (i.e. 3rd fret 1st string)
drops to an E (open 1st string), and the first middle D (3rd fret 2nd string)
drops to a C (1st fret 2nd string).
The chords in the next section (you know the rhythm):
-0----0----0-----1----8----6-----2----9----7-----2----7----7-----0----0----0--------------------Then back into the first section, and into the second part, then the
next part 4 times:
------------------------------------------5-------8-------8-------6--------4-------9-------7-------7--------2-------9-------7-------7--------0-------0-------0-------0--------------------------------------------Then the cool hard strumming part (this is really an electric and
an acoustic part: I'll just give the chords for the acoustic part)
-0-0-0-0-0-0-3-3-3-0-3-3-2-2-2-0-2-2-1-1-1-1-0-0-0-0--1-1-1-0-1-1-1-1-1-0-1-1-1-1-1-0-1-1-1-1-1-1-0-0-0-0--2-2-2-0-2-2-0-0-0-0-0-0-2-2-2-0-2-2-2-2-2-2-1-1-1-1--2-2-2---2-2-2-2-2---2-2-0-0-0---0-0-3-3-3-3-2-2-2-2--0-0-0---0-0-------------------------3-3-3-3-2-2-2-2--------------3-3-3---3-3-2-2-2---2-2-1-1-1-1-2-2-2-2-Do this a few times, then there's a little thing where you just use
the last two chords I wrote (the F and the E): I'm sure you can figure
it out.
Well, that's most of it. I've left out some parts: the ending, all of the
solos, and some variations on the main arpeggios, but that should give you
most of it.
Good luck,
Adam
--

Tablature.host.sk

Pagina 5 di 182

I saw that someone requested "Battle of Evermore" a while back, so here is


what I remember. Sorry, no tabs, just chords.
Am
Am G
Am
Am C
Am
Am G
Am Am C
Queen of Light, took her bow, and then she turned to go
Am
Am G
Am
Am C
Am
Am G Am Am C
Prince of Peace, embraced the gloom, and walked the night alone
D
D
D
D
D
D
D
D
Oh,........(sorry, don't remember this verse)
(continues Am Am G Am Am C etc. until:)
Am
D
Am
D
I hear the horse's thunder, down in the valley below
G7
C
G7
C
waiting for the angels of Babylon, waiting for the eastern glow
and so forth...

It's probably a good idea to listen to the song to get the rhythm down
correctly.
I hope this helps at least a little...
-Ken MacFarlane
| email: ksm@eniac.seas.upenn.edu

Tablature.host.sk

Pagina 6 di 182

Black Country Womam


From: Physical Graffiti
By: Led Zeppelin
Tabbed by: David Kim <ddk1@acpub.duke.edu>
DGDGBD Tuning
-3--2--1--0--0--0--3--2--1--0--0------------------------------------------3--2--1--0--0--0--3--2--1--0--0------------------------------------------0--0--0--0--0--0--0--0--0--0--0------------------------------------------0--0--0--0--0--0--0--0--0--0--0---------------------------------------------------------------------------3--0------------------------------------------------------------------------------------------------------------Middle part (play different rhythms and variations with the following
chords, switching back to the above beginning chords at appropriate times):
-8--7--5-----10--9--7------------------------------8--7--5-----10--9--7------------------------------5--5--5------7--7--7------------------------------5--5--5------7--7--7------------------------------5--5--5------7--7--7-------------------------------------------------------------------------------Ending:
-0--0--0--0--0--2--0--3--------------0--0--0--0--0--2--0--3--------------0--0--0--0--0--0--0--0--------------0--0--0--0--0--0--0--0--------------3--2--1--0--0-----------------------0--0--0--0--0-----------------------

Tablature.host.sk

Pagina 7 di 182

BLACK MOUNTAIN SIDE


Led Zeppelin

D|-0----0----------------------|
A|--------------2--------------|
4 G|-0-h2--p0--------------0-----|
- D|-----------4-----------------|
4 A|--------------2--------------|
D|--------------------3-----0--|

repeat 4X

D|-0----0-----------------0-----|-------|-0----0----------------0-----|
A|---------------2--------------|-------|-----0--------2--------------|
G|-0-h2---p0--------------------|---%---|-0-h2--p0-----------0--------|
D|------------4-----------------|-------|-----------4-----------------|
A|---------------2--------------|-------|--------------2--------------|
D|---------------------3-----0--|-------|--------------------3-----0--|

D|-0----0----------------0----|----0--2/4------/4----|-----4-----5--4--2---|
A|--------------2-------------|----------------------|-/5-----------0------|
G|-0-h2--p0-------------------|----------------------|-----------0---------|
D|-----------4----------------|----------------------|--0------------------|
A|--------------2-------------|----0--4/5------/5----|---------------------|
D|--------------------3-----0-|-0-----------0------0-|--------0----------0-|

D|-0--h2p0------|--------------0|--------------0--------------|
A|--------------|---------0-----|------3----------3-------3---|
2 G|-0--h2p0------- 5 |---------------- 4 |------0-0--------0---0---0---|
- D|----------4--4- - |--0------------- - |------2----------2---0---2---|
4 A|--------------- 8 |---------------- 4 |-2/3-------3-------3---3---3-|
D|--------------|-----0---------|-----------------------------|

D|-----------|-0----0---------------------|-0----0---------------0----|
A|----2---2--|--------------2--------0----|--------------2-------0----|
2 G|----0---0--- 4 |-0-h2--p0-------------------|-0-h2--p0------------------|
- D|----0---0--- - |-----------4----------------|---------------------------|
4 A|--2---2----- 4 |----------0---2-------------|-----------0--2------------|
D|----------0|--------------------3-----0-|-------------------3-----0-|

D|-0----0------------------|------------------|----------0--------|
A|-----0-------------------|------------------|----------0----/12-|
G|-0-h2--p0-----4--2-4--/7-|-----/7\--2-4-2-4-|(4)--4-4-----------|
D|-----------4--0-------/7-|-----/7\--0-2-0-5-|(5)--4-5-----------|
A|-----------0-----0-2-----|------------------|-------------------|
D|--------------5--------0-|----0-0-------0---|(0)-------0---0-0--|
D|----------0------0---|--------------||
A|---------------------|--------------||
G|-4--4--2--4-----/4---- 2 |--------------||
D|-5--5--4--5-----/5---- - |-4p2p0-0-2----||
A|---------------------- 4 |--------------||
D|-0--0---------0-----0|------------0-||

Tablature.host.sk

Pagina 8 di 182

D|-0----0---------------------|-0----0----------------0----|
A|--------------2--------0----|--------------2--------0----|
4 G|-0-h2--p0-------------------|-0-h2--p0-------------------|
- D|-----------4----------------|-0---------4----------------|
4 A|--------------2-------------|-----------0--2-------------|
D|--------------------3-----0-|--------------------3-----0-|

D|-0----0----------------0----|-0----0----------------0----|
A|--------------2-------------|--------------2-------------|
G|-0-h2--p0-------------------|-0-h2--p0-----------0-------|
D|-----------4----------------|-----------4----------------|
A|--------------2-------------|--------------2-------------|
D|--------------------3-----0-|--------------------3-----0-|

D|----0--2--/4-----/4----|-----4-----5-----4--2---|-0----0---------|
A|-----------------------|-/5--------------0------|----------------|
G|-----------------------|-----------0------------- 2 |-0-h2--p0-------|
D|-----------------------|--0---------------------- - |-----------4--2-|
A|----0--4--/5-----/5----|------------------------- 4 |----------------|
D|-0-------------0-----0-|--------0--------------0|----------------|

D|-------------0|------------------------|------------------|
A|--------0-----|----3---3----3---3------|----2-----2-------|
5 G|--------------- 4 |----0---0-0--0---0-----0- 5 |----0-----0-------|
- D|-0------------- - |----2---2----0---2------- - |------------------|
8 A|--------------- 4 |2/3---3----3---3----3---- 8 |-2-----2-----2----|
D|----0---------|------------------------|----------------0-|

D|-0----0----------------0----|-0----0----------------0-----|
A|--------------2--------0----|--------------2--------0-----|
4 G|-0-h2--p0-------------------|-0-h2--p0--------------------|
- D|-----------4----------------|-----------4-----------------|
4 A|--------------2-------------|--------------2--------------|
D|--------------------3-----0-|--------------------3-----0--|

D|-0----0--------------------|----------------------|
A|---------------------------|----------------------|
G|-0-h2--p0-----4---2--4--/7-|(7)---/7\--2--2--2--4-|
D|-----------4--0------0--/7-|(7)---/7\--0--4--0--5-|
A|-----------0---------------|----------------------|
D|--------------5----------0-|(0)-0--0--0-----0-----|

D|-----------0---------------|-------0--------------0-|
A|-----------0-------2-------|-2-----0----------------|
G|(4)--4--4-------------0----|----------------------0-|
D|(5)--4--5----------0-----0-|-------------0--2--4----|
A|-------------------2-------|-2----------------------|
D|(0)--------0----0----------|----3-----0-------------|

D|(0)-------0-------------------|------------------------0----|
A|----0-------------------------|------------2-----------0----|
G|(0)-------0----2p0------------|------------0--0-------------|
D|-------4------------2p0-----0-|(0)--0------0----------------|
A|-------------------------3-/5-|(5)-----5\--2-----2----------|
D|------------------------------|---------------------3-----0-|

Tablature.host.sk

Pagina 9 di 182

D|-0----0----------------0----|-------|-0----0----------------0---|
A|--------------2-------------|-------|--------------2------------|
G|-0-h2--p0-------------------|---%---|-0-h2--p0------------------|
D|-----------4----------------|-------|-----------4---------------|
A|--------------2-------------|-------|-----------0--2------------|
D|--------------------3-----0-|-------|--------------------3------|
guitar solo:
D|-3p1p0-------------------/5--3-|-3p1p0--------------------------------|
A|--------3p1p0------------------|--------3p1p0-------------------------|
G|---------------//----//--------|---------------//----//--3p2p0--------|
D|-------------------------------|--------------------------------3p1p0-|
A|-------------------------------|--------------------------------------|
D|-------------------------------|--------------------------------------|
end of solo:
D|------------------------------------------|------------------------------|
A|------------------------------------------|------------------------------|
G|------------------------------------------|------------------------------|
D|-0-----0--0-----0--0-----0--0-----0--0----|-0-----------0-----0--0--0----|
A|---/5-------/5-------/5-------/5-------/5-|---/5--0-/5-----2-----------3-|
D|------------------------------------------|------------------------------|

D|-----0--2-/4--------/4----|----4-----5h7p5--4--2---|-0---------------|
A|--------------------------|/5---------------0------|-----------------|
G|--------------------------|------------------------- 2 |-0----h2p0-------|
D|-----0--0-----------------|----------0-------------- - |------------4----|
A|----------/5--------/5----|/5----------------------- 4 |---------------2-|
D|-0------------0--0------0-|-------0---------------0|(0)--------------|

D|-------------0|---------------------|---------------|
A|--------0----0|------3---3---3---3--|---2---2-------|
5 G|--------------- 4 |------0---0---0---0--- 5 |---0---0-------|
- D|-0------------- - |------2---2---2---2--- - |---0---0-------|
8 A|--------------- 4 |-0/3----3---3---3---3- 8 |-2---2---------|
D|----0---------|---------------------|----------0--0-|

D|-0----0----------------0----|-------|-0----0--------------------|
A|--------------2--------0----|-------|---------------------------|
4 G|-0-h2--p0-------------------|---%---|-0-h2--p0-----4----2--4-/7-|
- D|-----------4----------------|-------|-----------4--0-------0-/7-|
4 A|--------------2-------------|-------|-----------0---------------|
D|--------------------3-----0-|-------|--------------5----------0-|

D|---------------------|----------0--------------|-------0--------------0-|
A|---------------------|----------0------2-------|-2-----0----------------|
G|(7)---/7\----2-2-2-4-|(4)-4--4------------0----|----------------------0-|
D|(7)---/7\----0-4-0-5-|(5)-4--5---------0-----0-|-------------0--2--4----|
A|---------------------|-----------------2-------|-2----------------------|
D|(0)-0--0-----0---0---|(0)-------0---0----------|----3-----0-------------|

D|(0)------0-----------------|----------------------------|
A|---0-----------------------|----------------------------|
G|(0)------0---2p0-----------|--------------0-------------|
D|------------------2p0----0-|(0)--0-----0-----0--0--0----|
A|------0----------------3/5-|(5)-----5--5----------------|
D|---------------------------|--------------------------0-|

Tablature.host.sk

Pagina 10 di 182

D|-0----0----------------0----|-------|-0----0----------------0----|
A|--------------2-------------|-------|--------------2-------------|
G|-0-h2--p0-------------------|---%---|-0-h2--p0-------------------|
D|-----------4----------------|-------|-----------4----------------|
A|--------------2-------------|-------|--------------2-------------|
D|--------------------3-----0-|-------|--------------------3-----0-|

D|-0----0----------------0----|-0----0----------------0----|
A|-0------------2-------------|-0------------2-------------|
G|-0-h2--p0-------------------|-0-h2--p0-----------0-------|
D|-----------4----------------|-----------4----------------|
A|--------------2-------------|--------------2-----------0-|
D|--------------------3-----0-|--------------------3-----0-|
Peace, love, and soul,
Paul Zimmerman

Tablature.host.sk

Pagina 11 di 182

************************* Boogie With Stu ************************************


From the album Physical Graffiti
by Jimmy Page, Robert Plant, John Paul Jones,
John Bonham, Ian Stuart, & Mrs. Valens

This song shows how great a percussionist John Bonham is. His wierd
little drum beat is accentuated by Jimmy Page's "Rock N Roll" like riff.
To play this song, Page uses an acoustic 6-string guitar. The guitar is
pretty much the same through the whole song.

e|--------------------------------------------------------------------------b|--------------------------------------------------------------------------g|--------------------------------------------------------------------------d|--2--2--4--4--2--2--4--2----2--4--2----2--2--4--2----2--2--4--4--2--2--4--2
a|--0--0--0--0--0--0--0--0----0--0--0----0--0--0--0----0--0--0--0--0--0--0--0
E|---------------------------------------------------------------------------

e|--------------------------------------------------------------------------b|--------------------------------------------------------------------------g|----------------------------2--2--4--4--2--2--4--2----2--4--2----2--2--4--2
d|--2--4--2----2--2--4--2-----0--0--0--0--0--0--0--0----0--0--0----0--0--0--0
a|--0--0--0----0--0--0--0---------------------------------------------------E|---------------------------------------------------------------------------

e|--------------------------------------------------------------------------b|--------------------------------------------------------------------------g|--2--2--4--4--2--2--4--2----2--4--2----2--2--4--2-------------------------d|--0--0--0--0--0--0--0--0----0--0--0----0--0--0--0----2--2--4--4--2--2--4--2
a|-----------------------------------------------------0--0--0--0--0--0--0--0
E|---------------------------------------------------------------------------

e|--------------------------------------------------------------------------b|--------------------------------------------------------------------------g|--------------------------------------------------------------------------d|--2--4--2----2--2--4--2---------------------------------------------------a|--0--0--0----0--0--0--0----2--2--4--4--2--2--4--2----2-----2----2--2--4--2E|---------------------------0--0--0--0--0--0--0--0----0--3--0----0--0--0--0-

E
e|-----|
b|-----|
g|--1--|
d|--2--|
a|--2--|
E|--0--|

And this is the basic riff played throughout the whole


song. Unfortunatly, I do not own a mandolin, so I can't
post the mandolin solo.

This is one of those songs where Robert tends to


mumble the lyrics, so these lyrics aren't totally
accurate
Leaving town, now, baby
(I'd) leave before I call
Yeah Yeah Yeah Yeah Darlin'
Leave before I go home
I don't want no Tutti-FruitiNo-life rock
Now come on baby just rock rock rock

Tablature.host.sk

Pagina 12 di 182

Yeah ya ya ya honey,
We can shake them on down...
Whoa wo wo wo Darlin'
We just go on and ride...
Ahhhhhh
Ooooh... my head..
ROCK ON!
Hey Babe, Hey Babe (x4)
I don't no Tutti-FruitiNo-Life Rock...
Now come on baby just rock rock rock
I don't no Tutti-FruitiNo Life Rock
Now come on baby just rock rock rock

Date: Thu, 7 Dec 1995 13:10:29 -0800 (PST)


From: "D.A. Hsia" <dahsia@ucdavis.edu>
Subject: Led Zeppelin, Boogie with Stu

Led Zeppelin's Boogie with Stu


figure 1
e---------------------------------------------------------------B---------------------------------------------------------------G--2--2--------2--------2-*------------------------------------------D--2--2--4--2--2--------2-*--------------------------------------------A--0--0--0--0--0--3--4--0-*----------------------------------------------E---------------------------------------------------------------***allow this last A to ring into beat 1 of next bar.
figure 2
e---------------------------------------------------------------B---------------------------------------------------------------G--2--2--------2--2--4--2---------------------------------------------D--0--0--3--4--0--0--0--0-----------------------------------------------A---------------------------------------------------------------E---------------------------------------------------------------figure 3

e---------------------------------------------------------------B---------------------------------------------------------------G---------------------------------------------------------------D---------------------------------------------------------------A--2--2--4--2--2--4--2-------------------------------------------------E--0--0--0--0--0--0--0------------------------------------------------figure 4

e---------------------------------------------------------------B---------------------------------------------------------------G---------------------------------------------------------------D--2--2--------2--2--4--4---------------------------------------------A--0--0--3--4--0--0--0--0-----------------------------------------------E----------------------------------------------------------------

Tablature.host.sk

Pagina 13 di 182

figure 5

e---------------------------------------------------------------B---------------------------------------------------------------G--2--2--------2--2--4--2---------------------------------------------D--0--0--3--4--0--0--0--0-----------------------------------------------A---------------------------------------------------------------E---------------------------------------------------------------Figure 6

e---------------------------------------------------------------B---------------------------------------------------------------G---------------------------------------------------------------D---------------------------------------------------------------A--2--2--------2--2--4--2---------------------------------------------E--0--0--3--4--0--0--0--0-----------------------------------------------Figure 7

e---------------------------------------------------------------B--2*-------------------------------------------------------------G--2*-------------------------------------------------------------D--2*-------------------------------------------------------------A--0*-------------------------------------------------------------E---------------------------------------------------------------*allow to ring for two bars


and now for the order: figure 1 4x
figure 2 2x
figure 1 2x
figure 3 2x
figure 4 6x
figure 5 2x
figure 4 2x
figure 6 2x
figure 7 1x
This order applies to the first verse. As the song progresses, figures one
and four are interchanged occasionally (as are 2 and 5 as well and 3 and 6,
respectively).
Zak Watson c642063@showme.missouri.edu

Tablature.host.sk

Pagina 14 di 182

"Bring It On Home" by Willie Dixon, as arranged by Led Zeppelin


~~~~~~~~~~~~~~~~~~~~~~~~~~~~~~~~~~~~~~~~~~~~~~~~~~~~~~~~~~~~~~~~
Intro: moderate blues tempo; two eighth notes are played like a quarter and an
eighth under the little triplet bracket
/3-\ /3-\ /3-\ /3-\
|---------------------|---------------------|
|---------------------|---------------------|
|---------------------|---------------------|
Repeat several hundred times
|---------------------|---------------------|
|-2--2-4--4-2-------2-|-2--2-4--4-2-------2-|
|-0--0-0--0-0--0-3h4--|-0--0-0--0-0--0-3h4--|
|---------------------|---------------------|
|---------------------|---------------------|
|---------------------|---------------------|
|-2--2-4--4-2-------2-|-2--2-4--4-2-------2-|
|-0--0-0--0-0--0-3h4--|-0--0-0--0-0--0-3h4--|
|---------------------|---------------------|
|---------------------|---------------------|
|---------------------|---------------------|
|---------------------|---------------------|
|---------------------|---------------------|
|-2--2-4--4-2-------2-|-2--2-4--4-2-------2-|
|-0--0-0--0-0--0-3h4--|-0--0-0--0-0--0-3h4--|

Repeat once

Repeat once

|---------------------|---------------------|
|---------------------|---------------------|
|---------------------|---------------------|
|---------------------|---------------------|
|-9--9-11-11-9-9-11-9-|-7--7-9--9-7--7-9--7-|
|-7--7-7--7--7-7-7--7-|-5--5-5--5-5--5-5--5-|
|---------------------|---------------------|
|---------------------|---------------------|
|---------------------|---------------------|
|---------------------|---------------------|
|-2--2-4--4-2-------2-|-2--2-4--4-2-------2-|
|-0--0-0--0-0--0-3h4--|-0--0-0--0-0--0-3h4--|
|---------------------|---------------------|
|---------------------|---------------------|
|---------------------|---------------------|
|---------------------|---------------------|
|-9--9-11-11-9-9-11-9-|-7--7-9--9-7--7-9--2-|
|-7--7-7--7--7-7-7--7-|-5--5-5--5-5--5-5--0-|
Now, it gets a bit slower, although it sounds faster because sixteenth notes
are now used....The eighth and sixteenth notes are now played evenly.
|--------------------------|--------------------------|
|--------------------------|--------------------------|
|-------------4--2p1-2p1---|-------------4--2p1-2-----|
|-----0h2----------------2-|-----0h2------------------|
|-0h2----------------------|-0h2----------------------|
|---------0----------------|---------0----------------|
^^^
Those are 16th notes

Tablature.host.sk

Play four times

Pagina 15 di 182

For the verses, it basically seems to go E7, A7, E7 (quarter notes).


E7 A7 E7
|-0---0---0------------|
|-0---2---0------------|
|-1---0---1------------|
|-0---2---0------------|
|-2---0---2------------|
|-0-------0---3-0------|
^
I usually bend that up a little...it's kind of a cool effect.
And in between verses (again)....
|--------------------------|--------------------------|
|--------------------------|--------------------------|
|-------------4--2p1-2p1---|-------------4--2p1-2-----|
|-----0h2----------------2-|-----0h2------------------|
|-0h2----------------------|-0h2----------------------|
|---------0----------------|---------0----------------|

Play four times

Then it slows down quite a bit (this is like the intro)....


|---------------------|---------------------|
|---------------------|---------------------|
|---------------------|---------------------|
|---------------------|---------------------|
|-9--9-11-11-9-9-11-9-|-7--7-9--9-7--7-9--7-|
|-7--7-7--7--7-7-7--7-|-5--5-5--5-5--5-5--5-|
|---------------------|-------------------|
|---------------------|-------------------|
|---------------------|-------------------|
|---------------------|-------------------|
|-2--2-4--4-2-------2-|-2--2-4--4-2-------|
|-0--0-0--0-0--0-3h4--|-0--0-0--0-0-4--5--|
|---------------------|--------------------|
|---------------------|--------------------|
|---------------------|--------------------|
|---------------------|--------------------|
|-9--9-11-11-9-9-11-9-|-7--7-9--9-7--7-9---|
|-7--7-7--7--7-7-7--7-|-5--5-5--5-5--5-5-0-|
/-3--\ /--3---\ /--3---\
E7
|---12-------12--------12---------|---------------------|
|-9----9--10----10--11----11--12\-|---3-----------------|
|---------------------------------|---1-----------------|
|-9----9--10----10--11----11--12\-|---2-----------------|
|---------------------------------|---2-----------------|
|---------------------------------|-0-------------------|
Lyrics
~~~~~
Intro:
Ba-a-a-a-aby,
Ba-a-a-a-aby,
Gonna bring it on home to you.
I've got my ticket, I've got that load.
Got up, gone higher, all aboard.
Take my seat, right way back.
Ooh, yeah,
Watch this train roll down the track.
Gonna bring it on home,
Bring it on home to you.

Tablature.host.sk

Pagina 16 di 182

Watch out, watch out.


Verses:
Try to tell you, baby,
What you tryin' to do?
Tryin' to love me, baby,
Love some other man, too.
Bring it on home,
Bring it on home.
Went a little walk downtown,
Messed and got back late.
Found a little note there waitin'.
It said, "Daddy, I just can't wait."
Bring it on home,
Bring it back home,
Bring it on home,
Bring it back home to me, baby.
Tell you, pretty baby,
Love to mess me 'roun'.
I'm gonna give you lovin', baby,
Gonna move you out of town.
Bring it on home,
Bring it on home.
Sweetest little thing
Daddy ever saw.
I'm gonna give you lovin', baby,
I'm gonna give you more.
Bring it on home,
Bring it on home,
Bring it on home,
Oh, yeah.
Outro:
Bring it on home,
Bring it on home to you.

Tablature.host.sk

Pagina 17 di 182

BRON Y AUR STOMP


from Led Zeppelin III (?)
written by Jimmy Page
of Led Zeppelin
Tabbed by Owen Davis
(odavis@sdcc13.ucsd.edu)
(ee52fgp@ieng3.ucsd.edu)
Alternate tuning - (6)=C (-4 semitones),(5)=F (-4),(4)=C (-2),(3)=F (-2),
(2)=A (-2) ,(1)=F (+1)
(6 is the lowest in pitch and 1 is highest)

P
3--0 = 3 pull of to 0
4\2
H
0--3 = 0 hammer onto 3
(0)

= Ghost Note(tie)

2/4 slide up from 2 to 4


slide down from 4 to 2
[5]

Percussive strum (muting)

tempo = 110 bpm

F--12--7--------------0-(0)---------|--12--7--------------0-(0)----------A--12--7--------3-----------3-------|--12--7--------3-----------3--------F--12--7--2//4-----4-----------4----|--12--7--2//4-----------4-----------C--12--7----------------------------|--12--7-----------5-----------5-----F--12--7-----------------0----------|--12--7-----------------------------C--12--7----------------------------|--12--7------------------------------------0-(0)-----0-(0)----------|---------0-(0)-----0-(0)-------------------3---------3---------3--------|-----3---------3---------3---3---0-------4--------4---------4------2-0--|-2/4--------4---------4--------2---0---------5---------5---------5------|-------5---------5---------5--------------------------------------------|------------------------------------------------------------------------|----------------------------------------P
P
H
---------0-(0)-----0-(0)--------------|---------------------------------------3---------3---------3---3---0----|---------3-(3)---3-------3---3-3-3-2/4--------4---------4--------2---0--|-2/4-0-0----4--0-4-------0-0---0-0-------5---------5---------5----------|-----------------5-0-0-2------------------------------------------------|------------------------------------------------------------------------|----------------------------------P
P
P
P
P
P
-------------------------------------|--------------------------------------------3-3-(3)---3-------3-3-(3)-----|---3-----3-(3)---3-3-(3)---3-----3----2/4-0-0----4--0-0-0-2-0-0-------0---|-2/4-0-0----4--0------4--0-0---2-0---------------------------------2--0---|--------------------------------------------------------------------------|--------------------------------------------------------------------------|-------------------------------------H
H
H
H
-------------------------------------|--------------------------------------(3)--3---3-(3)-3---3-3-3---3-(3)-3--|-----3---3---3---3-(3)-3---3---------------0-0-2--0----0---0---0----------|-----0-0-2-0---0----0----0-----0-------0-2--------------------------2--0--|-0-2-------------------------2-0------------------------------------------|--------------------------------------------------------------------------|-------------------------------------Strum Pattern ->
___
__
__
| |
|
| | | | | | | |
--------------------------------|---------------------------------------3--3--------------------------|----0--(0)--0--0-----------------0----(0)------3--3--3--5--5--[5]----|-0--0--(0)--0--0--3--3--3--5--5--0----(0)---0--3--3--3--5--5--[5]----|----0--(0)--0--0--3--3--3--5--5-------

Tablature.host.sk

Pagina 18 di 182

----------3--------5--5--[5]----|----0--(0)--0--0--3--3--3--5--5--------------------------------------|-------------------------------------__ ___ ___ ___


__ __ __ __
__
| | |
|
|
|
| | | |
| | | | | | | | | | |
-------------------------------------|--------------------------------------0--0--0--(0)--0--[0]----------------|--0--0--0--0--0--0--------------------0--0--0--(0)--0--[0]--3--3--5--5----|--0--0--0--0--0--0--3--3--3--5--5-----0--0--0--(0)--0--[0]--3--3--5--5----|--0--0--0--0--0--0--3--3--3--5--5-----0--0--0--(0)--0--[0]--3--3--5--5----|--0--0--0--0--0--0--3--3--3--5--5-----------------------------------------|-------------------------------------__ __ __ __ __ __ __ __ __ __ __ __ __
| | | | | | | | | | | | | | |
---------------------------------------------|------------------------------0--0--0--0--0--0--0--0--0--0--0--0--0--0--0-|--Repeat last measure---------0--0--0--0--0--0--0--0--0--0--0--0--0--0--0-|--Except that first 8th note--0--0--0--0--0--0--0--0--0--0--0--0--0--0--0-|--is two 16th notes-----------0--0--0--0--0--0--0--0--0--0--0--0--0--0--0-|---(i.e) different strum pat.---------------------------------------------|------------------------------__ __ __ __
__
| | | | | |
P
| | | | |
P
--------------------------------------|------------------------------------0--0--0--0--0--0--0-----0-(0)--------|-0--0--0--0--0--0-----0-(0)---------0--0--0--0--0--0--0---0-0-(0)--------|-0--0--0--0--0--0---0-0-(0)---------0--0--0--0--0--0--3-0-0-0-(0)-0-0----|-0--0--0--0--0--3-0-0-0-(0)-0-0-----0--0--0--0--0--0--------3--0--0-0----|-0--0--0--0--0--------3--0--0-0-------------------------------------0-3--|------------------------------0-3--This next measure is the main riff...played once before the drums ^^^^^^^
and then 4 times total before the lyrics start.
__
__
| | | | |
P
| | | | |
P
------------------------------------|-------------------------------------0--0--0--0--0--0-----0-(0)--------|-0--0--0--0--0--0-----0-(0)----------0--0--0--0--0--0---0-0-(0)--------|-0--0--0--0--0--0---0-0-(0)----------0--0--0--0--0--3-0-0-0-(0)-0-0----|-0--0--0--0--0--3-0-0-0-(0)-0-0------0--0--0--0--0--------3--0--0-0----|-0--0--0--0--0--------3--0--0-0-----------------------------------0-3--|------------------------------0-3--Next is the 6 measure part played behind the lyrics. Rhythm is very
important here...just get in the groove...
__
__
__
__
| | | | | | | | | |
| | | | | | | | | |
--------------------------------|----------------------------------------5--5--5--5--5--5--5--5--0--3--|--4--5--5--5--0--5--5--5----------------5--5--5--5--5--5--5--5--0--3--|--4--5--5--5--0--5--5--5--0--3----------5--5--5--5--5--5--5--5--0--3--|--4--5--5--5--0--5--5--5--0--3----------5--5--5--5--5--5--5--5--0--3--|--4--5--5--5--0--5--5--5--0--3----------------------------------------|--------------------------------------Ah...
Caught
smil-ing
at me
that's
you
the
__
__
__
__
| | | | | | | | | |
| | | | | | | | | |
--------------------------------|---------------------------------------4--5--5--5--0--5--5--5--------|--4--5--5--5--0--5--5--5---------------4--5--5--5--0--5--5--5--0--3--|--4--5--5--5--0--5--5--5--3--3---------4--5--5--5--0--5--5--5--0--3--|--4--5--5--5--0--5--5--5--3--3---------4--5--5--5--0--5--5--5--0--3--|--4--5--5--5--0--5--5--5--3--3---------------------------------------|-------------------------------------way it
should
like a
leaf is to
a tree
so
be
__

Tablature.host.sk

__

Pagina 19 di 182

| | | | |
P
| | | | |
P
------------------------------------|-------------------------------------0--0--0--0--0--0-----0-(0)--------|-0--0--0--0--0--0-----0-(0)----------0--0--0--0--0--0---0-0-(0)--------|-0--0--0--0--0--0---0-0-(0)----------0--0--0--0--0--3-0-0-0-(0)-0-0----|-0--0--0--0--0--3-0-0-0-(0)-0-0------0--0--0--0--0--------3--0--0-0----|-0--0--0--0--0--------3--0--0-0-----------------------------------0-3--|------------------------------0-3--fine
Repeat above 6 measures a total of twice, behind lyrics...then it changes.
The timing here is great, a measure of 4/4, one 9/8, one 4/4 and one 7/8.
__
__
__
__
__
| | | | | | | | | |
| | | | | | | | | | |
---------------------------------|---------------------------------------2--2--2--2--2--2--2--2--2--2---|--5--5--5--5--5--5--5--5--0--3--5------2--2--2--2--2--2--2--2--2--2---|--5--5--5--5--5--5--5--5--0--3--5------2--2--2--2--2--2--2--2--2--2---|--5--5--5--5--5--5--5--5--0--3--5------2--2--2--2--2--2--2--2--2--2---|--------------------------0--3--5-------------------------------------|-------------------------------------__
__
__
__
| | | | | | | | |
| | | | | | | |
-------------------------------------|---------------------------------------0--0--0--0-(0)-0--0--3--5----------|--0--0--0--0-(0)-0--0--3---------------0--0--0--0-(0)-0--0--3--5----------|--0--0--0--0-(0)-0--0--3---------------0--0--0--0-(0)-0--0--3--5----------|--0--0--0--0-(0)-0--0--3---------------0--0--0--0-(0)-0--0--3--5----------|--0--0--0--0-(0)-0--0-----------------------------------------------------|--------0----------------------------The next 4 measures are the same chords and at the end, 2 measures of the
cascade tacked on...
__
__
| | | | |
P
| | | | |
P
------------------------------------|-------------------------------------0--0--0--0--0--0-----0-(0)--------|-0--0--0--0--0--0-----0-(0)----------0--0--0--0--0--0---0-0-(0)--------|-0--0--0--0--0--0---0-0-(0)----------0--0--0--0--0--3-0-0-0-(0)-0-0----|-0--0--0--0--0--3-0-0-0-(0)-0-0------0--0--0--0--0--------3--0--0-0----|-0--0--0--0--0--------3--0--0-0-----------------------------------0-3--|------------------------------0-3--Then the whole thing basically repeats once again from the beginning,
but the next time you come to the end, instead of the above cascade, play
this...a little sliding thing that introduces a new riff for the bridge verse.
__ __ __
__ __ __
__ __ __
__
| | | | | | | | | | | |
| | | | | | | | | |
------0--0--0-----------0--0--0--0-----|------0--0--0--0----------------------12/15-15-15--0--0-12/15-15-15-15--0--|--12/15-15-15-15--0--3--5--0--0--0----12/16-16-16--0--0-12/16-16-16-16--0--|--12/16-16-16-16--0--3--5--0--0--0-----------------0--0-----------------0--|------------------0--3--5--0--0--0-----------------------------------------|------------------0--3--5--0-----0-----------------------------------------|------------------------------------This is the same notes, just a different rhythm, played twice over the bridge.
__ __ __ __ _ _ _ __ __ __ __ __ _ _ _
__ __ __
| | | | | | | | | | | | | | | |
| | | | | | | | | |
-----0--0--0--0-----------0--0--0--0-------|-----0--0--0--0-----------------12/15-15-15-15-0-0-0-12/15-15-15-15-0-0-0-|-12/15-15-15-15--0--3--5--0--0--12/16-16-16-16-0-0-0-12/16-16-16-16-0-0-0-|-12/16-16-16-16--0--3--5--0--0---0-----0--0--0-0-0-0--0-----0--0--0-0-0-0-|--0-----0--0--0--0--3--5--0--0---0-----0--0--0-0-0-0--0-----0--0--0-0-0-0-|--0-----0--0--0--0--3--5--0--0--------------------------------------------|-------------------------------My
My
la
de la
Come on
now
ain't
too far

Tablature.host.sk

Pagina 20 di 182

After the above stuph, there is a part linking back to the intro riff,
basically play the 4/4, 9/8, 4/4, 7/8 part from above again, twice. The
second time you play it, Plant says "Come one now, well let me tell you
what you're miss-in', miss-in' round them brick walls." Then, immediately
after that, he plays the intro fingerpicking part with a few changes
(of course...:>).

--------------------0--0----(0)------|--------------------0--0--0-(0)--------12--0--7----------------------3----|--12--0--0--7--0----------------3------12--0--7--0--0--2/4--4-------------|--12--0--0--7--0--2/4--4-----4---------12--0--0--0--0----------5--------5-|--12--0--0--7--0-------------------5---12-------------------------0-------|--12----------------------------------------------------------------------|--------------------------------------

---------0---------0------------------|---------0--------0--------------------3---------3---------3---3---0----|-----3--------3-------3---0---0----2/4--------4---------4--------2---0--|-2/4--------4-------4-------2---0--------5---------5---------5----------|-------5--------5-------5-----------------------------------------------|------------------------------------------------------------------------|----------------------------------P
P
P
P
--------------------------------------|-----------------------------------------3-3-(3)---3-------3-3-(3)------|---------3-(3)-----3-------3-------2/4-0-0----4--0-0-0-2-0-0-------0----|-2/4-0------4--0-0---2-0--------0-------------------------------2--0----|-------0-----------------0---2--0---------------------------------------|------------------------------------------------------------------------|-----------------------------------

Tablature.host.sk

Pagina 21 di 182

Celebration Day is a cool song that's easy to play if you


practice it for a while. Make sure you listen to it a few times before
you attempt to play it. The entire song is in 4/4 so it should be easy to
keep up.
[Riff 1]
A7
(play this rapidly)
(play this rapidly)
e:----------------9--9--9--9--9--------|--------------------------------|
B:----------------8--8--8--8--8--------|-----------5--5--5--5--5--------|
G:o----------2----9--9--9--9--9--------|-----------6--6--6--6--6-------o|
D:o------------------------------------|--5--------5--5--5--5--5-------o|
A:--0--3--0----------------------------|----3-0-0-----------------------|
E:-------------------------------------|--------------------------------|
[Riff 2]
C

Bb

e:--0-0-0-0-0-0-0--3-3-3-3-3-3-3--1-1-1-1-1-1-1--1-1-1-1-1-1-1---------------|
B:--1-1-1-1-1-1-1--3-3-3-3-3-3-3--3-3-3-3-3-3-3--1-1-1-1-1-1-1---------------|
G:--0-0-0-0-0-0-0--0-0-0-0-0-0-0--3-3-3-3-3-3-3--2-2-2-2-2-2-2---------------|
D:--2-2-2-2-2-2-2--0-0-0-0-0-0-0--3-3-3-3-3-3-3--3-3-3-3-3-3-3---------------|
A:--3-3-3-3-3-3-3--2-2-2-2-2-2-2--1-1-1-1-1-1-1--3-3-3-3-3-3-3---------------|
E:-----------------3-3-3-3-3-3-3-----------------1-1-1-1-1-1-1---------------|
C

Bb

e:--0-0-0-0-0-0-0--3-3-3-3-3-3-3--1-1-1-1-1-1-1---1-1-1-1-1------------------|
B:--1-1-1-1-1-1-1--3-3-3-3-3-3-3--3-3-3-3-3-3-3---1-1-1-1-1------------------|
G:--0-0-0-0-0-0-0--0-0-0-0-0-0-0--3-3-3-3-3-3-3---2-2-2-2-2-1-1-1-1-1--------|
D:--2-2-2-2-2-2-2--0-0-0-0-0-0-0--3-3-3-3-3-3-3---3-3-3-3-3-2-2-2-2-2--------|
A:--3-3-3-3-3-3-3--2-2-2-2-2-2-2--1-1-1-1-1-1-1---3-3-3-3-3-2-2-2-2-2--------|
E:-----------------3-3-3-3-3-3-3------------------1-1-1-1-1------------------|
Progression w/ Lyrics:
[Riff 1] x2
[With Riff 1]
Her face is cracked from smiling,
all the fears that she's been hiding,
and it seems that pretty soon
evr'ybody's gonna know.
And her voice is sore from shouting,
cheering winners who are losing,
and she wonders if their days are few
and soon they'll have to go.
[Riff 1] once more, then
[With Riff 2]
C

This is an example:

G
My, my, my, I'm so happy,
Bb

F
I'm gonna join the band.
G
We are gonna dance and sing in celebration,

Bb

Tablature.host.sk

Pagina 22 di 182

we are in the promised land.


[With Riff 1]
She hears them talk of new ways
to protect the home she lives in,
Then she wonders what it's all about
when they break down the door.
Her name is Brown or White or Black;
you know her very well.
You hear her cries of mercy
as the winners toll the bell.
[Riff 1] once more, then
[With Riff 2]
My, my, my, I'm so happy,
I'm gonna join the band.
We are gonna sing and dance in celebration,
we are in the promised land.
[Solo]
[With Riff 1]
There is a train that leaves the station
heading for your destination,
But the price you pay to nowhere
has increased a dollar more. Yes, it has!
And if you walk you're gonna get there
although it takes a little longer,
And when you see it in the distance
you will wring your hands and moan.
Repeat [Riff 1] until fade out

This is the solo for Celebration Day:


e:-12--12--12--------12----|----------------------------------|
B:------------15--13----15-|------------13-15-13----15--13----|
G:-------------------------|-12--12--14----------14--------14-|
D:-------------------------|----------------------------------|
A:-------------------------|----------------------------------|
E:-------------------------|----------------------------------|
Slide
e:------------15--12---12---12----8--5----------------|-----------------|
B:-13--15--13---------------------------8---5---------|-4/5---4/5---4/5-|
G:---------------------------------------------7--5---|-----------------|
D:--------------------------------------------------7-|-----------------|
A:----------------------------------------------------|-----------------|
E:----------------------------------------------------|-----------------|
e:--------------------------------|-------------------------13----13--12|
B:-----5--------------------------|-----------------13---13----13-------|
G:--5-----7---------5-7-5---7-5---|-5--7--5--5--------------------------|
D:----------5--5--7-------7-----7-|-------------14----------------------|
A:--------------------------------|-------------------------------------|
E:--------------------------------|-------------------------------------|

Tablature.host.sk

Pagina 23 di 182

From: ihateuw@u.washington.edu (David Wong)


Here's TAB to Led Zepplin's "Communicaton Breakdown". I believe someone
requested it awhile back but am not sure whether it ever got posted. Anyway,
the main part is just plucking an open E and changing between D and A at the
fifth fret. So:
D
A D
e--------------------------------B---T--------------------7---5--7G---A--------------------7---6--7D---B--------------------7---7--7A------------------------5---7--5E------0-0-0-0-0-0-0-0-0-----5---This pattern doesn't change until the Chorus, where it switches to:
A5 A6A5 A6 A7 A5A6A5 A6 A7 A5A6A5
A6A7 A5A6A5
A6A5
e--------------------5---------------5---------------5----------------B---T----------------5---------------5---------------5----------------G---A----------------6---------------6---------------6----------------D---B----------------5---------------5---------------5----------------A------7-7-9-7-7-9-x-7---7-9-7-7-9-r-7---7-9-7-7-7-9-7---7-9-7-7-7-9-7E------5-5-5-5-5-5-x-5---5-5-5-5-5-r-5---5-5-5-5-5-5-5---5-5-5-5-5-5-5|
|
|
Semi P.M.---Semi P.M.
Semi P.M.-Semi P.M.----B5 B6B5
B6B7 B5B6B5
B6B7 B5B6B5
B5B7 B5B6B5
B6
e------------------7---------------7----------------7---------------B------------------7---------------7----------------7---------------G------------------8---------------8----------------8---------------D------------------7---------------7----------------7---------------A--9-9-119-9-9-9-119---9-119-9-9-119---9-1199-9-9-119---9-119-9-9-11E--7-7-7-7-7-7-7-7-7---7-7-7-7-7-7-7---7-7-77-7-7-7-7---7-7-7-7-7-7-0
|
|
---------------------Semi P.M.--note: The parts where it looks like I have the 119th fret indicated came from
the inconvenience of a two digit number (11), therefore no dash. The part
where it says "1199" and "77" are due to this same problem, as well as that two
sixteenth notes are played while up until here the pattern has been eigth
notes. In other words he doubles time splitting the note into two, but not
skipping a beat. This isn't really complex at all, the problem is the way I've
written out the TAB. It wouldn't be confusing if I knew how to do this
properly. Sorry.
-Dave
Then back to the main riff of eigth note Es and the D-A-D changes,
after which the chorus is repeated. The second time through the main riff and
chorus there are some minor changes which are probably not too hard to figure,
including some slides and harmonics (at the seventh fret). This is because
there have actually been two electric guitars doing this part, and the second
guitar changes to these minor variations. Anyway, let's get to the solo:
During the solo the second guitar repeats this pattern (until the
chorus):
E
D
A
E
e-------------------------------------B---T--9-----------------7-----5---7--G---A--9-9-9-9-9-9-9-9-r-7-----6---7--D---B--9-9-9-9-9-9-9-9-r-7-----7---7--A------7-7-7-7-7-7-7-7-r-5-----7---5--E------0-0-0-0-0-0-0-0-r-------5------Semi-P.M. throughout
Okay, this is probably a no-no to do in writing TAB, but to write the

Tablature.host.sk

Pagina 24 di 182

solo I'm going to pretty well forget about having the dashes mean anything in
terms of keeping time, and just get the notes down in proper order. And I
thought I had no problems with tablature. Anyone who wants to "clean-up" a
copy of this and repost is welcome to, perhaps along with sending me a detailed
e-message as to exactly where I went wrong tabbing things out. Anyway, lead
guitar goes like:
e----------12-----------------14--------------------------------------12------B---T--12-----15^12-12--------12-15^12-12-12-----12-15^12-12-----12------15^12G---A--14b-------------14-14b----------------14b-------------14b-14b----------D---B-------------------------------------------------------------------------A-----------------------------------------------------------------------------E-----------------------------------------------------------------------------------------------------------------12--------12------------------------------12----12---12-15----12--12-15^12-12----------------------------------------------14-14b--------14-14b------------------14b-14b-14^12------14-12h----------12-------------------------------------------------------14----------14-12-14----------------------------------------------------------------------------------------------------------------------------------------------------------------------12----12----12---12---15b---15---12----12------------12--------------------12----15----15-------------------------15------------12-------------------14b----------------------------------------------14b-14b-------14b^14^12----14-------------------------------------------------------------------------14-----------------------------------------------------------------------------------------------------------------------------------------------------------------------9----9----9---------------------------------------------------------10------9-9-12-9-12-9-------------------------------9--------------------10b-10b12\-----------------11b^11^9-11-11-9----9-9-11b-----11b^11^9----11-9-9-----------12--------------------------------11----------------------11-------------------------------------------------------------------------------------------------------------------------------------------------------------------------------10-------------------------------7/9---9-9\7-7-0
Okay, I know the solo
10b----10b^10^8---10-8---------------7/9---9-9\7-7-0 continues on into the
----------------9------9-8-9---------7/9---9-9\7-7-0 chorus, but it's 1:40 A.M.
---------------------------------------------------- right now, and I've got
---------------------------------------------------- classes from 8:30. I'm
----------------------------/12-x-0-r--------------- not sure if this is really
going to do anyone any
good anyway, what with my absolute lack of any time structure here.
Anyway, I'll post the rest of the solo later if someone will nicely
e-mail me and show me how to post TAB where dual digit fret numbers and adding
embellishments like bends won't mess up the time kept by the dashes. If you
have a copy of the song to listen to, this posting may yet do you some good, as
the notes are accurate, I'm fairly sure. Yawn...
Sorry, all, I'm going to catch some sleep.

Tablature.host.sk

Pagina 25 di 182

Custard Pie - Led Zeppelin


>
>
>
>
>
> Explanation:
> ~~~~~~~~~~~~
> / x
Slide up to x
> \ x
Slide down to x
> (x ^ y)
Bend up, from x to y
if notes are in pasenthesises
> (x v y)
Bend down, from x to y
they are hit once
> ([x] ^ y)
Play y bent, [don't play x]
> (x - y)
Pull off from x to y
> (x + y)
Hammer-on from x to y
> ~~x,y
Trill x and y
> ~~~x
Wiggle note
> ^~~x
Play note x bent and wiggle
>
>
> ===========================================================================
> This the differant riffs to the song.
> I have not put in the solo, but is an A pentatonic scale.
> Of course there is some movement during the chord
> changes, but A pentatonic will work if you are
> new at soloing.
>
The song is fairly simple. The riff in A is repeated x number of
> times, then to the part in D.
> Back to the A, finally to E.
>
Good Luck, and most important,
>
HAVE FUN!
>
>
>
>
>
>
>
>
>
>
>
>
>
A
>
> --------------------5--3--5-----------------------------------------------> --2-2-2--2-2--2-----5--3--5-----------------------------------------------> --2-2-2--2-2--2-----2--2--2-----------------------------------------------> --2-2-2--4-4--5-----2--2--2-----------------------------------------------> --0-0-0--0-0--0-----------------------------------------------------------> -------------------------------------------------------------------------->
>
D
D C#C
C B A#
>
> --------------------------------------------------------------------------> --------------------------------------------------------------------------> ----7-------7-6-5----5-4-3------------------------------------------------> ----7-------7-6-5----5-4-3------------------------------------------------> ----5-------5-4-3----3-2-1------------------------------------------------> -------------------------------------------------------------------------->
>
> ===========================================================================
>
>
A

Tablature.host.sk

Pagina 26 di 182

>
>
>
>
>
>
>
>
>
>
>
>
>
>
>
>
>
>
>

--------------------5--3--5-------------------------------------------------2-2-2--2-2--2-----5--3--5-------------------------------------------------2-2-2--2-2--2-----2--2--2-------------------------------------------------2-2-2--4-4--5-----2--2--2-------------------------------------------------0-0-0--0-0--0-------------------------------------------------------------------------------------------------------------------------------------E
Gsus
F G
--0------3------------------------------------------------------------------0------3------------------------------------------------------------------1------5------------------------------------------------------------------2------3----------3---5---------------------------------------------------2------5----------3---5---------------------------------------------------0------3----------1---3--------------------------------------------------

===========================================================================

2 corrections(suggestions?)
on the main riff:
A

----------------------------------------------------------------------------2-2-2--2-2-2-2-----2--0--2------------------------------------------------2-2-2--2-2-2-2-----2--0--2------------------------------------------------2-2-2--4-4-4-5-----2--0--2------------------------------------------------0-0-0--0-0-0-0------------------------------------------------------------------------------------------------------------------------------------and at the end:


E

C9

F#m

--0------3----------2---3---------------------------------------------------0------3----------2---3---------------------------------------------------1------3----------2---4---------------------------------------------------2------2----------4---5---------------------------------------------------2------3----------4---5---------------------------------------------------0------3----------2---3-------------------------------------------------Dave Singer (dmsinge@erenj.com) | "It's not a guitar....

Tablature.host.sk

Pagina 27 di 182

[two versions]
Explanation:
Dancing Days
~~~~~~~~~~~~
/ x
Slide up to x
\ x
Slide down to x
(x ^ y)
Bend up, from x to y
if notes are in parenthesises
(x v y)
Bend down, from x to y
they are hit once.
([x] ^ y)
Play y bent, [don't play x]
(x - y)
Pull off from y to x
(x h y)
Hammer-on from x to y
~~x,y
Trill x and y
============================================================================
You need to remember that Jimmy Page has this "terrible" habit of
recording a lot of guitar parts all together. I find this a real challenge
to play one part that covers everything. Sometimes they are just differant
sounds but the same part, or, differant parts combined to make a complex
score. I think it is possible that all of this (EVERYTHING!) is slide,
though I play it just picking. I have simply placed parts and labled them
so you can put them where they need to be.
============================================================================

------Dancing Days-----============================================================================
* Basically sliding off the string to open position.
:Intro
|
*
| --- Repeat two times-----------------|--------|--------------------------------------------------------(2 /3) 2 (/3\2 - 0)--------------(2 /3) 2 (/3\2 - 0)------------------------------|--------|----------------------------------------------------------------|--------|------------------------------------------------------------------------------------------------------------------------------------------------------------------------------------------------------

---------------------------------------------------------------------------------(2 /3) (2/3\2 -0)--(/7 \5)-----------(2 /3) 2 (/3\2 - 0)--------------------------------------------------------------------------------------------------------------(/7 \5)--------------------------------------------------------------------------------------------------------------------------------------------------------------------------------------------

=============================================================================
I found there many veriations on the hammers and pulls.
:Verse
---------------------------------------------------------------------------------0 3 5----- (5 h6) (6 -5)-------(/9 -7)--9 (9 -7)------------------------0 3 5----- 5------5------------/6------6 6----------------------------0 3 5----- 5------5------------/6------6 6--------------------------------------------------------------------------------------------------------------------------------------------------------------------------

-------------------------------------------------------------------------------(/6 -5 h6)--(6 h8)---(5 h6) 5---------------------------------------------/5----------5--------5------5---------------------------------------------/5----------5--------5------5------5-7-5-7-5-----------------------------------------------------------------------------------------------------------------------------------------------------------------------------

---------------------------------------------------------------------------

Tablature.host.sk

Pagina 28 di 182

---------------6
(5 h6) (6 -5)-------(/9 -7)--9 (9 -7)--------------------------------5
5
5------------/6------6 6------------------------------------5
5
5------------/6------6 6--------------------------------------------------------------------------------------------------------------------------------------------------------------------------

-------------------------------------------------------------------------------(/6 -5 h6)--(6 h8)---(5 h6) 5---------------------------------------------/5----------5--------5------5---------------------------------------------/5----------5--------5------5------5-7-5-7-5-----------------------------------------------------------------------------------------------------------------------------------------------------------------------------

----------------------------------------------------------------------------------------(6 -5)
6 (6 -5)-------(/5 -3)--6--3---5--3----------------------------5
5
5------------/3------3--3---3--3----------------------------5
5
5------------/3------3--3---3--3------------------------------------------------------------------------------------------------------------------------------------------------------------------

--------------------------------------------------------------------------------(3 -2) -3--2-(3 h5)--(2 h3) -2---------------------------------------------2------2--2--2-------2------2---------------------------------------------2------2--2--2-------2------2-----2-3-2-3-------------------------------------------------------------------------------------------------------------------------------------------------------------------------------

----------------------------------------------------------------------------------------(6 -5)
6 (6 -5)-------(/5 -3)--6--3---5--3----------------------------5
5
5------------/3------3--3---3--3----------------------------5
5
5------------/3------3--3---3--3------------------------------------------------------------------------------------------------------------------------------------------------------------------

--------------------------------------------------------------------------------(3 -2) -3--2-(3 h5)--(2 h3) -2---------------------------------------------2------2--2--2-------2------2---------------------------------------------2------2--2--2-------2------2-----2-3-2-3-(or 2-3-2-2-3-2)-----------------------------------------------------------------------------------------------------------------------------------------------------------------------=============================================================================


:Solo line over Verse
------------------------8------8---/9--(9/11)--\8-------------------------------------------5--8--8------8---/9--(9/11)--\8----------------------------------------5----------------------------------------------------------------------5-------------------------------------------------------------------3-/7-------------------------------------------------------------------------------------------------------------------------------------------

------------------------8-------------------------------------------------------------------5--8--8----------------------------------------------------------------5------------------(17\15)------(15/17)--14----------------------------5---------------------(17\15)------(15/17)--14----------------------3-/7-------------------------------------------------------------------------------------------------------------------------------------------

Tablature.host.sk

Pagina 29 di 182

------------------------8-------------------------------------------------------------------5--8--8----------------------------------------------------------------5------------------(17\15)------(15/17)--14----------------------------5---------------------(17\15)------(15/17)--14----------------------3-/7------------------------------------------------------------------------------------------------------------------------------------------============================================================================
:Solo
----------------------------------------------------------------------------------------------------------------------------------------------------------0--3--/5------3--0--3--/5--6-----------6-8-(8 ^ 10)--8-8------------------0--3--/5------3--0--3--/5--6---------------------------------------------------------------------------------------------------------------------------------------------------------------------------------------------

----------------------------------------------------------------------------------------------------------------------------------------------------------(8 ^ 10)--(8 ^ 10)--8-8-------(8 ^ 10)--(8 ^ 10)-8-8-6-6-8-6-5---------------------------------------------------------------------------------------------------------------------------------------------------------------------------------------------------------------------------------------or------------------------------------------------------------------------------------------------------------------------------------------------------------0--3--/5------3--0--3--/5--6-------(6/8) /10--/10--8-8--------------------0--3--/5------3--0--3--/5--6-------(6/8) /10--/10--8-8-------------------------------------------------------------------------------------------------------------------------------------------------------------------

----------------------------------------------------------------8------------------------------------------------------------------5---5-8---------------/10--/10--8-8---------/10--/10--8-8-6-(6/8\6)-5----5----------------------/10--/10--8-8---------/10--/10--8-8-6-(6/8\6)-5---5-----------------------------------------------------------------------------------------------------------------------------------------------------------------------

------(9/10)--9--(9/10\7)
( over and over)-----------------------------------------------------------------------------------------------------------------------------------------------------------------------------------------------------------------------------------------------------------------------------------------------------------------------------------------------------------------------------------------------------------------

From: ceh1@acpub.duke.edu (Charles Eric Horowitz)


Dancing Days by Led Zeppelin
This song has at least three guitars, tuned with their high E's to D:
EADGBD
The opening rhythm is played almost exactly the same by two guitars:
With this rhythm figure:
And the slide on the third measure:
d-0----------0--------------------------------------------------------b-2-3-2--3p2-0---------------------------5/7\5------------------------g-0-0-0--0---0--------------------------------------------------------d-0-0-0--0---0---------------------------5/7\5------------------------a---------------------------------------------------------------------e----------------------------------------------------------------------

Tablature.host.sk

Pagina 30 di 182

During the vocals, one guitar does this Chuck Berry like thing:
d---------------------------------------------------------------------b---------------------------------------------------------------------g--5--5--7-7--5---6-6-8-8-6--5-5-7-7-5-5------------------------------d--3--3--3-3--3---4-4-4-4-4--3-3-3-3-3-3------------------------------a---------------------------------------------------------------------e---------------------------------------------------------------------And during the "You know its alright" stuff:
d---------------------------------------------------------------------b---------------------------------------------------------------------g-5-5-7-7-5---3-3--5-5--3--2-2-3-3-2--2-------------------------------d-3-3-3-3-3---1-1--1-1--1--0-0-0-0-0--0-------------------------------a---------------------------------------------------------------------e---------------------------------------------------------------------The other guitar plays this:
d--7--5--7-7--5---8--6--8-8--6---7--5--7--7--5------------------------b--6--5--6-6--5---8--6--8-8--6---6--5--6--6--5------------------------g--5--5--5-5--5---6--6--6-6--6---5--5--5--5--5------------------------d---------------------------------------------------------------------a---------------------------------------------------------------------e---------------------------------------------------------------------And during the "You know its allright" part:
d---7-5--7-7--5---5--3--5--5--3--3-2--3-3---5p3p2---------------------b---6-5--6-6--5---5--3--5--5--3--3-2--3-3---2-------------------------g---5-5--5-5--5---3--3--3--3--3--2-2--2-2---2-------------------------d---------------------------------------------------------------------a---------------------------------------------------------------------e---------------------------------------------------------------------The ascending riff during the vocals is:
d--------------8-----8-8/10---10/11\8---------------------------------b----------5-8------------------------------17\15----17\14------------g--------5----------------------------------17\15----17\14------------d------5------------------------------------17\15----17\14------------a--5/7----------------------------------------------------------------e---------------------------------------------------------------------The solo goes something like this:
d---------------------------------------------------------------------b---------------------------------------------------------------------g---3-0-0-3-0-5-0-6----8/10--8/10--8--8/10--8/10-8--8/10-8/10-8-6-8-8/10
d---------------------------------------------------------------------a---------------------------------------------------------------------e---------------------------------------------------------------------d---------------------------------------------------------------------b---------------------------------------------------------------------g-2/5-----------------------------------------------------------------d---------------------------------------------------------------------a---------------------------------------------------------------------e---------------------------------------------------------------------Then just play the rythym riff up here:
d---11--12--11-12p11p9------------------------------------------------b---------------------------------------------------------------------g---------------------------------------------------------------------d----------------------------------------------------------------------

Tablature.host.sk

Pagina 31 di 182

a---------------------------------------------------------------------e---------------------------------------------------------------------That should be enough to get you going.


Enjoy,
CHUCK

Tablature.host.sk

Pagina 32 di 182

Dazed and Confused by Jimmy Page


Performed by Led Zeppelin on Led Zeppelin
Ok, here's another nice number in E. I've tried to
make this one short and easy. It only includes the beginning
of the bow and guitar solo, that should be enough to get you
started. I didn't include the intro, since it's all ready in the
archives.
There are many variations to the main riff. Just keep messing around
and you'll find something cool to do with it.
Main Riff:

Chord Riff

E-|-------------------------------------------------|
B-|-------------------------------------------------|
G-|-------------------------------------------------|
D-|------------------------------9-9-9----7-9-------|
A-|-----10-9-8-7-----------------9-9-9-7-9----7-9---|
E-|-0-0---------0-10-9-8-7-------7-7-7--------------|

First bit of bow solo


E-|-------------------------------------------------|
B-|-------------------------------------------------|
G-|-------------------------------------------------|
D-|-------------------------------------------------|
A-|-------------------------------------------------|
E-|-3\0---3\0---3\0-----7/10----7/10----------------|

First bit of solo


E-|--------------------------------------------------------------------------|
B-|----------------------------------------------15-14-12-10-8-7-5-8-7-3-2---|
G-|-------------12-14-12----------------12-14-12---------------------------3/|
D-|-------12-14----------14-------12-14--------------------------------------|
A-|-12-14-------------------12-14--------------------------------------------|
E-|--------------------------------------------------------------------------|

Chords after solo


E-|------------------------------|
B-|------------------------------|
G-|-9-9-9-9-7-----9-9-9-9-12-----|
D-|-9-9-9-9-7-7-7-9-9-9-9-12-----|
A-|-7-7-7-7-5-7-7-7-7-7-7-10-----|
E-|-----------5-5----------------|

Tablature.host.sk

Pagina 33 di 182

Coda

Repeat

E-|------------------------------------------------------------------------|
B-|-----------------------------------------------------------------7p6p5--|
G-|--------------------------------------------------------0-0-0-0---------|
D-|-5-5-5-3-7-7-7-5-9-9-9-7-11-11-11-9-14-14-14-14-14-12-------------------|
A-|------------------------------------------------------------------------|
E-|-3-3-3-1-5-5-5-3-7-7-7-5--9--9--9-7-12-12-12-12-12-10-------------------|

a few times, end with


E-|---------------------------------|
B-|---------------------------------|
G-|-7-7-7---------------7-7-7-9-----|
D-|-7-7-7---------------7-7-7-9-----|
A-|-5-5-5---------------5-5-5-7-----|
E-|---------------------------0-----|
Ok, that should do, if you have any corrections or comments let me know.
Matt O'Donnell, grifterz@aol.com

Tablature.host.sk

Pagina 34 di 182

From: ceh1@acpub.duke.edu (Charles Eric Horowitz)


Heres Fool in the Rain by Led Zeppelin:
Since I cant play piano, I wont be describing its parts.
Electric Guitar: Main Rythm
e-0--1---3---5---5---3----------------0--1--3---5---5--3\------------------b-1--3---5---5---5---4---3------------1--3--5---5---5--3\------------------g-0--2---4---5---5---4---4------------0--2--4---5---5--4\------------------d------------------------5-------------------------------------------------a--------------------------------------------------------------------------E--------------------------------------------------------------------------Acoustic 12-String during Rythym Pickup
e--------------------------------------------------------------------------b--------------5-----------------------------------------------------------g-------5----5------7---4------7--4--5-----4-------------------------------d-----5----7----------------------------7-----5----------------------------a---7----------------------------------------------------------------------E--------------------------------------------------------------------------Acoustic Guitar during the middle with all the percussion
e--0--0------1--1----1-----3--3--3--3--------------------------------------b--1--1------1--1----1-----3--3--3--3--------------------------------------g--0--0------2--2----2-----4--4--4--4--------------------------------------d--2--2------3--3----3-----5--5--5--5--------------------------------------a--3--3--------------------------------------------------------------------E--------------------------------------------------------------------------Electric Guitar during the middle
e---0--0-----1--1----1-----3--3--3--3--------------------------------------b---1--1-----1--1----1-----3--3--3--3--------------------------------------g---0--0-----2--2----2-----4--4--4--4--------------------------------------d--------------------------------------------------------------------------a--------------------------------------------------------------------------E--------------------------------------------------------------------------Guitar Solo is a Guitar Synth down one octave
e--------------------------------------------------------------------------b-----5--8--5--6-----5--8--5--6--5-----3-6-3-5----3-5-3-5------------------g--------------------------------------------------------------------------d---7--------------7-----------------5----------5--------------------------a--------------------------------------------------------------------------E--------------------------------------------------------------------------e--------------------------------------------------------------------------b--3\1----3---1-----------------------------6p5-6p5------------------------g-------2---2---2-------------------7---5------------7-5--7-5----5---------d------------------5------5-7-5---7---7-----------------------7-----7------a---------------------5/7--------------------------------------------------E--------------------------------------------------------------------------e--------------------------------------------------------------------------b--------------------------------------------------------------------------g---7--5-----5-------5-4---------------------------------------------------d------------------7-----5-------------------------------------------------a--------------------------------------------------------------------------E---------------------------------------------------------------------------

Tablature.host.sk

Pagina 35 di 182

e------------------------------------5-------------------------------------b---------------------5-6-5----5-6-8---8-6-5-6-5-6-5-----------------------g-------4-5-4---4-5-7-------7------------------------7-5-7-5-7-5-------5-7-d--5--7-------7--------------------------------------------------7-5-7-----a--------------------------------------------------------------------------E--------------------------------------------------------------------------e---------------------------------5-5---------------------------------------b--------------------6-5---5--6-8-----8--6--5--6--5---------------------10--8
g--5--7--5--------5------7---------------------------7--5----7---5--7/9----9d-----------7-7-7----------------------------------------------7------------a--------------------------------------------------------------------------E--------------------------------------------------------------------------e--------3------------------------------------------------------------------b----5-6----5--6--3-5-3-----------------------------------------------------g------------------------5-4-5-4--------------------------------------------d--------------------------------5---------------------------12-14-15-14-12-a---------------------------------------12-14-15-14-12-14-15----------------E---------------------------------------------------------------------------e----------------------------------------12--------------------------------b-------------------12----------12-12-15----15-12-15-12-12-12----12--------g-------12-12-14-14----14-12-14-------------------------------14---14-14-12d-14-15--------------------------------------------------------------------a--------------------------------------------------------------------------E--------------------------------------------------------------------------e--------------------------------------------------------------------------b--------------------------------------------------------------------------g----12--------------------------------------------------------------------d-15----14-15-14-15-14-12-14-12--------------------------------------------a-------------------------------15-15-14-12-15-14-15-14--------------------E-------------------------------------------------------15\----------------e--12---12------------------------10---------------------------------------b--------------------------------------------------------------------------g-----------9--9--9-10-9--------------7-7-7--7--9-7-9-7-----7-9-7----------d------------------------10---------------------------------------9-7-9-7--a---------------------------10---------------------------------------------E--------------------------------------------------------------------------e--------------------------------------------------------------------------b---------------------------------------------------------------5-6-5---5-6g-----------------------------7--5----5--7-----5----4----4----7-------7----d--5-7-5--------------------7------7-------------------7----7--------------a----------------------5/10------------------------------------------------E--------------------------------------------------------------------------e--5-----------------------------------------------------------------------b----8-8-5-6-5---5---------------------------------------------------------g--------------7---7-5-7-5-4-5-4---4-5--4------5-----4---------------------d--------------------------------7---------7------7----5/7--5--------------a--------------------------------------------------------------------------E--------------------------------------------------------------------------Guitar Synth during Vocals Part
e--------------------------------------------------------------------------b--------------------------------------------------------------------------g--------------------------------------------------------------------------d----3--5---------2-5------------------------------------------------------a--3----------2-5-----3----------------------------------------------------E-----------3---------------------------------------------------------------Acoustic Guitar to end:

Tablature.host.sk

Pagina 36 di 182

e----3------------5--------------------------------------------------------b------5-5----------5-6------8-6-5-----6-5---------------------------------g----------4-5----------5-5--------7-5-----7-5-4---------------------------d--------------------------------------------------------------------------a--------------------------------------------------------------------------E---------------------------------------------------------------------------

Tablature.host.sk

Pagina 37 di 182

For Your Life:


Intro to verses: (for intro to third verse, play the G majors as G minors)
--3---3-----------3---3------3---3-----------3---3-----3---3-----------3---3------3---3-----------3---3-----4---4---5-3-5---4---4------4---4---5-3-5---4---4-----5---5---5-3-5---5---5------5---5---5-3-5---5---5-----5---5---3-3-3---5---5------5---5---3-3-3---5---5-----3---3-----------3---3------3---3-----------3---3----

--3---3-----------3---3------3---3-----------3---3-------------3---3-----------3---3------3---3-----------3---3-------------4---4---5-3-5---4---4------4---4---5-3-5---4---4----5-3-5----5---5---5-3-5---5---5------5---5---5-3-5---5---5----5-3-5----5---5---3-3-3---5---5------5---5---3-3-3---5---5----3-3-3----3---3-----------3---3------3---3-----------3---3------------

Verses: (repeat this bit three times)


--------------------------------------------------------------------------------------------------------------------------------------------5--7-5-5-5-7-5----5--7-5-5-5-7-5-------------------------------------5--7-5-5-5-7-5----5--7-5-5-5-7-5-------------------------------------3--3-3-3-3-3-3----3--3-3-3-3-3-3----------------------------------------------------------------------------------------------------------3---3-----------3---3------3---3-----------3---3----------------------3---3-----------3---3------3---3-----------3---3----------------------4---4---5-3-5---4---4------4---4---5-3-5---4---4----5-3-5---5-3-------5---5---5-3-5---5---5------5---5---5-3-5---5---5----5-3-5---5-3-5-5---5---5---3-3-3---5---5------5---5---3-3-3---5---5----3-3-3---3-3-5-5---3---3-----------3---3------3---3-----------3---3----------------3-3-<-----> <----->
first
third
two
time
times

Tail end to each verse:


--------------------------------------------------------------------------------------------------------------------------------------------8---8--8----8--10--10------------------------------------------------8---8--8----8--10--10---7--8----8--10--10---5------------------------6---6--6----6---8---8---7--8----8--10--10---5------------------------------------------------5--6----6---8---8---3----------------------<----->
first time only

After second verse: (repeat it a few times)


------------------------------------------------------------------------------------------------------------------------------------------------------5----7--7--5------------5-----------------------------------7--5-6-7---7--7--7--5---7--5-6-7---7---------------------------------7-------------5--5--5---7--------------------------------------------5-----------------------5------------------------------------------

Tablature.host.sk

Pagina 38 di 182

sometimes you go on with this:


--------------------------------------------------------------------------------------------------------------------------------------------------5----------5----------5----------------------------------------5-6-7---7--5-6-7---7--5-6-7---7-------------------------------------------------------------------------------------------------------------------------------------------------------------------------------

jingle-jangle bit: (repeat a few times)


---3--------------------------------------------------------------------3-----------1------1------1------1-----------------------------------4---------2------0------0------0-------------------------------------5-------3------2------0----------------------------------------------5----------------------------3------1-0------------------------------3---------------------------------------3-1-3-3-3-3-1-3------------

guitar solo: (chords under)


--3------------------------3-------------------------------------------3--------------4--4--3---3-------------------------------------------3---------3----5--5--3---4---------3---------------------------------5---3-4-5---5--5--5--3---5---3-4-5---5-------------------------------5--------------3--3--3---5-------------------------------------------3------------------------3-----------------------------------------<------->
this bit gets repeated every so often
...then repeat the above, but up two frets

Then jingle-jangle bit, then back to intro to third verse.

Thanks to the original poster.


Peace,
Paul Z

Tablature.host.sk

Pagina 39 di 182

From: Les Paul (Zil@Masterpiece.com)


To: Guitar@nevada.edu
Subject: Four Sticks

b = Bend
v = Downstroke
For the main Riff (get a pen, It's so complex, you'll need to
write this down), Jimmy Page uses a guitar on distortion. For
the Riff 2, Page uses an acoustic 6 string. And for the part
played with the synthesizer, he plays both an acoustic and an
electric.

****************************** Four Sticks ***********************************


Led Zeppelin IV
Main Riff (Repeat as nessecery for verse)
e|--------------------------------------------------------------------------b|--------------------------------------------------------------------------g|--------------------------------------------------------------------------d|-----------5b-----------5b-----------5b-----------5b----------7-------5---a|--4--5--7--0---4--5--7--0---4--5--7--0---4--5--7--0---4--5----7-------5---E|--0--0--0------0--0--0------0--0--0------0--0--0------0--0----5-------3----

e|-----------------------------------------|
b|-----------------------------------------|
g|-----------------------------------------|
d|-----------5b-----------5b----7-------5--|
a|--4--5--7--0---4--5--7--0-----7-------5--|
E|--0--0--0------0--0--0--------5-------3--|

Riff 2 (When the owls cry in the night)


e|--------------0---------------0---------------0----------------0--------0-b|--------------0---------------0---------------0----------------0--------0-g|--------------------------------------------------------------------------d|--7--7--7--7------9--9--9--9--------7-----------------------7--------7----a|--------------------------------------------------------------------------E|--5--5--5--5------7--7--7--7--------9-----------------------9--------9-----

e|--------------0---------------0---------------0----------------0--------0-b|--------------0---------------0---------------0----------------0--------0-g|--------------------------------------------------------------------------d|--7--7--7--7------5--5--5--5--------4-----------------------4--------4----a|--------------------------------------------------------------------------E|--5--5--5--5------3--3--3--3--------2-----------------------2--------2-----

Riff 3: (guitar played in sync with sythesizer)


e|-------------------------------------------------|
b|-------------------------------------------------|
g|---------------------------5-----7-----9-----11--|
d|--9-----7-----5-----9------3-----5-----7-----9---|
a|--7-----5-----3-----7----------------------------|
E|-------------------------------------------------|

Lyrics:

Tablature.host.sk

Pagina 40 di 182

Oh, baby, it's crying time


Oh, baby, I've got to fly
Got to try to find a way
Got to try to get away
Cause you know I got to get away from you babe
Oh, baby, the river's red
Ah, baby, in my head
There's a funny feeling going on
I don't think I can hold out long

(Riff 1)

And when the owls cry in the night


Oh, baby, when the pines begin to cry
Baby, baby, how do you feel?
If the rivers run dry, baby, how would you feel?

(Riff 2)

(Riff 1)
Craze, baby, rainbow's end
Oh, baby, it's just a den for those who hide
Who hide their love to the depths of life
And ruin dreams that we all knew so babe
And when the owls cry in the night
Oh, baby, when the pines begin to cry
Baby, baby, how do you feel?
If the rivers run dry, baby, how would you feel?
Ah, baby how do you feel

(Riff 2)

(Riff 3)
Oh, brave I endure
Ooh, yeah, strong sheilds of love
They can hold the wrath of those who walk
And the boots of those who march
Baby, through the Roads of Time so long ago

Tablature.host.sk

(Riff 1)

(Riff 1)
Fade out

Pagina 41 di 182

From: Les Paul (zil@masterpiece.com)


To: Guitar@nevada.edu
Subj: Friends
For this song, Jimmy's uses a six-string acoustic guitar tuned
to an open C chord. For those beginners, here is the tuning:
e|
b|
g|
d|
a|
E|

Remains the same


Up 1/2 step to C
Remains the same
Up 1 whole step to C
Up 1 1/2 steps to G
Remains the same

X = Percussive sound
with no pitch

The second time playing RYTHYM FIGURE 1 is usually when Robert sings the
chorus, however, in the intro he does not.
Before playing RYTHYM FIGURE 2, you should listen to the actual song.
Between the open playing and the few notes with numbers is where the lyrics
will be inserted in. Also, you should be aware that RYTHYM FIGURE 2 is an
exact mirror of the string section of the song.
*******************************Friends****************************************
Led Zeppelin III
by Jimmy Page & Robert Plant
Rythym figure 1:
Repeat twice
e|--0--3--0--2--0------0--2--0--2--0--2-----0--0--0--0----0--3--0--2--0-----b|--0--3--0--2--0------0--2--0--2--0--2-----0--0--0--0----0--3--0--2--0-----g|--0---------------------------------------0--0--0--0----------------------d|--0---------------------------------------0--0--0--0----------------------a|--0---------------------------------------0--0--0--0----------------------E|--0---------------------------------------0--0--0--0-----------------------

e|--0--2--0--2--0--2----0--0--0--0----0--3--0--2--0----0--2--0--2--0--2-----b|--0--2--0--2--0--2----0--0--0--0----0--3--0--2--0----0--2--0--2--0--2-----g|----------------------0--0--0--0------------------------------------------d|----------------------0--0--0--0------------------------------------------a|----------------------0--0--0--0------------------------------------------E|----------------------0--0--0--0-------------------------------------------

e|--0--0--0--0----0--3--0--2--0----0-----------------------------------------|
b|--0--0--0--0----0--3--0--2--0----0-----------------------------------------|
g|--0--0--0--0---------------------0-----------------------------------------|
d|--0--0--0--0---------------------0-----------------------------------------|
a|--0--0--0--0---------------------0--------3-X---2-X---5-X---4X---7X--------|
E|--0--0--0--0---------------------0--------3-X---2-X---5-X---4X---7X--------|

Rythym figure 2:
e|--0-------0--0--0--0--0--0--0--0--0--0----0--0--0--0--0--0--0--0--0--0--0--0
b|--0-------0--0--0--0--0--0--0--0--0--0----5--5--5--5--3--3--3--3--3--3--3--3
g|--0-------0--0--0--0--0--0--0--0--0--0-------------------------------------d|--0-------0--0--0--0--0--0--0--0--0--0----3--3--3--3--1--1--1--1--1--1--1--1
a|--0-------0--0--0--0--0--0--0--0--0--0----0--0--0--0--0--0--0--0--0--0--0--0
E|--0-------0--0--0--0--0--0--0--0--0--0----0--0--0--0--0--0--0--0--0--0--0--0

Tablature.host.sk

Pagina 42 di 182

e|--0--0--0--0--0--0--0--0--0--0----0--0--0--0--0--0--0--0--0--0--0--0--0--0b|--3--3--3--3--3--3--3--3--3--3----7--7--7--7--5--5--5--5--5--5--5--5--5--5g|--------------------------------------------------------------------------b|--5--5--5--5--5--5--5--5--5--5----5--5--5--5--3--3--3--3--3--3--3--3--3--3a|--0--0--0--0--0--0--0--0--0--0----0--0--0--0--0--0--0--0--0--0--0--0--0--0E|--0--0--0--0--0--0--0--0--0--0----0--0--0--0--0--0--0--0--0--0--0--0--0--0-

e|--0--0--0--0--0--0--0----0--0--0--0--0--0--0--0--0--0--0--0--0--0--0--0--0b|--5--5--5--5--5--5--5----5--5--5--5--7--7--7--7--7--7--7--7--7--7--7--7--7g|--------------------------------------------------------------------------d|--3--3--3--3--3--3--3----3--3--3--3--5--5--5--5--5--5--5--5--5--5--5--5--5a|--0--0--0--0--0--0--0----0--0--0--0--0--0--0--0--0--0--0--0--0--0--0--0--0E|--0--0--0--0--0--0--0----0--0--0--0--0--0--0--0--0--0--0--0--0--0--0--0--0-

e|--0--0--0--0--0---0--0--0--0--0--0--0--|
b|--7--7--7--7--7---3--3--3--3--5--5--5--|
g|---------------------------------------|
d|--5--5--5--5--5---1--1--1--1--3--3--3--|
a|--0--0--0--0--0---0--0--0--0--0--0--0--|
E|--0--0--0--0--0---0--0--0--0--0--0--0--|

Rythym Figure 3:

e|--0-------0--0--0--0--0--0--0--0--0--0----0--0--0--0--0--0--0--0--0--0--0--0
b|--0-------0--0--0--0--0--0--0--0--0--0----5--5--5--5--3--3--3--3--3--3--3--3
g|--0-------0--0--0--0--0--0--0--0--0--0-------------------------------------d|--0-------0--0--0--0--0--0--0--0--0--0----3--3--3--3--1--1--1--1--1--1--1--1
a|--0-------0--0--0--0--0--0--0--0--0--0----0--0--0--0--0--0--0--0--0--0--0--0
E|--0-------0--0--0--0--0--0--0--0--0--0----0--0--0--0--0--0--0--0--0--0--0--0

e|--0--0--0--0--0--0--0--0--0--0----0--0--0--0--0--0--0--0--0--0--0--0------b|--3--3--3--3--3--3--3--3--3--3----5--5--5--5--7--7--7--7--9--9--9--9------g|--------------------------------------------------------------------------b|--1--1--1--1--1--1--1--1--1--1----3--3--3--3--5--5--5--5--7--7--7--7------a|--0--0--0--0--0--0--0--0--0--0----0--0--0--0--0--0--0--0--0--0--0--0------E|--0--0--0--0--0--0--0--0--0--0----0--0--0--0--0--0--0--0--0--0--0--0------e|--0--0--0--0--0--0--0--0-|
b|--3--3--3--3--5--5--5--5-|
g|-------------------------|
d|--1--1--1--1--3--3--3--3-|
a|--0--0--0--0--0--0--0--0-|
E|--0--0--0--0--0--0--0--0-|
-* Lyrics and Guitar *(Rythym Fig. 1)
(Rythym Fig. 2)
Bright light almost blinding
Black night still there shining
I can't stop; keep on climbing
Looking for what I knew
(Rythym Fig. 2)
Had a friend she once told me,
"You got love, you ain't lonley,"
Now she's gone and left me only
Looking for what I knew
(Rythym Fig. 3)

Tablature.host.sk

Pagina 43 di 182

(Rythym Fig. 1)
Mmm, I'm tellin' you now,
The greatest thing you ever can do now
Is trade a smile with someone who's blue now
It's very easy just
(Rythym Fig. 2)
Met a man on the roadside crying
Without a friend there's no denying
Your incomplete there'll be no finding
Looking for what you knew
(Rythym Fig. 2)
So anytime somebody needs you
Don't let 'em down although it grieves you
Some day you'll need someone like they do
Looking for what you knew
(Rythym Fig. 3)
(Rythym Fig. 1)
Mmm, I'm tellin' you now
The greatest thing you ever can do now
Is trade a smile with someone who's blue now
It's very easy just
(Rythym Fig. 2)
(Rythym Fig. 2)
End with a barrage of open C chords, and a droning sound

Tablature.host.sk

Pagina 44 di 182

From: macon@gallifrycommodore.com (Glen Macon)


Subject: Re: REQ "Gallows Pole" by Led Zeppelin
i play it in a standard tuning.... one of my favorites...

Gallows Pole
Trad. Arr. J. Page& R. Plant
riff :
e
B
G
D
A
E

---------------2-0-2---1-3--2-0-2---0-0--2-2-2---2-4---------------------------

riff
Hangman, Hangman, hold it a little while
I think I see my friends a commin
G
D
riff
ridin a many mile
Friends you get a little silver, get a little gold
what did you bring me, my dear friends
G
D
riff
to keep me from the gallows pole
what did you bring me
G
D
riff
to keep me from the gallows pole
I couldn't get no silver
couldn't get no gold
you know the way they took that ball
G
D
riff
to keep you from the gallows pole
A
D G D
A
D
G
Hangman, Hangman, hold it a little while
A
D
G
I think I see my brother commin
G
D
G A G A
ridin a many mile

G A

G A

Brother you get a little silver, get a little gold


what did you bring me, my brother
G
D
G A G A
to keep me from the gallows pole

brother I brought you some silver


I brought a little gold
Brought a little of everything

Tablature.host.sk

Pagina 45 di 182

G
D
G A G A
to keep you from the gallows pole
C
D
Ya I brought you
G
D
G A G A
to keep you from the gallows pole

A
D G D
A
D
G
Hangman, Hangman, turn your head a while
A
D
G
I think I see my sister commin
G
D
G A G A G A G A
ridin a many mile mile mile mile

Sister I emplore you take him by the hand


take him to some shady pass and
G
D
A G A
sit him on the rock of his man
please take him

G A

G A

G
D
A G A G A G A
sit him on the rock of main man man
A
D G D
A
D
G
Hangman, Hangman, on your face a smile
A
D
G
tell me that I'm free to ride
G
D
G A G A G A G A
ride for many mile
uh you've got a fine
she want my blood to
she want my blood to
G
to keep you from the

sister
boil
boil in her
D
G A G A
gallows pole

Your brother brought me silver


and your sister want my sole
for now I laugh oh so hard
G
D
G A G A
she's swinging on my gallows pole
for now I laugh oh so hard
G
D
G A G A
she's swinging on my gallows pole

G A

G A

G A

G A

G A

G A

swinging on my gallows pole


swinging on my gallows pole
swinging on my gallows pole

Tablature.host.sk

Pagina 46 di 182

Here are some of the basics for Gallows Pole the way I play it
Ted DaCosta

Page plays similar riffs to this basic progression


e------------0--0-0-0---------5-------------------------------------------B---2-0-2--2-0--1-1-1--1---3--0-------------------------------------------G---0-0-0--0-0--0-0-0--0---0----------------------------------------------D---2-2-2--2----2---2--2---4----------------------------------------------A-------------------------------------------------------------------------E-------------------------------------------------------------------------Hang man, hang man....

e--3-3-3--2-2--2----------------------------------------------------------B--0-0-0--3-3--3----------------------------------------------------------G--0-0-0--2-2--2----------------------------------------------------------D--0-0-0--0-0--0----------------------------------------------------------A--2-2-2------------------------------------------------------------------E--3-3-3------------------------------------------------------------------riding many a ....

Now when the mandolin comes in the following standard open chords are played
A
G D
G
Hang man,
hang man

A
D
G
hold it a little while

A
G
D
I think I see my brother coming

G
D
riding many a mile

Next part lightly muted A chord

e-------B-------G--2----D--2----A--0----E-------Brother did you get me some silver ....

Next part uses this type of riff


A
e---------------------------------------------B---------------------------------------------G---2-----2---2-2-2-2-2-----------------------D---2-----2---2-2-2-2-2-----------------------A---0-----0---0-0-0-0-0-----------------------E-3----3--------------------------------------muted lightly
Brother I brought you some silver...
Next change follows above riff
A
Yes I've

C
brought you

Tablature.host.sk

A
to keep you from the gallows pole...

Pagina 47 di 182

Also I saw some discussion on the line


"save me from the wrath of this man"

this sounds correct to me

-Gallows Pole
Led Zeppelin III

X
)
/
~~~
^

percussive tone with no pitch


bends
slide
vibrato
hammer on / pull off

To play this, page uses a 6 string acoustic to play the main part. And
a distorted electric guitar in treble for the solo
Main Riff:
e|---|----------------0--------0-----------5----|
B|---|---2--0--2------2--1-----1----/3--3------o|
G|---|---0-----0---0-----0--0--0-----0--0-------|
D|-2-|---2-----2---2-----2--2-------/4--4-------|
A|-0-|-------------------------------0---------o|
E|---|------------------------------------------|

repeat

All I have at the "Hangman, Hangman..


..brother coming many a mile" is
mandolin.
Here is the silver/gold part.
e|-------------------------------------|
B|------------------------------------o|
G|-------------------------------------|
D|-----2-----2--X--X--X--X--X--X--X----|
A|-----0-----0--X--X--X--X--X--X--X---o|
E|--3-----3----------------------------|

repeat

and the solo...


~~~~~~
~~~
e|-------------------------|-----------------------------------------------|
B|----)-----------17----)--|-------------------------------)---------------|
G|--16----------------16---|--14---------------------14--16---16--14-------|
D|-------------------------|-----------------14--16-------------------16---|
A|-------------------------|-----------------------------------------------|
E|-------------------------|-----------------------------------------------|
~~
e|--------------------------------------------------|-----------------------B|----------------)---------------------------------|----)------------------G|--14------14--16---14-----------------14--16--14--|--16---16--------------D|-----------------------------14^16----------------|-----------------------A|--------------------------------------------------|-----------------------E|--------------------------------------------------|-----------------------e|--------------------|--------------------------------------|--------------B|--------------------|--------)--------------)-----)-----)--|--------------G|---------14--16^14--|--14--16-----16--14--16----16----16---|--16--14------D|--14^16-------------|--------------------------------------|-----------16-A|--------------------|--------------------------------------|---------------

Tablature.host.sk

Pagina 48 di 182

E|--------------------|--------------------------------------|--------------~~
e|--------------------------------14----|----17^14------14------------------B|-------------------------)--14------17^14---------17------17--14----------G|--16------14----16--14-16-------------|---------------------------17--16--X
D|------16------------------------------|-----------------------------------A|--------------------------------------|-----------------------------------E|--------------------------------------|-----------------------------------e|-----------------------|----------------------------------)--------)---|
B|-----------)-----------|--------------------------------20-------20----|
G|--14--14-16----16--14--|--16------14--16-----16------------------------|
D|-----------------------|------16---------------------------------------|
A|-----------------------|-----------------------------------------------|
E|-----------------------|-----------------------------------------------|
~~~~
e|----)-----)--------------------------|------------------------------------B|--20----20----20--17-----------------|-------------------)----------------G|----------------------18\------------|--------------14-16----16--14--(14)\D|-------------------------------------|------14--16------------------------A|-------------------------------------|------------------------------------E|-------------------------------------|------------------------------------~~
e|-------------------------------------------------------------|------------B|-------------------------------------------------------------|------------G|--17--17--17--17--16--14------16--------14---16--14--14--14--|--16--16--14D|--------------------------16------16-------------------------|------------A|-------------------------------------------------------------|------------E|-------------------------------------------------------------|------------e|----------------------------------------|---------------------------------B|--------20--19--17------19--17----------|----------------------------)----G|-14-----------------17----------17--16--|--------------------------19-----D|----------------------------------------|----19--17-----------/19---------A|----------------------------------------|------------19--17\16------------E|----------------------------------------|---------------------------------~~~
e|----------|-----------------------------------------|---------------------B|----------|----)------------------------------------|--------------------17
G|--17--19--|--19-----18------------------------------|--17-----------------D|----------|-------------19-------19^17------17--19--|------19^17--19------A|----------|-----------------------------19----------|---------------------E|----------|-----------------------------------------|---------------------~~~
e|------|------------------------------------------------|------------------|
B|---)--|----------------)------------------17--17----)--|------17-----)----|
G|-19---|--------------16------14-------------------16---|-----------16---16|
D|------|------------------------------------------------|------------------|
A|------|------------------------------------------------|------------------|
E|------|------------------------------------------------|------------------|
~~
e|--------------------------------------|-----------------------------------|
B|--------------------------------------|--17----)--------17--15------------|
G|--14------14-------------------14-----|------16---14----------------------|
D|------16------16^14-------/16---------|-----------------------------------|
A|---------------------16^14------------|-----------------------------------|
E|--------------------------------------|-----------------------------------|
~~

Tablature.host.sk

Pagina 49 di 182

e|--------------------------------------|-----------------------------------B|--19--------20-19-17-----19-17--------|-----------------------------------G|----------------------17-------17-16--|-----14----------------/14---------D|--------------------------------------|---------17--14-----------------/-16
A|--------------------------------------|-----------------18\16-------------E|--------------------------------------|-----------------------------------~~
e|-----------|------------------------)------|----)-------------------------B|--------)--|----------------------17-------|--17----16--14-------14------)G|--14--16---|--14--16---14---16-------------|------------------------14-16-D|-----------|-------------------------------|------------------------------A|-----------|-------------------------------|------------------------------E|-----------|-------------------------------|------------------------------~~
e|------------|----------------------|------------------------------------|
B|------------|----------------------|-----------------)--------)-----19--|
G|----14--16--|-----14-16-14----16---|------------17-19-------19----------|
D|------------/16--------------------|-------19---------------------------|
A|------------|----------------------|------------------------------------|
E|------------|----------------------|------------------------------------|
e|---------------------------------------------------|----------------------B|---------------------------------------------------|-------X---)----------G|--20--19--17----------------14--16^14------14--16--|--14-----16-----14----D|----------------19-----/16-------------16----------|----------------------A|---------------------------------------------------|----------------------E|---------------------------------------------------|----------------------e|----------------------------|--------------------------------------------B|----20--19--17------19--17--|--------------------------------------------G|----------------17----------|-----17--16--14---------------------------14D|----------------------------|-----------------17--14-------------14------A|----------------------------|-------------------------17--16--------16---E|----------------------------|--------------------------------------------e|---------|------------------------------17^14------14-----------------|---B|------)--|--14---------------------------------17------17--14---------|---G|-16-16---|------14--16--14--16^14--14--------------------------17--16-|--14
D|---------|------------------------------------------------------------|---A|---------|------------------------------------------------------------|---E|---------|------------------------------------------------------------|---e|--------------------------------14--14--14--14------14--14--|---------B|---------------------------)----14--14----------)---14------|---17^14-G|------16------14--16--14-16-------------------16------------|---------D|--16------16------------------------------------------------|---------A|------------------------------------------------------------|---------E|------------------------------------------------------------|---------~~~
~~~
e|--------------------------------------------|------)----------------------|
B|--------------------------------------------|----10------8---10--------0--|
G|--16-^-14------16----------14-----14\-------|-----------------------------|
D|-----------16------16--16-------------------|-----------------------------|
A|--------------------------------------------|-----------------------------|
E|--------------------------------------------|-----------------------------|
~~~
e|---------------------------------|--------------------10^7----------------B|--10^9------9--10--12-9^10-------|---8^7-----7--8--0--------8^7-----------G|--------11-----------------------|--------9----------------------9--7--6--D|---------------------------------|----------------------------------------7
A|---------------------------------|-----------------------------------------

Tablature.host.sk

Pagina 50 di 182

E|---------------------------------|----------------------------------------fade out
e|-------|---------------------------------|----------------------)---------B|-------|------------------------------)--|-----------------10-12-----10--12
G|--7^6--|--7^6---------------------7--5---|------------/11-----------------D|-------|-------7--5----------------------|-7----7-------------------------A|-------|-------------7--5--4-------------|--------------------------------E|-------|---------------------------------|---------------------------------

Tablature.host.sk

Pagina 51 di 182

GOING TO CALIFORNIA
Tuning:

LED ZEPPELIN

D A D G B E

Intro:
----------------|----------------|---5---5---5---5|---5-5-5-5---5-7|
----------------|----------------|-5---5---5---5--|--7-5---5---5-7-|
----------------|-7-7-----7-7----|--7---7---7---7-|------7---7-----|
--0---0---0---0-|--0---0---0---0-|----------------|----------------|
----------------|----------------|----------------|----------------|
0---0---0---0---|0---0---0---0---|0---0---0---0---|0---------------|

p
p
3--2---0-------3|---2---0--------|--20---0---0----|--20---0---0----|
-0---0---0-3----|-0---0---0-3----|-----3---3---3--|-----3---3---3--|
--0---0------0--|--0---0------0--|--2---2---2---2-|--2---2---2---2-|
----------0---0-|----------0---0-|----------------|----------------|
----------------|----------------|----------------|----------------|
5---5---5---5---|5---5---5---5---|0---0---0---0---|0---0---0---0---|
Spent...
Made...
Some...

Smoked...
Goin'...
Love...

All...
In...
In...

p
h
h
p
h
h
--1111--10---0--|02---0--02---0--|--1111--10---0--|02---0--02---0--|
--3333--3--3----|---3---3---3----|--3333--3--3----|---3---3---3----|
--2222----------|----------------|--2222----------|----------------|
0---------------|--0---0---0---0-|0---------------|--0---0---0---0-|
--------2-------|----------------|--------2-------|----------------|
----------------|0---0---0---0---|----------------|0---0---0---0---|

(double spaced for double digits...


0

- - 12- 10- 11- - - - - 0


- - - - - - -

- - 12- 10- 11- - - - - - - - - - - 0

- - 12- 10- 11- - - - - 0


- - - - - - -

- - 12|
- 10- |
11- - |
- - - |
- - - |
- - - |

essentially an Am7 up 9 frets...)


0

- - 12- 10- 11- - - - - 0


- - - - - - -

- - 12- 10- 11- - - - - - - - - - - 0

- - 12- 10- 11- - - - - 0


- - - - - - -

- - 12|
- 10- |
11- - |
- - - |
- - - |
- - - |

p
p
----------------|----------------|--20---0---0----|--20---0---0----|
---0---3---0----|---0---3---3----|-----3---3---3--|-----3---3---3--|
-0---0---0---0-0|-0---0---0---0--|--0---0---0---0-|--0---0---0---0-|
--0---0---0---0-|--0---0---0---0-|----------------|----------------|
----------------|----------------|----------------|----------------|
5---5---5---5---|5---5---5---5---|0---0---0---0---|0---0---0---0---|
Took...
Sea...
Mount...

Never...
Wonder...
Chil...

same...
day...
wake...

watch out...

Tablature.host.sk

Pagina 52 di 182

-0---0---0---0--|-0---0---0---0--|-----------0----|-----------0----|
6--6---6---6---6|---6---6---6----|--2-----23---3--|--2-----23---3--|
--7---7---7---7-|--7---7---7---7-|-----2----------|-----2----------|
0---0---0---0---|0---0---0---0---|--2---2---2---2-|--2---2---2---2-|
----------------|----------------|0---0---0---0---|0---0---0---0---|
----------------|----------------|----------------|----------------|
Seems...
Throw...

nose...
Meet...

sinking...
high...

ending:
p
p
p
p
--20---0---0----|--20---0---0----|--20---0---0----|--20---0---0----|
-----3---3---3--|-----3---3---3--|-----3---3---3--|-----3---3---3--|
--2---2---2---2-|--2---2---2---2-|--2---2---2---2-|--2---2---2---2-|
----------------|----------------|----------------|----------------|
----------------|----------------|----------------|----------------|
0---0---0---0---|0---0---0---0---|0---0---0---0---|0---0---0---0---|
Ahhhhh.....
Ahhhhh.....
Ahhhhh.....
Ahhhhh.....
Ahhhhh.....
Ahhhhh.....
Fade out...
Spent my days with a woman unkind:
Smoked my stuff and drank all my wine.
Made up my mind, make a new start,
Goin' to California with an achin' in my heart.
Someone told me there's a girl out there
With love in her eyes and flowers in her hair.
Took my chances on a big jet plane.
Never let 'em tell you that they're all the same.
Ah, the Sea was red and the Sky was grey:
I wondered how tomorrow could ever follow today.
The mountains and the canyons start to tremble and shake:
Children of the Sun begin to wake.... [spoken:] watch out

Seems like the wrath of the Gods: got a punch on the nose
and it's startin' to flow, I think I might be sinking.
Throw me a line, if I reach it in time
(I'll) meet you up there where the path runs straight and high.

Find a Queen without a King,


They say she plays guitar and cries and sings: la-la-la-la.
Ride a white mare on the footsteps of Dawn,
Tryin' to find a woman who's never, never, never been born.
Standing on a hill and a mountain of dreams,
Telling myself it's not as hard, hard, hard as it seems....
Ahhhhh..... Ahhhhh..... Ahhhhh.....
Ahhhhh..... Ahhhhh..... Ahhhhh.....

Dexter N. Muir
D.N.Muir@massey.ac.nz

Tablature.host.sk

Fade out...

Manufacturing Pilot Plant Technician


Department of Production Technology
Massey University, Palmerston North, New Zealand

Pagina 53 di 182

From: ksm@eniac.seas.upenn.edu (Ken MacFarlane)


I saw a request for this, so I thought I'd post it.
real tab, so it may not be perfect.

This is my first

The song is not overly complex. There are three main riffs
corresponding to the chords. Just play the tab for the appropriate
chord. The tabs may not be perfect, but I know the chords are
correct.
Rhythm:

all eighth notes, played in cut time.

Intro: second half of the "D" tab.


"G" tab
E|-----------------B|-----------------G|-0-------0-------- play 4 times
D|-----0-4-----0-4-A|---2-------2-----E|-----------------"D" tab
E|---------------------------------|--------------------------------B|---------------------------------|--------------------------------G|-----0---------------------------|---2-0-2---2---2---2---2---2---2D|-4-------4---2---0---0---2---4---|-4-------4---2---0---0---2---4--A|---0---0---0---0---0---0---0---0-|--------------------------------E|---------------------------------|--------------------------------"Dm" tab
A7
Asus4 A7
E||-----------------------------------|||---------------------------------||
B||-----------------------------------|||---------------------------------||
G||*---2---2---2---2---2---2---2---2--*|*---2---2---2---2---2---3---2---2-*|
D||*-3---3---2---0---3---3---2---0----*|*-------------0-------------------*|
A||-----------------------------------|||-4---4---4-------4---4---4---4---||
E||-----------------------------------|||---------------------------------||
Verses:
G
D
Spent my days with a woman unkind, smoked my stuff and drank all my wine
G
Made up my mind, going to make a new start, going to California with an aching
D
in my heart
(etc. until:)
Dm
Seems that the wrath of the....
I hope this helps somewhat.
anyone wants to know.

Also, the song is written in the key of D, if

Hopefully, I'll try to post a few other Zeppelin tabs if I get the chance.

Tablature.host.sk

Pagina 54 di 182

From: chorowit@us.oracle.com (Chuck (cntr-T.Ryan) Horowitz)


Subject: Going To California TAB
Going To California by Led Zeppelin
This song has two acoustic guitars and a mandolin.
However I only know the guitar parts so just
play with notes for the mandolin stuff.
Both guitars are tuned to DGDGBD.
Intro on one guitar
d-----0------------0-----------------------------------------------------b------------3-----------------------------------------------------------g------------------------------------------------------------------------d---------0-----------0--------------------------------------------------g------------------------------------------------------------------------D--0------------0--------------------------------------------------------At the start of the lyrics, still one guitar
d---5-------4--4---2----0-----0--2-----0--0------------------------------b-------0------------0--------------0--------0---------------------------g-------0------------0--------------0--------0---------------------------d------------------------------------------------------------------------g---0----------0--------------0-----------0------------------------------D------------------------------------------------------------------------At "all my wine" and at corresponding part in next verse
d--------4\2--2---0------7---------7-------------------------------------b--5/7-----5--5------0----------7----------------------------------------g----------------------------9-------------------------------------------d--------0-----------0----------0----------------------------------------g------------------------------------------------------------------------D--0----------0----------0------------------------------------------------

When the second guitar enters is plays this..


d--3--2--0---3---3---2--0-----0-------2--0--0----2----0--------0---------b---------------------------------------------------------3--------------g----------------------------------0-------------------------------------d--------0-------0------0-----4----------4-----0--------0---------0------g------------------------------------------------------------------------D--0------------------------------------------------0-------0------------While the second guitar plays this..
d------------------------------------------------------------------------b------------------------------------------------------------------------g------------------------------------------------------------------------d------------------------------------------------------------------------g------------------------------------------------------------------------D------------------------------------------------------------------------d-----0--0--0------0--0--0------4-------------5---5--4-------0-0-0-0-----b-----0--0--0------0--0--0------3------2h3p2------2-----3----0-0-0-0-----g-----0--0--0------0--0--0------2----------------------------0-0-0-0-----d-------------------------------0----------------------------------------g---------------4--------------------------------------------------------D--0-------------------------0--------------------------------------------

Tablature.host.sk

Pagina 55 di 182

d--0----0-------0----0-----2--4------------------------------------------b--0----0-------0----0-----3--3------------------------------------------g--0----0-------0----0-----2--2------------------------------------------d-----------------------------0------------------------------------------g------------------------------------------------------------------------D------------------------------------------------------------------------At the "wrath of the gods" part.. guitar 1 plays X 4


d-7----0--5--5-----0---7-------------------------------------------------b---6-----------6--------------------------------------------------------g------------------------------------------------------------------------d------------0-----------------------------------------------------------g------------------------------------------------------------------------D-7----------------------------------------------------------------------then...
|--------X1---------| |----------X3-----------------|
d----------0---0-------0-------0---0--------0--0-------------------------b-----0--2--------2---------2------------2-------0--2--------------------g--0----------------------0-----------0----------------------------------d------------------------------------------------------------------------g----------------------2-----------2-----------2-------------------------D------------------------------------------------------------------------And guitar 2 plays
|------X4-----------| |-----X4-------------|
d----0-----------0-------------------------------------------------------b-------5--5--6-----6-------2h3---3---2-----2----------------------------g-6----------------------------------------------------------------------d----------0----------------2--------------------------------------------g------------------------2--------2------2-------------------------------D-7----------------------------------------------------------------------After that, replay the intro accompanyed by this on guitar 2
d---------7----------------7-------------7--7--------7-------------------b------7----------------7-------------7-----------7----------------------g---7---------7--7---9----------7--9-----------9-------------------------d------------------------------------------------------------------------g---7------------7--------------7-----7-----7-----7----------------------D---------7-------------7------------------------------------------------d----------------------7-----7--------7---7--------7---------------------b-------------------7--------------7------------7------------------------g--7---9--7--7--9---------------9------------9---------------------------d----------------------------------0------------0------------------------g--7---7-----7------7----------------------------------------------------D----------------------------0------------0------------------------------On the outro both guitar play essentially the same thing.
d--0----2---2--2-----0---------------------------------------------------b------------------------------------------------------------------------g------------------------------------------------------------------------d-----0-----------0------------------------------------------------------g-----------0------------------------------------------------------------D--0---------------------------------------------------------------------Enjoy,
CHUCK

Tablature.host.sk

Pagina 56 di 182

Okay, here's the TAB for "Good Times, Bad Times" by Led Zeppelin:
E5
[:
D
A
:]x5
e--------------------------------------------------------------------B--T--9-9-r---9-9-r---9-9-r---9-9-r---9-9-r---9-9\r-----7-7----------G--A--9-9-r---9-9-r---9-9-r---9-9-r---9-9-r---9-9\r-----7-7----------D--B--9-9-r---9-9-r---9-9-r---9-9-r---9-9-r---9-9\r----7-7-7-4-7-----A-----7-7-r---7-7-r---7-7-r---7-7-r---7-7-r---7-7\r--/5-----5---4--5-6
E-----0-0-r---0-0-r---0-0-r---0-0-r---0-0-r---0-0-r------------------This is the intro, taking you up to the chorus. ("Good Times, Bad
Times...") There are actually two guitars here, but I've tried to simplify
things as much as possible for one. Also, watch for minor changes in the
fingering, as there are changes not only between the hammers-on and slides of
the two guitar parts, but between each time the bit is repeated. My symbols
above the TAB, "[: :]x mean to repeat everything betweeen the brackets and
colons, and do it the number of times followed by "x", in this case five times.
-Dave
Here's the chorus, in which I'll TAB out the two guitar parts
separately, as there is quite a difference:
Guitar II:
x x
x x
e-----3/5--3---x-x------------------------------5-\-x-x------10-----------B--T--3/5--5---x-x-7/12-12-10---10-10-0-3/5-----5-\-x-x-7-12-12-----7-7-7-\
G--A--4/6--6---x-x-7/12-12-11---11-11-0-4/6-----6-\-x-x-7-12-12---7-7-7-7-\
D--B--5/7--7---x-x-7/12-12-12---12-12-0-5/7-7---7-\-x-x-7-12-12---7-7-7-7-\
A-----5/7--7---x-x-5/10-10-12---12-12-0-5/7-7---7-\-x-x-5-10-10---5-5-5-5-\
E-----3/5--5-------5/10-10-10---10-10---3/5-5---5-\-----5-10--------------e---------7-----------------------------------7-\-------------B--T------7---9/14---14-14---12-12-12---------7-\-------------G--A------8---9/14---14-14---13-13-13---------8-\-------------D--B------9---9/14---14-14---14-14-14---------9-\9-9-9-9-9---\r
A-----9-9-9---7/12---12-12---14-14-14---7/9-9-9-\9-9-9-9-9---\r
E-----7-7-----7/12---12-12---12-12-12---5/7-7----7-7-7-7-7---\r

("r" stands
for "rest")

Guitar I:
e-------------------------------------------------------------------------B--T-----2----------------------------------------------------------------G--A----------------------------------------------------------------------D--B--------------------2-2---2----7^5^7-----7-7-7-9-9-9-9-9-9-9-7/9-9-9-9A-----------------------0-0---0---0------0--------------------------------E-----4/5--------------0-------------------------5/7-7-7-7-7-7-7-5/7-7-7-7e-----------------------B--T--------------------G--A-----------4\r------D--B--7/9-9-9-9---------A--------------2\r------E-----5/7-7-7-7---------At this point "Sixteen I fell in love..." both guitars play the same
part, which is:
[:F#5
E5F#5
E5F#5 F#5
E5 F#5 E5F#5:]x3
e-----------------------------------------------------B--T--------------------------------------------------G--A----------11^9-11--4^2-4-x---------11^9-11-4^2-4^2-

Tablature.host.sk

Pagina 57 di 182

D--B----------11-9-11--4-2-4-x---------11-9-11-4-2-4-2A-----4-4------------------------4--------------------E-----2-2----------------------2-2--------------------Watch for changes in which notes are struck and where rests are taken
each time you repeat.
Now the chorus comes again, but this time it's in B, use chord changes
between B (x2444x), Esus4 (00222x), and E (02210x). At "when my woman left
home..." go to a C# (x4666x) on "woman", to a B (799877) to an F#
(x9.11.11.11x). Hopefully, you get the picture. I could TAB it out, but it's
not that complex, and I'm feeling lazy.
-Dave
Here's the solo:
e----------12-----12-12--12-----12------------------------------------------B--T-----12-----12-----12-----12--------------------------------------------G--A--14b----14b-----------14h----14b\14-12--14---12q-------12q--12-14-12-14h
D--B---------------------------------------14---------14-14----14-----------A---------------------------------------------------------------------------E---------------------------------------------------------------------------e-----------------------------------------------------------------------------B--T--15-----------------20bb------------17-17-17---20-17-20b-20-17----17-20^17
G--A-----14-12-14-12-0----------------------------------------------19--------D--B--------------------------------------------------------------------------A-----------------------------------------------------------------------------E-----------------------------------------------------------------------------e----------------------------------------------------------------------------B--T-----17----------------------------------------------------------12-15^12G--A--19----19-19b---x-x-x-------------------------12----12-14^12-14---------D--B-----------------x-x-x-------12----12-14-12-14-12-14---------------------A-------------------------/14-14----14---------------------------------------E----------------------------------------------------------------------------e--------12----12-15b----15-15q----------17h-17b-17h-17b-17h-17b-17b\17-15---B--T--15-12-15------------------17-15q-17----------------------------------17G--A-------------------------------------------------------------------------D--B-------------------------------------------------------------------------A----------------------------------------------------------------------------E----------------------------------------------------------------------------e-----15----15-17-17^16--17--16-17^16-17b-15h--------------------------------B--T-----17-----------------------------------17-17-17-17-15b-17bb-------15--G--A-------------------------------------------------------------------------D--B-------------------------------------------------------------------------A----------------------------------------------------------------------------E----------------------------------------------------------------------------e-----------------------------------------------------------------------------B--T--------------------------------------------------------------------------G--A--------------------------------2-2---2-2---4---4---4---4-4-4-4-4-4-4-4-4-4
D--B--7-7-7-7-----7-7^5-5^7-7-7-7---2-2---2-2-4-4---4---4---4-4-4-4-4-4-4-4-4-4
A---------------0-----------------0-------0-0-2-2-2-2---2---2-2-2-2-2-2-2-2-2-2
E-----------------------------------------------------------------------------e------------------------12--------------------------------------------------B--T------------------------15^12----12----12--------------------------------G--A--4-4-------------------------14----14----14-12^14^12----12--------------D--B--4-4-------------------------------------------------14----14^12-14^12--A-----2-2-------------------------------------------------------------------14
E----------------------------------------------------------------------------e------------------------------------------------------------------------------

Tablature.host.sk

Pagina 58 di 182

B--T--------------------------------------------------------------------------G--A--------------------------------------------------------------------------D--B--12----------------------------------------------------------------------A--------14^12-14^12^10-12^10-------------------------------------------------E-----------------------------12-10------10-10------(10)/11/12----(12)\-------hold bend
e---------------------------------------------------0-----19bbb------20bb\20--B--T-------20b-20h-20b-20h-20b-20h-20b-20b-20-----0-------19bh--20bb---------17
G--A--------------------------------------------------------------------------D--B--------------------------------------------------------------------------A-----------------------------------------------------------------------------E-----------------------------------------------------------------------------e---------------------15b\15--15-15--15-15--15-15--(15)-(15)------------------B--T--(17)\-----------15--15b\15-15b\15-15b\15-15b\(15)-(15)------------------G--A--------------------------------------------------------------------------D--B--------------------------------------------------------------------------A-----------------------------------------------------------------------------E-----------------------------------------------------------------------------e-----(14)h\14-------------14h-14h-----14h\14---------------------------------B--T---14b--14----14-14----14----------14h\14--------------------14/b-15------G--A-----------14-------14-----------------------------------------------14^12D--B--------------------------------------------------------------------------A-----------------------------------------------------------------------------E-----------------------------------------------------------------------------e-----------------------------------------------------------------------------B--T--------------------------------------------------------------------------G--A--14-12-------14^12-------------------------------------------------------D--B--------14-12-------14^12-14^12----12-------------------------------------A-----------------------------------14----14^12\^10-12^10----10^12^10---------E---------------------------------------------------------12----------10---5h/5
e-----17b/17-17-^15----17-15-17-15-17---15-15/16---------------B--T----------------17-----------------------------------------G--A-----------------------------------------------------------D--B-----------------------------------------------------------A--------------------------------------------------------------E--------------------------------------------------------------The letters following the numbers refer to bends, b for a whole step, h
for a half step, q for a quarter bend. In some cases there are combinations,
"bb" means two full steps, while "bh" would mean to bend the note one and a
half steps. You probably can also tell that guitar II has it's own variation
through much of the solo, which I haven't included. I hope this can do some
good, as I am sure there are mistakes in my transcription, and it may be
difficult to interpret overall. Oh well. E-mail me if you find glaring
errors, or simply correct and repost.

Tablature.host.sk

Pagina 59 di 182

Heartbreaker
============
by Led Zeppelin
TAB Symbols
===========
b - bend note 1/2 step
B - bend note full step
bb - bend note 1/4 step
/ - slide up
\ - slide down
Intro:
======
<---------Repeat 3x-------------->
e:|----|---------------------------------|
B:|----|---------------------------------|
G:|----|---------------------------------|
D:|----|---------------------------------|
A:|----|---3-5-6-7-------------3-5-6-7---|
E:|-3b-|-5---------3bb-5-5-5-5---------3-|
Then play this riff once:
e:|---------------------------------|
B:|---------------------------------|
G:|---------------------------------|
D:|---------------------------------|
A:|---5-7-8-9-------------5-7-8-9---|
E:|-7---------5bb-7-7-7-7---------5-|
After this, play the first riff once more.

Verses
======
e:|---------------------------------------7-5----------------------------|
B:|---------------------------------------7-5----------------------------|
G:|---------------------------------------7-5----------------------------|
D:|---------------------------------------7-7----------------------------|
A:|-7--Let-ring--/-/-/-/-/-/-/-/-10-------5-7----------------------------|
E:|-5--Let-ring--/-/-/-/-/-/-/-/--8-------5------------------------------|
Hey fellas have you heard the news
you know the ?'s back in town
A woman came 'long just to watch an' see all the fellas lay their
money down
The ?style? is new but the pay's the same as it was so long ago
But from her eyes a different smile [can't understand this at all]
Now, play this 3x:
e:|-7-5-|
B:|-7-5-|
G:|-7-5-|
D:|-7-7-|
A:|-5-7-|
E:|---5-|

After this, go to the 1st intro riff, and play it


twice. Then, play the 2nd riff once, and the 1st
riff once.

After this, the it goes back to the verse riff, with these lyrics:

Tablature.host.sk

Pagina 60 di 182

Well it's been ten years and maybe more since I first set eyes on you
The best years of my life gone by, here I am alone and blue
Some peaple cry and some people die by the wicked ways of love
But I just keep on rollin' 'long with a praise from the Lord above
Play the 'chrod' riff (above) 3x, and then this:
e:|------------------------------------|
B:|------------------------------------|
G:|------------------------------------|
D:|------------------------------------|
A:|---6-8-9-10-------------6-8-9-10----|
E:|-8----------6bb-8-8-8-8-----------6-|
Play 2x
e:|-----------------------------------------------|
B:|-----------------------------------------------|
G:|-----------------------------------------------|
D:|-----------------------------------------------|
A:|----8-10-11-12-------------------8-10-11-13----|
E:|-10------------10bb--10-10-10-10------------10-|
Play 1x
e:|------------------------------------------------|
B:|------------------------------------------------|
G:|------------------------------------------------|
D:|------------------------------------------------|
A:|----10-12-13-14------------------10-12-13-14----|
E:|-12-------------12bb-12-12-12-12-------------12-|
Play 1x
The lyrics for this part are:
People talkin' all around
'bout the way you left me flat
i don't care what the people say
i know where their job is at
one thing i do have on my mind
if you could cloarify please do
is the way you called me another guy's name
when i tried to make love . . . to you
just after 'to you', this riff comes in:
e:|------------------------------------------|
B:|-3---3-3---3-3---3-5--3---3-3---3-3---3-5-|
G:|---4-----4-----4--------4-----4-----4-----|
D:|------------------------------------------|
A:|------------------------------------------|
E:|------------------------------------------|
After this, comes the solo, which I'm not even going to attempt.
After the solo, you come back to the 'verse' riff, with these lyrics:
[can't understand first line]
abuse my love a thousand times, however hard i try
heartbreaker your time has come can't take your evil ways
go away heartbreaker
now, play the 'chord' riff 6 times, and start playing the 1st intro riff.
Play through it once, and start it again, but leave out the last 9 notes.
From: Joel Christopher Bruner <brunej@rpi.edu>

Tablature.host.sk

Pagina 61 di 182

"Hey Hey What Can I Do" by Led Zeppelin


brunej@rpi.edu - "I haven't heard this in a while -- hope you have"
{This incredible song originally appeared as the B-side to the top 20
hit, "The Immigrant Song," and recently reappeared on the Led Zep boxed
set.}
G
D
F
C
Wanna tell you 'bout the girl I love
C
My she looks so fine
G
D
F
C
She's the only one that I been dreamin' of
C
(C7 spices it up)
Maybe someday she will be all mine
[etc...]
I wanna tell her that I love her so
I thrill with her every touch
I need to tell her she's the only one I really love
[CHORUS]
riff: G G x
I got a woman,
riff
I got a woman,
riff
I got a woman,
riff
I said I got a

F CxC
wanna ball all day
she won't be true, no
stay drunk all the time
little woman and she won't be true

G
D
F
C
Sunday morning when we go down to church
C
See the menfolk standin' in line
I said they come to pray to the Lord
With my little girl, looks so fine
In the evening when the sun is sinkin' low
Everybody's with the one they love
I walk the town
Keep a-searchin' all around:
Lookin' for my street corner girl
[CHORUS]
G
D
F
C
In the bars, with the men who play guitars
C
Singin', drinkin' and rememberin' the times
My little lover does a midnight shift
She followed around all the time
I guess there's just one thing a-left for me to do
Gonna pack my bags and move on my way
Cause I got a worried mind
Sharin' what I thought was mine
Gonna leave her where the guitars play
I
I
I
I

got
got
got
got

a
a
a
a

woman,
woman,
woman,
little

she won't be true, no no


wanna ball all day
stay drunk all the time
woman and she won't be true

(hey hey what can I do)


I said she won't be true

Tablature.host.sk

Pagina 62 di 182

(Hey Hey, What can I say?)


RIFF [at same time of lyrics]
Hey hey, what can I do
C
I got a woman, she won't be true
RIFF
Lo-o-ord, hear what I say
C
I got a woman, wanna ball all day

Tablature.host.sk

Pagina 63 di 182

Hey Hey What Can I Do


by Led Zeppelin
from the Remasters
tabbed by Jay Reeves
Tab notes:
Tune all strings 3/4 step down from
standard tuning to match recorded tuning
Tempo = 76
Time Signature = 4/4 & 3/4
--R-- rest
--2/4-- slide up
--3(3)-- first note stuck, second note sustained for that beat.
--3h4-- hammer on
--3b4-- bend
> accent
X mute string

+++++++++++++++++++++++++++++++++++++++++++++++++++++++++++++++++++++++++++++++
Intro:
>
| 1 e & a 2 e & a 3 e & a 4 e & a | 1 e & a 2 e & a 3 e & a 4 e & a |
=====================================================================
e|---------------------------------|---------------------------------|
B|---------------------------------|-2-------------------------------|
G|---------------------------------|-2-----------------------2---2-2-|
D|-------------------------2---2-4-|-2---2-2-2---2-2-2---2-2-2---2-4-|
A|-------------------------3h4-0---|-----0-0-0---0-0-0---0-0-3h4-0---|
E|---------------------------------|---------------------------------|
>
>
| 1 e & a 2 e & a 3 e & a 4 e & a | 1 e & a 2 e & a 3 e & a 4 e & a |
=====================================================================
|---------------------------------|---------------------------------|
|-2---------------------------2-2-|-2---------------------------2-2-|
|-2-----------------------2---2-2-|-2-----------------------2---2-2-|
|-2---2-2-2---2-2-2---2-2-2---2-4-|-2---2-2-2---2-2-2---2-2-2---2-4-|
|-0---0-0-0---0-0-0---0-0-3h4-0---|-0---0-0-0---0-0-0---0-0-3h4-0---|
|---------------------------------|---------------------------------|
>
>
| 1 e & a 2 e & a 3 e & a | 1 e & a 2 e & a 3 e & a 4 e & a |
=============================================================
|---------------3(3)3---0-|-2--(2)-(2)-(2)-(2)-(2)-(2)-(2)--|
|-2-------2-----3(3)3---0-|-3--(3)-(3)-(3)-(3)-(3)-(3)-(3)--|
|-2-------2-----4(4)4---0-|-2--(2)-(2)-(2)-(2)-(2)-(2)-(2)--|
|-2---2-2-2-2-2-5(5)5-----|-4--(4)-(4)-(4)-(4)-(4)-(4)-(4)--|
|-0---0-0-0-0-0-----------|---------------------------------|
|-------------------------|---------------------------------|
Verse:
| 1 e & a 2 e & a 3 e & a 4 e & a | 1 e & a 2 e & a 3 e & a 4 e & a |
=====================================================================
||-------------------------2---2-0-|-2---2-0-2-0-2---2-0-----------0-|
||-2--(2)--0--(0)--0--(0)--3---3-3-|-3---3-3-3-3-3---3-3-3-3-2-1-2-2-|
||.2--(2)--1--(1)--0--(0)--2---2-0-|-2---2-0-2-0-2---2-0-2-2-2-2-2-2-|
||.2--(2)--2--(2)--0--(0)--4-------|---------0---------------2-2-2-2-|
||-0--(0)--2--(2)--X-------0--(0)--|(0)------------------------------|
||---------0--(0)--3--(3)----------|---------------------------------|
| 1 e & a 2 e & a 3 e & a 4 e & a | 1 e & a 2 e & a 3 e & a 4 e & a |
=====================================================================
|-5--(5)--4--(4)--3---3-3-2---2-0-|-2-0-2---2-----------------------|

Tablature.host.sk

Pagina 64 di 182

|-5--(5)--5--(5)--3---3-3-3---3-3-|-3-3-3---3-------2---------------|
|-6--(6)--4--(4)--4--(4)--2---2-0-|-2-0-2---2-------2---------2-----|
|-7--(7)--6--(6)--5--(5)----------|-0---0---0---2---2-----2-4-2-----|
|---------------------------------|-------------------3-4-------3b4-|
|---------------------------------|---------------------------------|
| 1 e & a 2 e & a 3 e & a 4 e & a | 1 e & a 2 e & a 3 e & a 4 e & a |
=====================================================================
|-----------------3---3-3-2---2-0-|-2-0-2-0-2---2-2-----------------|
|-2--(2)--0--(0)--3---3-3-3---3-3-|-3-3-3-3-3---3-3-3-3-3-3---------|
|-2--(2)--1--(1)--0--(0)--2---2-0-|-2-0-2-0-2---2-2-2-2-2-2-2---2-2-|
|-2--(2)--2--(2)--0--(0)--4-------|-----------------0-0-0-0-2---2-2-|
|-0--(0)--2--(2)------------------|---------------------------3-4---|
|---------------------------------|---------------------------------|
| 1 e & a 2 e & a 3 e & a | 1 e & a 2 e & a 3 e & a 4 e & a |
=============================================================
|-5---0---4---0---2---2-0-|-2--(2)-(2)-(2)-(2)-(2)-(2)-(2)--|
|-5---5---5---5---2---2-0-|-3--(3)-(3)-(3)-(3)-(3)-(3)-(3)--|
|-6---6---4---4---2---2---|-2--(2)-(2)-(2)-(2)-(2)-(2)-(2)--|
|-7---7---6-------4---4---|-0--(0)-(0)-(0)-(0)-(0)-(0)-(0)--|
|-------------------------|-0--(0)-(0)-(0)-(0)-(0)-(0)-(0)--|
|-------------------------|---------------------------------|
| 1 e & a 2 e & a 3 e & a 4 e & a | 1 e & a 2 e & a 3 e & a 4 e & a |
=====================================================================
|---------0---R-3(3)2-2-0-2---2-0-|-2-0-2-0-2---2-0-2---2---------0-|
|-2--(2)--2---R-3(3)3-3-3-3---3-3-|-3-3-3-3-3---3-3-3---3---2-1-2-2-|
|-2--(2)--2---R-0(0)2-2-0-2---2-2-|-2-------2---2-0-2---2---2-2-2-2-|
|-2--(2)--2---R-0(0)4-4---4-------|-4-----------------------2-2-2---|
|-0--(0)--0---R-------------------|---------------------------------|
|---------------------------------|---------------------------------|
| 1 e & a 2 e & a 3 e & a 4 e & a | 1 e & a 2 e & a 3 e & a 4 e & a |
=====================================================================
|---------0---R-3(3)2-2-0-2---2-0-|-2-0-2-0-2---2-0-2-0-2-0---------|
|-2--(2)--2---R-3(3)3-3-3-3---3-3-|-3-3-3-3-3---3-3-3-3-3-3-2-1-2-1-|
|-2--(2)--2---R-0(0)2-2-0-2---2-2-|-2-0-2-2-2---2-0-2-0-2-2-2-2-2-2-|
|-2--(2)--2---R-0(0)4-4---4-------|-------------------------2-2-2-2-|
|-0--(0)--0---R-------------------|---------------------------------|
|---------------------------------|---------------------------------|
| 1 e & a 2 e & a 3 e & a 4 e & a | 1 e & a 2 e & a 3 e & a 4 e & a |
=====================================================================
|---------0---R-3(3)2-2-0-2---2-0-|-2-0-2-0-2---2-0-2---2---------0-|
|-2--(2)--2---R-3(3)3-3-3-3---3-3-|-3-3-3-3-3---3-3-3---3---2-1-2-2-|
|-2--(2)--2---R-0(0)2-2-0-2---2-2-|-2-------2---2-0-2---2---2-2-2-2-|
|-2--(2)--2---R-0(0)4-4---4-------|-4-----------------------2-2-2---|
|-0--(0)--0---R-------------------|---------------------------------|
|---------------------------------|---------------------------------|
| 1 e & a 2 e & a 3 e & a 4 e & a | 1 e & a 2 e & a 3 e & a 4 e & a |
=====================================================================
|---------0---R-3(3)2-2-0-2---2-0-|-2-0-2-0-2---2-0-2---2---------0-||
|-2--(2)--2---R-3(3)3-3-3-3---3-3-|-3-3-3-3-3---3-3-3---3---2-1-2-2-||
|-2--(2)--2---R-0(0)2-2-0-2---2-2-|-2-------2---2-0-2---2---2-2-2-2.||
|-2--(2)--2---R-0(0)4-4---4-------|-4-----------------------2-2-2--.||
|-0--(0)--0---R-------------------|---------------------------------||
|---------------------------------|---------------------------------||
Repeat last 16 measures
once, then procede below.
| 1 e & a 2 e & a 3 e & a 4 e & a | 1 e & a 2 e & a 3 e & a 4 e & a |
=====================================================================
|-----------------3-3-3-3-2---2-0-|-2---2-0-2-0-2---2-0-----------0-|

Tablature.host.sk

Pagina 65 di 182

|-2--(2)--0--(0)--3-3-3-3-3---3-3-|-3---3-3-3-3-3---3-3-3-3-2-1-2-2-|
|-2--(2)--1--(1)--0-0-0-0-2---2-0-|-2---2-0-2-0-2---2-0-2-2-2-2-2-2-|
|-2--(2)--2--(2)--0-0-0-0-0-------|-X-------0---------------2-2-2-2-|
|-0--(0)--2--(2)------------------|-0-------------------------------|
|---------0--(0)------------------|---------------------------------|
| 1 e & a 2 e & a 3 e & a 4 e & a | 1 e & a 2 e & a 3 e & a 4 e & a |
=====================================================================
|-----------------3-3-3-3-2---2-0-|-2-0-2-0-2---0-------------------|
|-2---2-2-0--(0)--3-3-3-3-3---3-3-|-3-3-3-3-3---3---2---2-2-2-2-----|
|-2---2-2-1--(1)--2-2-2-2-2---2-0-|-2-0-2-0-2---0---2---2-2-2-2-----|
|-2---2---2--(2)------------------|---------0---0---2---2-2-4-2-----|
|-0---0---2--(2)------------------|-----------------4-3-4-------3b4-|
|---------0--(0)------------------|---------------------------------|
| 1 e & a 2 e & a 3 e & a 4 e & a | 1 e & a 2 e & a 3 e & a 4 e & a |
=====================================================================
|-----------------3-3-3-3-2---2-0-|-2-0-2-0-2---2-0-2---2---------0-|
|---------0--(0)--3-3-3-3-3---3-3-|-3-3-3-3-3---3-3-3---3---2-1-2-2-|
|---------1--(1)--4-4-4-4-2---2-0-|-2-------2---2-0-2---2---2-2-2-2-|
|-2--(2)--2--(2)------------------|-4-----------------------2-2-2---|
|-0--(0)--2--(2)------------------|---------------------------------|
|---------0--(0)------------------|---------------------------------|
| 1 e & a 2 e & a 3 e & a | 1 e & a 2 e & a 3 e & a 4 e & a |
=============================================================
|-5---R---4---R-2-2---R-0-|-2--(2)-(2)-(2)-(2)-(2)-(2)-(2)--|
|-5---R---5---R-2-2---R-2-|-3--(3)-(3)-(3)-(3)-(3)-(3)-(3)--|
|-6---R---4---R-2-2---R-2-|-2--(2)-(2)-(2)-(2)-(2)-(2)-(2)--|
|-7---R---6---R-4-4---R---|-0--(0)-(0)-(0)-(0)-(0)-(0)-(0)--|
|-7---R-------------------|---------------------------------|
|-------------------------|---------------------------------|
| 1 e & a 2 e & a 3 e & a 4 e & a | 1 e & a 2 e & a 3 e & a 4 e & a |
=====================================================================
|-------------R-3(3)2-2-0-2-----0-|-2-0-2-0-2---2-0-2---2---------0-|
|-2--(2)--2---R-3(3)3-3-3-3-----3-|-3-3-3-3-3---3-3-3---3---2-1-2-2-|
|-2--(2)--2---R-0(0)2-2-0-2-----0-|-2-------2---2-0-2---2---2-2-2-2-|
|-2--(2)--2---R-0(0)0-0-0-0-------|-4-----------------------2-2-2---|
|-0--(0)--0---R-2(2)R-------------|---------------------------------|
|---------------3(3)R-------------|---------------------------------|
| 1 e & a 2 e & a 3 e & a 4 e & a | 1 e & a 2 e & a 3 e & a 4 e & a |
=====================================================================
|---------0---R-3(3)2-2-0-2---2-0-|-2-0-2-0-2---2-0-2---2---------0-|
|-2--(2)--2---R-3(3)3-3-3-3---3-3-|-3-3-3-3-3---3-3-3---3---2-1-2-2-|
|-2--(2)--2---R-0(0)2-2-0-2---2-2-|-2-------2---2-0-2---2---2-2-2-2-|
|-2--(2)--2---R-0(0)4-4---4-------|-4-----------------------2-2-2---|
|-0--(0)--0---R-------------------|---------------------------------|
|---------------------------------|---------------------------------|
| 1 e & a 2 e & a 3 e & a 4 e & a | 1 e & a 2 e & a 3 e & a 4 e & a |
=====================================================================
|---------------3(3)2-2-0-2-----0-|-2-0-2-0-2---2-0-2---2---------0-|
|-2--(2)--2---R-3(3)3-3-3-3-----3-|-3-3-3-3-3---3-3-3---3---2-1-2-2-|
|-2--(2)--2---R-0(0)2-2-0-2-----0-|-2-------2---2-0-2---2---2-2-2-2-|
|-2--(2)--2---R-0(0)0-0---0-------|-4-----------------------2-2-2---|
|-0--(0)--0---R-2(2)R-------------|---------------------------------|
|---------------3(3)R-------------|---------------------------------|
| 1 e & a 2 e & a 3 e & a 4 e & a | 1 e & a 2 e & a 3 e & a 4 e & a |
=====================================================================
|---------------3(3)2-2-0-2-----0-|-2-0-2-0-2---2-0-2---2---------0-|
|-2--(2)--2---R-3(3)3-3-3-3-----3-|-3-3-3-3-3---3-3-3---3---2-1-2-2-|
|-2--(2)--2---R-0(0)2-2-0-2-----0-|-2-------2---2-0-2---2---2-2-2-2-|

Tablature.host.sk

Pagina 66 di 182

|-2--(2)--2---R-0(0)0-0---0-------|-4-----------------------2-2-2---|
|-0--(0)--0---R-2(2)R-------------|---------------------------------|
|---------------3(3)R-------------|---------------------------------|
Riff A
| 1 e & a 2 e & a 3 e & a 4 e & a | 1 e & a 2 e & a 3 e & a 4 e & a |
=====================================================================
|---------0---R-3(3)2-2-0-2---2-0-|-2-0-2-0-2---2-0-2-0-2-0---------|
|-2--(2)--2---R-3(3)3-3-3-3---3-3-|-3-3-3-3-3---3-3-3-3-3-3-2-1-2-1-|
|-2--(2)--2---R-0(0)2-2-0-2---2-2-|-2-0-2-0-2-------2-0-2-2-2-2-2-2-|
|-2--(2)--2---R-0(0)4-4---4-------|-------------------------2-2-2-2-|
|-0--(0)--0---R-------------------|---------------------------------|
|---------------------------------|---------------------------------|
Riff B
| 1 e & a 2 e & a 3 e & a 4 e & a | 1 e & a 2 e & a 3 e & a 4 e & a |
=====================================================================
||---------------3(3)2-2-0-2---R-22|-2-000-222-000-222-R-------------||
||-2--(2)--2---2-3(3)3-3-3-3---R-33|-3-333-333-333-333-R-----------2-||
||.2--(2)--2---2-0(0)2-2-0-2---R-22|-2-000-222-000-222-R-2---------2.||
||.2--(2)--2---2-0(0)0-0-0-0---R-00|-0-000-000-000-000-R-2---2-----2.||
||-0--(0)--0---0-2(2)--------------|---------------------3b4-0-------||
||---------------------------------|---------------------------------||
^
Mute at
this fret
and strike
Repeat last 2 measures
3 more times then play
Riff A 1 time, Riff B 2
times, Riff A 2 times
then play the following:

| 1 e & a 2 e & a 3 e & a 4 e & a | 1 e & a 2 e & a 3 e & a 4 e & a |


=====================================================================
|---------0---R-3(3)2-2-0-2---2-0-|-2---2---2---2---5---7---7-R-9---|
|-2--(2)--2---R-3(3)3-3-3-3---3-3-|-3---3---3---3---6---8---8-R-10--|
|-2--(2)--2---R-0(0)2-2-0-2---2-0-|-2---2---2---2---5---7---7-R-9---|
|-2--(2)--2---R-0(0)4-4---4-------|---------------------------------|
|-0--(0)--0---R-------------------|---------------------------------|
|---------------------------------|---------------------------------|
| 1 e & a 2 e & a 3 e & a 4 e & a | 1 e & a 2 e & a 3 e & a 4 e & a |
=====================================================================
|(9)--X-------0---0-0-0---2---0---|-2-----------4444
|(10)-X-------3---3-3-3---3---3---|-3-----------5555
|(9)--X-------0---0-0-0---2---0---|-2-------2/444--- fades completely out
|---------0-0-0-------------------|---------4/66---|---------3-3(3)-(3)-(3)----------|----------------|---------------------------------|----------------^
Mute strings here by bring the picking hand down across
all strings and at the same time, tap the sound board
of the guitar with a free finger of the picking hand.

Tablature.host.sk

Pagina 67 di 182

TAB and Chords for Led Zeppelin's Hot Dog (on In Through The Out Door, I
believe). For the lyrics that I was unsure of I put underlines, and for
the tab I was unsure of, I left blank. I also did not denote any hammer-ons/
pull-offs in the solo, and I am not sure whether or not they belong in the
beginning and at the end.
^ Hammer-On/Pull-Off
) Bend up
( Release Bend

---------------------------------------------------------------------------------------------------------------4^2^0-------------0---------4^2^0-------------5^4^5-------0---------0-----5^4^5-------0-----0---0-----------------3^2^3-----------------------5-------------------------------------------------------------------------------------------------------------------------------------------------------------------------4^2^0-------------0---------4^2^0-----0-------5^4^5-------0---------0-----5^4^5-------0---------------------------3^2^3-------------------------0-2-4----------------------------------------------------GGCCGGDD
GGCCGDGG
GGCCGGDD
GGCCGDGG
G
Well I just got in to town today,
C
To find my girl has gone away,
G
D
She took the Greyhound in the general store.
G
I searched myself, I searched the town,
C
And when I finally did set down,
G
D
G
I found myself no wiser than before.
She said we couldn't do no wrong,
No other love could be so strong,
She locked up my heart in the bottom drawer.
Now, she took my heart, and she took my keys,
>From in my old blue dungarees,
And I'll never love old Texas anymore.
D
Now
D
She
C
And
C
I'm

G
that my baby's gone, I don't know what to do,
G
took my love and walked right out the door.
G
if I ever find that girl, I know one thing for sure,
D
gonna give her something like she never had before.

I took her love at seventeen,


A little late these days, it seems,
But they said_________________before.

Tablature.host.sk

Pagina 68 di 182

I took her word, I took it all,


I made the__________________
Shouldn't let______________ more.
Hot Dog!
-----------------------0---------------------3-2-3-5-3---3-----------------3-2-3---3---------3-5---5-3---------------------2-4---4-2-------------5-4-5-------------------------5-4-5-------------------------------------------------------------------------------------------------------------------------------------------------------------------------3------------7------------7---5)--(5-3-5)-5-----------------8-7-8-10-----8-7-8-10-------------------------------------------------------------------------------------------------------------------------------------------------------------------------------------------------------------------------------------------------------------------------------------------------------------------------------------------------------------------------------------------------------------------------------------------------------------------------------------------------------------------------------------------------------------------------------------------------------------------------------------------------------------------------------------------------------------------------------------2-4-2---------------------------------------------5-4-5-------5-4-5---5)------------------------------------------------------------------------------------------------------------------------------------------------------------------------------------------------------------------------------------------------------------------------------------------------------------------------------------------------------------------------------------------------------------------------------------------------------------------------------------------------------------------------------------------------2-3-2-3-5-3---------------------------------------3-5-3-5-------------------2-4-2-----------2-4-2-----5-4-5---------------------5-4-5-------5-4-5-4-5-------5-4---------------------------------------------------------------------------------------------------------------------------------------------------15-13---------------------------------13)-------13)(-------------------------------------------12-15-12------------------------------------------------------------------------------------------------------------------------------------------------Now
She
And
I'm

that my baby's gone, I don't know what to do,


took my love and walked right out the door.
if I ever find that girl, I know one thing for sure.
gonna give her something like she never had before.

I_________________ luck,
I________________________ truck,
But____________________________.

Tablature.host.sk

Pagina 69 di 182

I never did quite understand,


All that junk about _____ _ands,
But they just rolled my ____ right out the door.
But they just rolled my ____ right out the door.
But they just rolled my ____ right out the door.
---------------------------------------------------------------------------------------------------------------4^2^0-------------0---------4^2^0-------------5^4^5-------0---------0-----5^4^5-------0-----0---0-----------------3^2^3-----------------------5---------------------------------------------------------------------------------------------------------2-3-------------------------------------------------3-0---------4^2^0-------------0---------4^2^0---0---2-0---5^4^5-------0---------0-----5^4^5-------0-----0-0-------------------3^2^3---------------------------2---------------------------------------------------3---

Tablature.host.sk

Pagina 70 di 182

Houses Of The Holy


Words and Music by Jimmy Page and Robert Plant
From the Recording Physical Graffitti
Transcribed by Ted DaCosta
First I'll tab the different guitar parts and then the words
notation
h = hammer on
p = pull-off
b = bend
Intro
Repeat these first 2 bars twice
e--------------------------------------------------------------------------e-----------------------|--------------2--2--------------------------------B-----------------------|--------------2--2--------------------------------G-------------2--2------|--------2--2--2--2--------------------------------D----2--2-----2--2----2-|--2-----2--2--2--2--------------------------------A----3--4--0--0--0----3-|--4--0--0--0--------------------------------------E-----------------------|---------------------------------------------------

e-----------------------|--------------2--2-2-|-2--------------------------B-----------------------|--------------2--2-2-|-2--------------------------G-------------2--2------|--------2--2--2--2-2-|-2-------2-2----------------D----2--2-----2--2----2-|--2-----2--2--2--2-2-|-2-2-----2-2--2-------------A----3--4--0--0--0----3-|--4--0--0--0---------|---3-4-0-0-0--3-------------E-----------------------|---------------------|----------------------------This chord rings into the next bar for the start of the verse
e-------------2--2---------------------------------------------------------B-------------2--0---------------------------------------------------------G-------2-2---2--1---------------------------------------------------------D--2----2-2---2--2---------------------------------------------------------A--4--0-0-0----------------------------------------------------------------E---------------------------------------------------------------------------

Note that the chords on the verses sustain a little, but notation wasn't easy
so listen to the record to get the timing and feel.
Verses

e----------2--|--2--3--2--0-|----------------------------------------------B----------3--|--3--3--3--2-|-0-0------------------------------------------G----------2--|--2--4--2--2-|-1-1------------------------------------------D-------2--0--|--0--0--0--2-|-2-2------------------------------------------A---2h4-------|-------------|----------------------------------------------E-------------|-------------|----------------------------------------------The above is repeated for the verses 4 times. But the last time no E is
played, instead Jimmy goes back into the intro parts. Othertimes in the
song he plays the E four times before going back to the intro. Listen
to the recording to get these changes, it is quite clear.
Note during the song similar riffs to the intro. The little riff fill goes
something like this. Note that Jimmy plays variations on the fill.
bend from b to c# and then back to b
e---------------|------------------------------|---------------------------B--------2-2----|-----2------------------------|---------------------------G--------2-2----|-----2--4b-6b-4-2-4p2-4p2-----|---------------------------D--2-----2-2--2-|-2---2--------------------4p2-|---------------------------A--3-4-0------3-|-4-0--------------------------|-0-------------------------E---------------|------------------------------|----------------------------

Tablature.host.sk

Pagina 71 di 182

riff fill
variation something like this
e---------------|--------------2------------------------------------------B--------2-2----|-----2----------5p2--------------------------------------G--------2-2----|-----2--4b-6b-------4p2---4p2---2------------------------D--2-----2-2--2-|-2---2------------------4-----4--------------------------A--3-4-0------3-|-4-0-----------------------------------------------------E---------------|----------------------------------------------------------

Words :
Let me take you to the movies, can I take you to the show?
Let me be yours ever truly, can I make your garden grow?
>From the houses of the holy, we can watch the white doves go.
>From the door comes Satans daughter, and it only goes to show.
There's an angel on my shoulder, in my hand a sword of gold.
Let me wander in your garden, and the seeds of love I'll sow.
So the world is spinning faster, are you dizzy when you stall
Let the music be your master will you heed the master's call

and you know.

You know.

Ohhh

Said there aint no use in crying, cause it will only, only drive you mad
Does it hurt to hear them lying? Was this the only world you had?
So let me take you take you to the movies, can I take you baby to the show
Why don't you let me be yours ever truly, Can I make your garden grow?

Thanks to the original poster.


Peace,
Paul Z

Tablature.host.sk

Pagina 72 di 182

TITLE: How Many More Times


==================
ARTIST: Led Zeppelin

The main riff throughout the entire song goes like this:
|-----------------|------------------|
|-----------------|------------------|
|-----------------|------------------|
|------2-0------0-|-----2----0-----0-|
|----------2------|--------------2---|
|-0---------------|-0----------------|

This repeats a bunch of times (with the lyrics - see below) and then:
|-5--5----5--------5--5----5-|
|-7--7----7--------5--5----5-|
|-7--7----7--------6--6----6-|
|-7--7----7--------7--7----7-|
|-5--5----5--------7--7----7-|
|------------------5--5----5-|
Lyrics:
How many more times,
treat me the way you wanna do?
How many more times,
treat me the way you wanna do?
When I give you all my love,
please, please, be true.

I'll give you all I got to give: rings, pearls and all;
I'll give you all I got to give: rings, pearls and all.
I've got to get you together, baby, I'm sure, sure you're gonna crawl.

How many more times,


barrelhouse all night long?
How many more times,
barrelhouse all night long?
Well, I've got to get to you, baby, oh, please come home.

If you have any Zeppelin requests from the first five albums, just
mail me.
Ciao.
-s442223@nexus.yorku.ca (Chaos)

Tablature.host.sk

Pagina 73 di 182

From: dlieb@ix.netcom.com (DAVE LIEBAU )


Subject: TAB:I Cant Quit You Baby;Led Zeppelin
To: guitar@nevada.edu.LED.ZEPPELIN"I Can't Quit You
Baby"Written.by.Willie.Dixon.Led.Zeppelin.I

Oh,_________
I can't quit you babe,
|---------------------------|---------------------------------|--5---|---------------------------|---------------------------------|--5---|---------------------------|---------------------------------|--5---|---------------------------|---------------------------------|------|---------------------------|---------------------------------|--5---|---------------------------|---------------------------------|-------

so I'm gonna put you down for a while


Full
--------------------------------------------------------------------------------------------------------------------------------------5----------------------------------------------x------------------7----------------------------------------------------------------------------------------------------------------------------------------------------------------------------------------------------------------------

Full
Full
Full
Full
-----------------------------------------|---------------------------8p5---8~~~---(8)--5----------------------|------5h8p5------8~~~---------------------------7--5--6~~~--(6)/16--|---7--5-------------------------------------------------------------|--------------------------------------------------------------------|--------------------------------------------------------------------|----------------------------

Full
I can't quit you babe,
2
-----------------------------------------|----------------------------(8)\7-~~~---------------------------10--|--(10)~~~-----------------------7-----------------------------------|--------------------------------------------------------------------|--------------------------------------------------------------------|--------------------------------------------------------------------|----------------------------

I guess I've got to put you down_


Full
----------------------------------------------|--------------------------------------------------------------------|---------5--5--8p5--------------------------------------------------|------7-------------------------------------------------------------|--------------------------------------------------------------------|--------------------------------------------------------------------|-----------------------

Full
Full
Full
------------------------|---------------------------|-----------------8~~~--(8)--------------|------5--5--8p5------------|----------------------------7--5--6~~~--|---7-------------5/-13~~~--|----------------------------------------|---------------------------|----------------------------------------|---------------------------|----------------------------------------|---------------------------|-----------------

Said, you messed up my..........


--------------------------------------/21--------------|--5-----------------------------------------------------------------|--5------------------------------------------------------/18--------|--5-----------------------------------------------------------7-----|--------------

Tablature.host.sk

Pagina 74 di 182

----------------------------------------------------0--|--5-----------------------------------------------------------------|--------------

made me mistreat my only child.


Full
----------------------------------------------------------------------------------------------------------------------5--6-----------------------------------------------------------------6--7------7p5--7-----------------------------------------------------7--8-----------------------------------------------------------------7--8-----------------------------------------------------------------5--6-----------------

Full
Full
-----------------------|--------------------------------------------------------------------|-----5-----6---------------------------------p5-----5--7--7--7---7--|~~~--6-----7---7p5--7p5-----5--------------------7------------------|-----7-----8-------------7-----7--5h7p5-----------------------------|-----7-----8-----------------------------7--------------------------|-----5-----6----------------------------------

Said,you know I love you baby,


---------------||-------------------------------------------------------------------||-------------------------------------------------------------------||----------------------------------------------------5--------------||-------------------------------------------------------7--5--4~~~--||-------------------------------------------------------------------||-----------------------------------------------------

slide
slide
----4--|--5---------5--------8-------------------------------------------4--|--5---------5--------8-------------------------------------------4--|--5---------5--------8---------------------------------------x------|-----------------------------------------------------------------4--|--5---------5--------8----------------------------------------------|--------------------------------------------------------------

my love for you I could never hide


Full
-------------------------------|--------------------------------------------------------------------|------------------------------5--5----------------------------------|---------------------------7----------------------------------------|--------------------------------------------------------------------|--------------------------------------------------------------------|--------------------------------------

Full
Full
Full
---------------------------------|-----------------------------------8p5---8~~~---8p5-----------------|------5--5--8p5--------------------------------------7--5--6~~~/19--|---7-------------4/14~~~~~~-----------------------------------------|--------------------------------------------------------------------|--------------------------------------------------------------------|------------------------------------

Full
You know I love you, baby
(all slides)
-------|---|----------------------------------------------------------------|---|----------------------------------------------------------(14)--|---|---------------------------------------4--3--4--2--4------------|---|----------------------------------------------------------------|---|---------------------------------------5--4--5--3--5------------|---|----------------------------------------------------------

Tablature.host.sk

Pagina 75 di 182

my love for you I could never hide


---|--------------------------------------------------------------------|-----------------------------------------------------------------2--|--4-----2-----------------------------------------------------------|-----------------------------------------------------------------3--|--5-----3\----------------------------------------------------------|------------------------------------------------------------------

Full
Full
Full
Full
----------------------------------------5--------|-----------------------5--5--8p5---8~~~---8p5-----------5---/11~~~--|---------5--5--8----7--------------------------7--5--6--------------|------7-------------------------------------------------------------|--7-----------------------------------------------------------------|--------------------------------------------------------------------|--------------------

Full
Full
--------------------------------|------------------------------------p5---8~~~---8p5-----------5-----|--5~~~-----------------------------------------------7--5--6-----6--|--------------------------------------------------------------------|--------------------------------------------------------------------|--------------------------------------------------------------------|-------------------------------------

When I feel you near me little girl


2
-----------------------------------------------------|----------------------------------------------------------------13--|---(13)-------------------------------------------------------------|--------------------------------------------------------------------|--------------------------------------------------------------------|--------------------------------------------------------------------|----------------

I know you are my one........


1/2
---------------------------------------------------------|--5--------10~~~-------------------------------------------------7--|--5--------------------------------------------------------------7--|--6-----------------------------------------------------------------|--7-----------------------------------------------------------------|--7-----------------------------------------------------------------|--5---------

Full
Full
6----------------------------------|---------------------------------6----------------------------------|---------5-----6-----------5-----7------7p5--7p5-----5--7--7--7--7--|---7~~~--6-----7--------5--------8----------------7-----------------|---------7-----8-----7-----------8----------------------------------|---------7-----8-----------------6----------------------------------|---------5-----6------------------

Guitar solo
Full
1/2
||------5--------------8--9------10-------8--|------10--8-----8------||------5-----8/10~~~----------------10------|--10-------------------||-------------------------------------------|-----------------------||-------------------------------------------|-----------------------||-------------------------------------------|-----------------------||-------------------------------------------|------------------------

Tablature.host.sk

Pagina 76 di 182

Full
1/2
8---------8h9--9--10p9--10p9---10--10---8-------------8--9~~~--|--------10~~~-----------------------------------10--10~~~-----------|--------------------------------------------------------------------|--------------------------------------------------------------------|--------------------------------------------------------------------|--------------------------------------------------------------------|------

Full
1/2
1 1/2
10p9---10-------------8------|--12---------------12--------------------------------10~~~------10--|------10--10--10-------10--10--10-----------------------------------|--------------------------------------------------------------------|--------------------------------------------------------------------|--------------------------------------------------------------------|----------------------------------------

1 1/2
1 1/2
-12-----------12--13--12--10------10----------------------------|---------10--10-------------------13------13--13p12p10------10------|--------------------------------------------------------11------11--|--------------------------------------------------------------------|--------------------------------------------------------------------|--------------------------------------------------------------------|-----

2
2
---------------------------------------------------------------------10--12--10--12p10------10------10---13------(13)-----10--10--10-------------------------11------11--------------------------------------------------------------------------------------------------------------------------------------------------------------------------------------------------------------------------------------------------------

Full
--------|------------------------------------------------------------~~~--13\|----5--8p5--8p5-----------------------------------------------------|/6----------------7--7--5--6--------------------5-----5-------------|------------------------------7--5-----5--6--7-----7----------------|------------------------------------7-------------------------------|-------------------------------------------------------------

Full
1/2
-----------8p5-----5--------------|--------------------------------------5h8p5-------8-----8p5---------|-------------5---------------------7--------------------------7--5--|--------5h6-----7--5--6---------------------------------------------|--7--7-------------------5~~~---------------------------------------|--------------------------------------------------------------------|-----------------------------------

-------------------------------------|--------------------------------------------------------------------|--------------------------------------------------------------------|----------------------------------5h7p5--5--------------------------|-------------------------------0------------7--5--4~~~--5--4--5--4--|--5--4--5--4--5--4h5--5--4------------------------------------------|--------------------------------

-------------------------|--------------------------------------------

Tablature.host.sk

Pagina 77 di 182

-------------------------|--------------------------------------------------------------------|------------------------5-----5--7p5--7-----------------x-----------|-------5-----5--7p5--7-----7---------------5p4--5/7--0---/10-----x--|/7--7-----7---------------------------------------------------0-----|--------------------------------------------

-------------------8p5-----5-------------------------------------5---5-----5--8p5--8p5-------8-----8p5-----------------------------8------5--7-------------------------------7p5h7p5--7p5-----5-----/7----------------------------------------------------------7-----7--------------------------------------------------------------------------------------------------------------------------------------------------------

2
2
Full
Full
|----------------------12--|--12-------------------------------------|---13~~~---13p10~~~-------|------10~~~--5--------6------------------|--------------------------|-------------6--------7------7p5--7p5----|--------------------------|-------------7--------8------------------|--------------------------|-------------7--------8------------------|--------------------------|-------------5--------6-------------------

Full
Full
---------------------------|-----------------------------------------------7--------------------|---------5-----6----------------------------5--7--7--7--7--7--7--x--|---7~~~--6-----7------7--7p5--7p5--------7--------------------------|---------7-----8-------------------7--------------------------------|---------7-----8----------------------------------------------------|---------5-----6--------------------------

Full
Full
---------------5--||---10-----10-----8------10------------------|----------------5-----||---10-----10-----8------10------------------|----5-----5--6--------||----------------------------------------10--|-------7--------------||--------------------------------------------|----------------------||--------------------------------------------|----------------------||--------------------------------------------|-----

Full
1/2
Full
Full
-10-----10------8--------------------------------|---10------10-------10-----10------------10--10~~~--(10)/20-----10--|--------------------------------------------------------------------|--------------------------------------------------------------------|--------------------------------------------------------------------|--------------------------------------------------------------------|--------------------

Full
Full grad. release
10--8---10---------------|---10---------------------------10--|---------------------------10--|---10---------------------------10--|-------------------------------|------------------------------------|-------------------------------|------------------------------------|-------------------------------|------------------------------------|-------------------------------|------------------------------------|-------

Full
Full
----------------------------------------8p5-----5----------------------------------------------------5--8p5-------8--5---------------------9--9p7\5--7p5-----5-----5---7---------------------7p5--7p5-----5-----

Tablature.host.sk

Pagina 78 di 182

----------------7-----7--------------------------------------7--------------------------------------------------------------------------------------------------------------------------------------------------

Full Full
Full
-------------------|-------------------------------------------8------------------------|-----------------------------------5--8p5---------------------------|---9p7---7p5--7p5-----5-----5---7----------------7--5h7p5-----5--7--|-------------------7-----7---------------------------------7--------|--------------------------------------------------------------------|--------------------------------------------------

p5-----5--5--5--|--------------------------------------------------------8-----------|--------------------------------------------------------------------|--------5-----------------------------------------------------------|--0--7-----7--5h7p5-----5-------------------------------------------|---------------------7-----7p5--5\4--5\4--5\4--5--------------------|-----------------------------------------------------

1/2
---------------------------------------------------|--------------------------------------------------------------------|--------------------------------------------------------------------|--------------------------------------------------------------------|-------5---------\4\5--4---5-----5-------------------5-----------x--|--5/6-----7--3----------------7-----8--5h8--5--5--7-----8--8--7-----|------------------

Full
----------------------------------------------------------------|--------------------------------------------------------------------|-----------------------------------------------------------------0--|-------------------------------5-----5h7--7---7--7--5h7p5-----5-----|----h5p3p0--3----------5/6--7-----7------------------------7--------|---------------5--5p0-----------------------------------------------|-----

Full
Full
---------------------------8p5-----5--5--------8--9--10--|--10--------------------------5--8p5-------8--------8/10------------|---------------------------7----------------------------------------|-----------5---7~~~-----5\------------------------------------------|---------------------7----------------------------------------------|--------------------------------------------------------------------|------------

Full
1/2
Full
1/2
-10------8-------------10---10--8-----------------|------------------------------10~~~--10--------------10~~~--(10)\5--|--6--------------------------------------------------------------6--|--7------7p5--7--------------------------------------------------7--|--8-----------------------------------------------------------------|--------------------------------------------------------------------|-------------------

Full
-------------------------------------5--------------------------------------------------5--5--8p5--8p5h8------8--------5--5-----5---------p5-----5-----5--7---------------------------------------7-----7p5--------7-----7--------------------------------------------------------------------------------------------------------------------------------

Tablature.host.sk

Pagina 79 di 182

----------------------------------------------------------------------

1/2
1/2
1/2
1/2
1/2
--------------------------------------------------------------------------------5-----6------------------------------------------------------7p5~~~--6-----7---7--(7)---(7)--(7)---(7)--(7)---(7)--(7)---(7)---7----------7-----8--------------------------------------------------------------7-----8--------------------------------------------------------------5-----6----------------------------------------------------

Full
When I hear you moanin and groanin,..
-------||-------------------------------------------------------------------||-------------------------------------------------------------------||----------------------------------------------------------------7--||~~~----------------------------------------------------------------||-------------------------------------------------------------------||-------------------------------------------------------------

slide
you know it hurts me.............
------4---------5------------------------------------------|---------------4---------5------------------------------------------|---------------4---------5------------------------------------------|--------------------------------------------------------------------|---------------4---------5------------------------------------------|--------------------------------------------------------------------|----------

Full
Full
Full
----------5--------------------------------------------------------------5--5-----8p5---8~~~--------5/14------5--5--8p5---/10/13/15/17-----7-----------------------7--5---------7----------------------------------------------------------------------------------------------------------------------------------------------------------------------------------------------------------------------------------------------

when you hear me moanin' an'........


Full
|--------------------------------------------------------------------|----------------------------------------------------------7--7------|----------------------------------------------------------7--7------|--------------------------------------------------------------------|--------------------------------------------------------------------|---------------------------------------------------------------------

Full
Full
Full
1 1/2
you know it hurts...........
--------------------------------------------------------------|-------7--7---7--7---7--7---7---------------------------------------|-------7--7---7--7---7--7---7--x------------------------------------|--------------------------------------------------------------------|--------------------------------------------------------------------|--------------------------------------------------------------------|-------

Full
Full
Full
----------------------------------------5-----------|--------------------5--5--8p5---8~~~--8--5-----------5---/10~~~--x--|------5--5--8----7--------------------------7--5--6-----------------|---7----------------------------------------------------------------|--------------------------------------------------------------------|--------------------------------------------------------------------|-----------------

Tablature.host.sk

Pagina 80 di 182

Full
slide
When,you hear me holler,baby..
--------------4------|-----7-----------------------------------------p5---8~~~-----4------|-----7-------------------------------------------------------4------|-----7--------------------------------------------------------------|-------------------------------------------------------------4------|-----7--------------------------------------------------------------|------------------------------------------------

slide
-------/16-------------|------------5--------|---------------------------------/17----------|------------5--------|-----5--------6---------------------/16/12\---|------------5~~~~~~--|-----6--------7-------------------------------|---------------------|-----7--------8-------------------------------|------------5--------|-----7--------8----------------------------0--|---------------------|-----5--------6---------

Full
Full
------------------------------------------------8------------------------------------------------------------------------------5-----------7-----7p5-----5--7-----7-----7-----7--7--7---------7~~~--6----------------------7---------------------------------------------7--------------------------------------------------------------------7--------------------------------------------------------------------5-----------

Full
------------------------------------8p5-----5-----8p5--|-------------6----------------------------------------8-------------|-------------7------7p5--7p5-----5----------------------------------|-------------8----------------7-----7--5h7p7------------------------|-------------8------------------------------------------------------|-------------6------------------------------------------------------|--------------

------------||-------------------------------------------------------5--------6--||-------------------------------------------------------6--------7--||-------------------------------------------------------7--------8--||-------------------------------------------------------7--------8--||-------------------------------------------------------5--------6--||--------------------------------------------------------

Tablature.host.sk

Pagina 81 di 182

-=-=-=-=-=-=-=-=-=-=-=-= I'm Gonna Crawl =-=-=-=-=-=-=-=-=-=-=-=-=-=-=-=-=-=In Through The Out Door


by Jimmy Page, Robert Plant, & John Paul Jones
Chords:
C - 032010
Am - 002210
A - 355433
Ab - 577655

v = downstroke
\ = slide up
/ = slide down

XX = Percussive sound
with no pitch
(5) = Suggested note

To play this song, Page uses a guitar set on distortion, but the
volume knob on it is turn down to a point near clean tone; with just
a little hint of crunch to it. The three way (or 5 way) is in the
treble position.

Riff 1:
C
Am
e|--------------------0---------------------------------------0-----3\5-----b|-------------------------1----------------------------1-------------------g|--------------0---------------0-----------------2-------------------------d|--------2---------------------------------2-------------------------------a|--3---------------------------------0-------------------------------------E|---------------------------------------------------------------------------

Riff 2:
(when Robert is going "cause she is my girl")
v
e|---------5-----------------X-|
b|---------5-----------------X-|
g|---------5-----------------X-|
d|--3-\-7-----------7-----5----|
a|--5-\-7-----------7-----5----|
E|--5-\-5-----------5-----3----|

Riff 3:
(This is the "If she would come back and only stay")
e|--------------------------------------------------------------------------b|--------------------------------------------------------------------------g|--7-----------7----------------------9---\---2----------------------------d|--7-----------7----------(7)---------9---\---2----------------------------a|--5-----------5----------(7)---------7---\---0----------------------------E|-------------------------(5)-----------------------------------------------

Ab

e|-------------------------------------------------------5--\--3------------b|-------------------------------------------------------5--\--3------------g|-------------------------------------------------------6--\--4------------d|--9--9--9--9--9-----9--9--9--9--9-----9--9--9--9--9----7--\--5------------a|--9--9--9--9--9-----9--9--9--9--9-----9--9--9--9--9----7--\--5------------E|--7--7--7--7--7-----7--7--7--7--7-----7--7--7--7--7----5--\--3-------------

Lyrics:

Tablature.host.sk

Pagina 82 di 182

Oh, she's my baby


Let me tell you why
Hey, she drives me crazy
She's the apple of my eye
'Cause she is my girl
And she can never do me wrong
If I dream too much at night
Somebody please bring me down

(Riff 1)

Hey, I love that little lady


I got to be her fool
Ain't no other than my baby
I can break the golden rule
'Cause I get down on my knees
Oh, I pray that love won't die
And if I always try to please
And I don't know the reason why

(Riff 1)

If she would come back


And only stay with me
Oh yeah
Every little bit, every little bit,
Every little bit of my love
I give to you girl
Every little bit, every little bit,
Every little bit of myy love, oh

(Riff 3)

I don't have to go by plane


I don't have to go by car
People, I don't care just where my darling is
I just don't care how far
I'm Gonna Crawl, I'm Gonna Crawl
I don't care if I have to go back home
I don't care where I got to stand to get to you
I'm Gonna Crawl, I'm Gonna Crawl
Ah, ooh, ooh, I'm gonna move the car, baby
I say, she give me good lovin'
She give me good lovin'
She give me good lovin'
My baby give me good lovin'
Ooh, yes I love her
I guess I love her
Yes, I love her
I'm Gonna Crawl

(Riff 1)

Tablature.host.sk

(Riff 2)

(Riff 2)

(C chord at

Pagina 83 di 182

From: dpmul1@mfs01.cc.monash.edu.au (DAMIEN MULLINS)


Subject: TAB Immigrant Song LED ZEPPELIN
Main Riff:
[F#m]
----------------------------------|---------------------------------|
----------------------------------|---------------------------------|
----------------------------------|---------------------------------|
----------4---------------4-------|---------4---------------4-------|
----------------------------------|---------------------------------|
--2---2-2---2---2-2---2-2---2---2-|-2---2-2---2---2-2---2-2---2---2-|
Ah,_____________
ah._____________
[A] We [E] come from the land of ice and
snow, from the midnite sun where the hot springs blow.____
(main riff)
The hammer of the gods will drive our ships__ to new lands, to fight the
horde,__ singing and crying:
[E] Vahala, I am coming!______[A]__[F#m]__
[A] on we sweep_
[B] with treshing oar,_
[C] our only goal will be the west-ern
shore
(Main riff)
Ah,____________
ah.____________
[A] We [E] come from the land of ice and snow, from the midnite sun where
the hot springs blow.____
(Main riff)
How soft your fields so green, can whisper tales__ of gore,___
calmed_ the tides of war.___
[E] We are your over lords.
[A] on we sweep_
[B] with treshing oar,_
[C] our only goal will be the west-ern shore

of how we

(main riff)
So now you'd better stop__
and rebuild your ruins,
for peace and trust__ can win the day despite of all your
losing.

--------------------------2-------|-------------------------2-------|
--------------------------3-------|-------------------------3-------|
--------------------------3-------|-------------------------3-------|
----------4---------------X-------|---------4---------------X-------|
--------------------------3-------|-------------------------3-------|
--2---2-2---2---2-2---2-2---2---2-|-2---2-2---2---2-2---2-2---2---2-|

--------------------------2-------|---------------------------------|
--------------------------3-------|---------------------------------|
--------------------------3-------|---------------------------------|
----------4---------------X-------|---------4-----------------------|
--------------------------3-------|---------------------------------|
--2---2-2---2---2-2---2-2---2---2-|-2---2-2---2---2-2---------------|

Tablature.host.sk

Pagina 84 di 182

Subject: Led Zeppelin - Immigrant Song


This is a correction on the original tab which I found at
nevada.edu. I found a few slight errors and here is the corrected
version. Mail me at rand@ingress.com if you have any comments.

The first [A] in the song is a regular A:

e:----0------------|
B:----2------------|
G:----2------------|
D:----2------------|
A:----0------------|
E:-----------------|

And the [E] is a regular E: e:----0------------|


B:----0------------|
G:----1------------|
D:----2------------|
A:----2------------|
E:----0------------|
But the crescendo in the middle, ("on we sweep, with threshing
oar....) is actually A5 - B5 - C5:
A5
B5
C5
e:-------------------------------------------------|
B:-------------------------------------------------|
G:-------------------------------------------------|
D:---7------------------9--------------10----------|
A:---7------------------9--------------10----------|
E:---5------------------7--------------8-----------|
If you listen carefully, A5 is played 16 times quickly, B5 is
also played 16 times quickly, C5 is played 16 times, plus an extra 9.
Don't forget to stop short on the 9th time!
F#m is never played in the song, the beginning part is given as
N.C. Let me just do the song:
[Riff 1]
e:---------------------------------------------------------|
B:---------------------------------------------------------|
G:---------------------------------------------------------|
D:---------4-------------4-------------4------------4------|
A:---------------------------------------------------------|
E:--2--2-2---2--2-2--2-2---2--2-2--2-2---2--2-2-2-2---2-2--|
Play [Riff 1] 4 times while someone goes "Ahhhhhhh......"
A

E
We come from the land of the ice and snow, from the midnight sun

E
A
where the hot springs blow;
Play [Riff 1] 3 times with the lyrics:
The hammer of the gods .. will drive our ships to new lands,
A
to fight the horde, singing and crying:

Tablature.host.sk

Pagina 85 di 182

E
E
Valhalla, I am coming!

Play [Riff 1] once, then:


A5
On we sweep B5
with threshing oar C5
our only goal will be the western shore.

Then repeat everything all over again, this time with different
lyrics after "We come from the land of the ice and snow...." part:
How soft your fields so green, can whisper tales of gore,
of how we calmed the tides of war. We are your overlords...

After the last C5 part:


Play [Riff 1] 3 times with the lyrics:
So now you'd better stop - and rebuild all your ruins,
for peace and trust can win the day despite all your losing.
As you hear the word "losing", replace the last part of [Riff 1]
with:
C9
e:-------------------|
B:---3---------------|
G:---3---------------|
D:---2---------------|
A:---3---------------|
E:-------------------|
Then play the outro:

Repeat this 3 times:


e:-------------------------------------------------------|
B:---------------------------------------------------3---|
G:o--------------------------------------------------3--o|
D:o-------4-------------4-------------4--------------2--o|
A:---------------------------------------------------3---|
E:-2--2-2---2--2-2--2-2---2--2-2--2-2---2--2-2--2-2------|
Repeat this 3 times:
e:--------------------------|-----------------------------|
B:-----------------------3--|------------------------3----|
G:o----------------------3--|------------------------3---o|
D:o-------4--------------2--|--------4---------------2---o|
A:-----------------------3--|------------------------3----|
E:-2--2-2---2--2-2--2-2-----|--2--2-2---2--2-2--2-2-------|
Then this last part:
e:--------------------------|----------------------------|
B:-----------------------3--|----------------------------|
G:-----------------------3--|----------------------------|
D:--------4--------------2--|--------4-------------------|

Tablature.host.sk

Pagina 86 di 182

A:-----------------------3--|----------------------------|
E:-2--2-2---2--2-2--2-2-----|-2--2-2---2--2-2------------|

Jimmy Pena - rand@ingress.com

Tablature.host.sk

Pagina 87 di 182

In My Time Of Dying
Led Zeppelin

A few things to note: This song is played with a slide


in standard tuning (as far as I can tell). I may have some of the
nuances a little off (like where to begin a particular slide etc.),
but hopefully this will give you an idea of how to play it.
Opening riff: (set tone to "crunchy" :-))
e
B
G
D
A
E

e
B
G
D
A
E

|---------------------------------|-----------------------|
|---------------------------------|-----------------------|
|-3\2^0-2/3/5~--0-3\2^0-(0)/12~---|-3\2^0-2/3/5~-0-3\1^0--|
|-3\2^0-2/3/5~--0-3\2^0-(0)/12~---|-3\2^0-2/3/5~-0-3\1^0--|
|---------------------------------|-----------------^-----|
|---------------------------------|-----------------|-----|
|
|
wait
slow slide
|
|
|---------------------------------|-----------------|-----|
|-----------------------------12~-|-----------------v-----|
|-3\2^0-2/3/5~--0-3\2^0-(0)/12--~-|-3\2^0-2/3/5--0-3\1----|
|-3\2^0-2/3/5~--0-3\2^0-(0)/12--~-|-3\2^0-2/3/5--0-3\1----|
|---------------------------------|-----------------------|
|---------------------------------|-----------------------|

Another part:
e
B
G
D
A
E

|-----------------------------|---------------------------|
|-----------------------------|---------------------------|
|-0-3-5---0-(5)/7-0-(3)/5\3-0-|-0-3-5---0-(5)/7-0-(3)/5-3-|
|-0-3-5---0-(5)/7-0-(3)/5\3-0-|-0-3-5---0-(5)/7-0-(3)/5-3-|
|-----------------------------|---------------------------|
|-----------------------------|---------------------------|

Repeat that once.


Yet another part: (a little faster than previous progressions)
e
B
G
D
A
E

|------------------------|--------------------------------|
|------------------------|--------------------------------|
|-(3)/7~-0-(3)/5^0-3-0-:-|-/12~-0-(3)/5^0-3^0-:--5-(hold)-|
|-(3)/7~-0-(3)/5^0-3-0-:-|-/12~-0-(3)/5^0-3^0-:--5-(hold)-|
|----------------------^-|--------------------^-----------|
|----------------------|-|--------------------|-----------|
repeat
repeat

Now, right after that last 5-5 power chord, there's a little
piece that I can't figure out. It leads to this fast part, tight
with the drums:
e
B
G
D
A
E

|---------------------------------------------------------|
|---------------------------------------------------------|
|-(2)/3\2^0-(2)/3\2-0-(2)/5\3-0-(right here I usually play some)
|-(2)/3\2^0-(2)/3\2-0-(2)/5\3-0-(fast 0-0 "fills"; 3 or 4, drums)
|---------------------------------------------------------|
|---------------------------------------------------------|

Repeat several times.

Tablature.host.sk

Pagina 88 di 182

From: ceh1@acpub.duke.edu (Charles Eric Horowitz)


In the Evening by Led Zeppelin

The intro thing is just a droning synthesizer and Jimmy playing the open
E-string with a bow. The overdub is called(I think) a rotovibe which
is a little spinning wheel which when you touch it to the string,
produces that rolling sound.
The main riff is double-tracked and with a little adlibbing is basically:
by the way this is with a strat, or something with a whammy bar:
e----------------------------------------------------------------------b---5--5-5--3--3--2\\0//2\\0-------------5-5-5-3-3--2\\0//2------------g---4--4-4--2--0--2\\0//2\\0-------------4-4-4-2-0--2\\0//2------------d---2--2-2--0--0--2\\0//2\\0----2-5-2----2-2-2-0-0--2\\0//2------------a----------------------------------------------------------------------E-0-----------------------------------0--------------------------------^^^Thats a bend down on the whammy bar
The first chorus has something like this:
e---------5-------------------------------------------------------------b--7--7---5--7---------7--7/8-7----------------5--7-----------7/8--7----g--7--7---6--7------7--7--7/9-7---7-7/9-7--7---6--7--------7--7/9--7----d--7--7---7--7------7-------------7-7/9-7--7---7--7----7/9-7------------a--5--5---7--5--9-9-------------9---------9----7--5--9------------------E---------5-------------------------------------------------------------e-------------------------------------------------------------------------b------------------7-----------7------------------7-----------------------g---------------6--7------7/9--7--------7------6--7-----------------------d----7/9-7---7--7--7----------------7/9-7------7--7-----------------------a--9-------9----7--5----9---------9------------7--5-----------------------E---------------5------------------------------5---------------------------

The second and fourth choruses

go with this chord sequence:

e---3--3---------3--3---3-------5--5---5--5-------------------------------b---3--3--7------3--3---3----9--5--5---5--5--9----------------------------g---4--4--7------4--4---4----9--6--6---6--6--9----------------------------d---5--5--7------5--5---5----9--7--7---7--7--9------4-4-4-----------------a---5--5--5------5--5---5----7--7--7---7--7--7--7---2-2-2-----------------E---3--3---------3--3---3-------5--5---5--5-----5-------------------------The fourth chorus has this backing line:


e-------------------7\\6//7------------------------7\\6//7-------------b---------8-----8---8\\7//8--------------8---8-10--8\\7//8-------------g-------7---7-7------------------------7---7---------------------------d--9-9-----------------------------9-9---------------------------------a----------------------------------------------------------------------E----------------------------------------------------------------------e----------------------9\\\8//9--------------------9--11-11-11-11------b----------10---10-12--10\\9//10-----------10---10----12-12-12-12------g--------9----9-------------------------9-----9------------------------d-11-11---------------------------11-11--------------------------------a----------------------------------------------------------------------E----------------------------------------------------------------------The chorus before the solo goes like this:

Tablature.host.sk

Pagina 89 di 182

e----------------------------------------------------------------------b---7-7-----7-7--------------------7----------7/8--7----------------7--g---7-7-----7-7----------------6---7-----7-7--7/9--7----7--------6--7--d---7-7-----7-7--------9-7-----7---7-----7-7------------7-7---7--7--7--a---5-5-----5-5------9-----9---7---5---9--------------9-----9----7--5--E------------------------------5---------------------------------5-----e----------------------------------------------------------------------b------------7/8-7------------------7--7h8-7------------7-----7--------g------------7/9-7------------7--6--7--7h9-7------------7---6-7--------d----7/9--7-----------7/9-7---7--7--7-----------7/9-7---7---7-7--------a--9----------------9-------9----7--5---------9-------9-----7-5--------E--------------------------------5--------------------------5----------The solo is something like this:


The starting thing is Jimmy holding down the Whammy Bar as hard as he can
and forcefully picking out a E-Chord and letting up on the bar:
e-------0----12----------------12-------------------12---------------12-b------0--------14----------12----15~------------12----15~---------12---g-----1---14------14--14^16----------------14^16-------------14^16------d----2------------------------------------------------------------------a---2-------------------------------------------------------------------E--0--------------------------------------------------------------------Repeat this^^^^^^^^^^^ 5 times
pretty quickly
e--17^19--17-15-17--15^16--------------------21^22--19-18-17-----------b---------------------------17--15\\14//15--------------------19^20----g----------------------------------------------------------------------d----------------------------------------------------------------------a----------------------------------------------------------------------E-----------------------------------------------------------------------

e--17-18-19------------------------------------------------------------b-----------19^21--19-17----19-17----19----17--------------------------g------------------------18-------18----18-----------------------------d----------------------------------------------------------------------a----------------------------------------------------------------------E----------------------------------------------------------------------Then do the whammy thing again


e------12----------------------12----------------------------------b---------14p12-------------12-----15^17^15--12-10-12--------------g---------------12^13--14^16--------------------------11^12-9------d---0--------------------------------------------------------------a--0---------------------------------------------------------------E-0----------------------------------------------------------------repeat ^^^^^this 4
times quickly
e--12--------------------------------------------------------------------b---------------------------------------------12-------------------------g-------12----12--14 14^16--14^16-14^16-14^16------15-14-12-14^15-14-12-14
d----------14------------------------------------------------------------a------------------------------------------------------------------------E------------------------------------------------------------------------e----------------------------------------------------------------------b----------------------------------------------------------------------g--12----12-12----------12---------14^15^14--12-15-14-14-12------------d-----14--------12--14-----14-------------------------------14-14------a----------------------------------------------------------------------E-----------------------------------------------------------------------

Tablature.host.sk

Pagina 90 di 182

e--------------------------12------15^17-(15)^17-(15)^17^15-------------b-----------------------12----15------------------------------13-13-----g-----------------14^16-------------------------------------------------d--14-14\\11//14--------------------------------------------------------a----------------------------------------------------------------------E----------------------------------------------------------------------This slowed part is backed with these arpeggiated chords


using a chorus in this series
e----------3----------------0-----------------0---------------------------b--------5---5------------3---3-------------0---0-------------------------3g------4-------4-4------4-------4---------2-------2---2---------0-------0--d----5----------------4-----------4-----2-----------2---------4-------4----a--3----------------2-----------------0---------------------2-------2------E-------------------------------------------------------0-0-------0--------e----------2--------------3----------------2------------------------------b--------0---0----------5---5------------3---3----------------------------g------2-------2------4-------4--------4-------4---4-------2--------------d----2--------------5-----------5----4-----------4---4---2---2------------a--0--------------3----------------2-------------------0-------0----------E-------------------------------------------------------------------------The solo over it goes like this:
e----------------------------------------------------------------------b------------------------------------------------8-7---7---------------g--14-14-14^16------(14)^16^14-----14p12h14----------9---9--9-7--------d-------------------------------14------------------------------9-7\5-7a----------------------------------------------------------------------E----------------------------------------------------------------------e----------------------------------------------------------------------b----------------------------------------------------------------------g----7-7-9-9-------9^11^9---------------9^11^9-------------------------d--9-------------------------7-7---------------------------------------a-----------------------------------------------10-10/12---------------E----------------------------------------------------------------------The outro solo:
e------15-17-17^19-17-15-17-15~--------------------12\\9//12----------b---17---------------------------17-15-17-15-17-17------------12\\8//12
g----------------------------------------------------------------------d----------------------------------------------------------------------a----------------------------------------------------------------------E----------------------------------------------------------------------Enjoy,
CHUCK

Tablature.host.sk

Pagina 91 di 182

"In The Light"


by Led Zeppelin - Physical Graffiti
Transcribed by Bryan Steele

In the light,
You will find the road..
You will find the road..
Riff.1 (4 times)
E-|---------------------------------------------------------------------------|
B-|---------------------------------------------------------------------------|
G-|---------------------------------------------------------------------------|
D-|--7--6----5-------------------(14)-----------------------------------------|
A-|-------------7----6--5-------7(12)-----------------------------------------|
E-|--------------------------7--5---------------------------------------------|
^--^--both chords played at the same
time

Riff.2
E-|---------------------------------------------------------------------------|
B-|---------------------------------------------------------------------------|
G-|------------------------7----------------------------------7---------------|
D-|--------7----5--7--4-3-----7--5--7---------7----5--7--4-3-----7--5--7------|
A-|--0--0-------------------------------0--0----------------------------------|
E-|---------------------------------------------------------------------------|
Hey
ooh
did you ever believe that I would leave you ...

At the end of
Hey yeah baby
I know how it feels to kinda slip through
To the bitter depths of my soul -- yeah
they jump back to the first four notes of Riff.1, then directly back
to
Riff.2. Nothing really difficult to pick up; I just thought I would
mention it.

Riff.3
E-|---------------------------------------------------------------------------|
B-|--------------------------------5---7--9--10-------------------------------|
G-|--------------------------6--7---------------------------------------------|
D-|----------------4--6--7----------------------------------------------------|
A-|--0---4--5--7--------------------------------------------------------------|
E-|---------------------------------------------------------------------------|

Riff.3 starts

I will share your love


Let me share your love
Oooooo, let me share
Share your love
(keyboard) then Riff.3
>From there, you should be able to pick up the whole song.

Tablature.host.sk

I have

Pagina 92 di 182

also
transcribed the first 5 licks at the end of the song. There is some
serious
overdubbing to get a neat delay effect on these licks. I, somewhat,
try to
simulate a little of that in the tab.

E-|-17----------17----------17----------17------------------------------------|
B-|----b(19)17-----b(19)17-----b(19)17----------------------------------------|
G-|----------------------------------------b16(18)-16--14----b16(18)-14-------|
D-|---------------------------------------------------------------------------|
A-|---------------------------------------------------------------------------|
E-|---------------------------------------------------------------------------|

E-|---------------------------------------------------------------------------|
B-|---------------------------------------------------------------------------|
G-|--b(18)16--14---b(18)16--14---b(18)16--14---b(18)16--14-----b16(18)--------|
D-|---------------------------------------------------------------------------|
A-|---------------------------------------------------------------------------|
E-|---------------------------------------------------------------------------|

E-|---------------------------------------------------------------------------|
B-|---------------------------------------------------------------------------|
G-|--b9(11)-9--7---b9(11)-9--7---7-6------------------------------------------|
D-|----------------------------------7----------------------------------------|
A-|------------------------------------b7(9)(7)-------------------------------|
E-|---------------------------------------------------------------------------|

E-|---------------------------------------------------------------------------|
B-|-----------------------------------------------b8(10)--8--7---b12(14)------|
G-|--------------------------------b9(11)--9--7-------------------------------|
D-|--b9(11)--9--7---b9(11)--9--7----------------------------------------------|
A-|---------------------------------------------------------------------------|
E-|---------------------------------------------------------------------------|

E-|-------------------17------------------------------------------------------|
B-|--b17(19)--17--15--------b17(18)--17--15\14------14------------------------|
G-|---------------------------------------------16----------------------------|
D-|---------------------------------------------------------------------------|
A-|---------------------------------------------------------------------------|
E-|---------------------------------------------------------------------------|

b17(19) means play 17th and bend 17th to 19th


b(19)17 means bend 17th to 19th play the note and come back to 17th

b7(9)(7) means play 7th and bend to 9th then come back down to 7th

Tablature.host.sk

Pagina 93 di 182

From: Glen Macon <crunch!macon@cbmvax.cbm.commodore.com>

TITLE:

KASHMIR

(LED ZEPPELIN)

(basic song riff)


----------------------------------------------------------------------------------------------------------------------------------------------4-4-4---4-4-4---5-5-5---5-5-5---6-6-6---6-6-6---7-7-7---7-7-7---9-9-9-------------------------------------------------------------------------2-2-2---2-2-2---3-3-3---3-3-3---4-4-4---4-4-4---5-5-5---5-5-5---7-7-7----------------0---------------0---------------0---------------0--------NOTE: the first 2-2-2 is dropped when repeated.

OH let
I am a
secret
top of

the sun beat down upon my face, stars fill my dream


traveler of both time and space, to be where I have been
elders of a gentle race, swierl but seldom seen
days for which they sit and wait, all will be revealed

(POWER FILL)
-----------------9--7--7--5--7--5-9--8--7--6--7--6-9--9--7--7--7--7-7--7--5--5--5--5-0--0--0--0--0--0-(basic song riff)
offer song from tongues of lilding grace, sounds caress my ear
not a word I heard could I relate, the story was quite clear
WHOOA OH, WHOOA OH
(POWER FILL) x 2
Am
OOOH baby I've been lie'n
OOOH yea, baby there aint no deny'n
OOOH yea, I've been fly'n
mama
aint no deny'n, no deny'n
(POWER FILL) x 2
Am
B
Am
all I see turns to brown, as
Am
B
and my eye filled with sand,
Am
try'n to find, try'n to find

B
the sun burns the ground
Am
B
as I scan this racy land
B
were I've been

(basic song riff)


AHHHH
OH I love the storm that leaves no trace,
he is the band that led me to that place,
like shangrela beneath the summer moon, I
as the death that floats behind you, were
(POWER FILL)

like thoughts inside a dream


yellow desert screams
will return to err
moving through kashmir

(basic song riff)


OH father of the four winds fill my sails, cross the sea of errs
with no provisions but an open face, norm'd straits of fear
WHOOA OH, WHOOA OH
(POWER FILL) x 2

Tablature.host.sk

Pagina 94 di 182

Am
B
When I want, when I'm on my way, yea
Am
B
When I feel, when I think my brain to stay
Am
B Am
B
... OOOH yea OOOH yea when I'm down
Am
B
OOOH yea OOOH yea when I'm down
Am
B
OH my baby, OH my baby let me take you there
Am
B
let me take you there....

Tablature.host.sk

Pagina 95 di 182

From: ad336@rgfn.epcc.Edu (Michael D. Volk)


Kashmir
Led Zeppelin
Physical Graffiti
Tuning
D-1
A-2
G-3
D-4
A-5
D-6
I have tabbed all the riffs in the entire song, but you will have to listen to the
album to see exactly how the riffs fit together. Enjoy.
Main Riff 1
D|---------------------------------------------------------------------------A|---------------------------------------------------------------------------G|--2---2---2------2---2---2------3---3---3------3---3---3-----------------D|--0---0---0------0---0---0------0---0---0------0---0---0-----------------A|--5---5---5------5---5---5------5---5---5------5---5---5-----------------D|---------------------------------------------------------------------------D|---------------------------------------------------------------------------A|---------------------------------------------------------------------------G|--4---4---4------4---4---4------5---5---5------5---5---5-----------------D|--0---0---0------0---0---0------0---0---0------0---0---0-----------------A|--5---5---5------5---5---5------5---5---5------5---5---5-----------------D|---------------------------------------------------------------------------D|---------------------------------------------------------------------------A|---------------------------------------------------------------------------G|--7---7---7------2---2---2------2---2---2---------------------------------D|--0---0---0------0---0---0------0---0---0---repeat------------------------A|--5---5---5------5---5---5------5---5---5---------------------------------D|---------------------------------------------------------------------------Riff 2
D|--12---12---10---10----7----7----5----5----3----3------------------------A|---0----0----0----0----0----0----0----0----0----0-------------------------G|--12---11---10----9----7----6----5----4----3---2-------------------------D|---0----0----0----0----0----0----0----0----0----0----3-2-0---------------A|---------------------------------------------------------------------------D|---------------------------------------------------------------------------D|--12---12---10---10----7----7----5----5----3----3------------------------A|---0----0----0----0----0----0----0----0----0---0--------------------------G|--12---11---10----9----7----6----5----4----3---2-------------------------D|---0----0----0----0----0----0----0----0----0----0----3-2-0---------------A|---------------------------------------------------------------------------D|---------------------------------------------------------------------------When you go back to the Main Riff start here and then proceed as usual.
D|---------------------------------------------------------------------------A|---------------------------------------------------------------------------G|--3---3---3------3---3---3------4---4---4------4---4---4-----------------D|--0---0---0------0---0---0------0---0---0------0---0---0-----------------A|--5---5---5------5---5---5------5---5---5------5---5---5-----------------D|----------------------------------------------------------------------------

Tablature.host.sk

Pagina 96 di 182

D|---------------------------------------------------------------------------A|---------------------------------------------------------------------------G|--5---5---5------5---5---5------7---7---7------2---2---2-----------------D|--0---0---0------0---0---0------0---0---0------0---0---0----etc.----------A|--5---5---5------5---5---5------5---5---5------5---5---5-----------------D|---------------------------------------------------------------------------Interlude 1-After Riff 2


D|--12---12---10---10----7----7----5----5----3----3------------------------A|---0----0----0----0----0----0----0----0----0---0--------------------------G|--12---11---10----9----7----6----5----4----3---2-------------------------D|---0----0----0----0----0----0----0----0----0----0----3-2-0------0--------A|-------------------------------------------------------------0-2-----------D|---------------------------------------------------------------------------D|---------------------------------------------------------------------------A|---------------------------------------------------------------------------G|---------------------------------------------------------------------------D|--2------2---2---11\-2-----------2------2---2---11\-2-----3-2-0-----0----A|--0------0---0---12\-0-----------0------0---0---12\-0-----------0-2------D|---------------------------------------------------------------------------D|---------------------------------------------------------------------------A|---------------------------------------------------------------------------G|---------------------------------------------------------------------------D|--2------2---2---11\-2-----------2------2---2---11\-2----3-2-0-----0-----A|--0------0---0---12\-0-----------0------0---0---12\-0-----------0-2------D|---------------------------------------------------------------------------Repeat
Back to Riff 2
Interlude 2-After Riff 2
Interlude 2 is two chords that are alternated in this section of the song.
D|--12---12---10---10----7----7----5----5----3----3------------------------A|---0----0----0----0----0----0----0----0----0---0--------------------------G|--12---11---10----9----7----6----5----4----3---2-------------------------D|---0----0----0----0----0----0----0----0----0----0----3-2-0---------------A|---------------------------------------------------------------------------D|---------------------------------------------------------------------------D|--5---------------------------7--------------------------------------------A|--5---------------------------7--------------------------------------------G|--7---------------------------9--------------------------------------------D|--5---------------------------7--------------------------------------------A|--5---------------------------7--------------------------------------------D|--5---------------------------7--------------------------------------------The rest of the song alternates between the Main Riff and Riff 2.
End on Interlude 2.
If you happen to be playing along with the Page and Plant: No Quarter album, here
is the riff that comes after the violin solo.
D|---------------------------------------------------------------------------A|---------------------------------------------------------------------------G|---------------------------------------------------------------------------D|---------------------------------------------------------------------------A|--12-11-12-14-12-11-12--9-----------------------------------------------D|---0--0--0--0--0--0---0--0------------------------------------------------

Tablature.host.sk

Pagina 97 di 182

Living Loving Maid - Zeppelin


A
With a purple umberella and a fifty cent hat,
RIFF 1:
E|---------------------------B|---------------------------G|---------------------------D|---------------------------A|-0--3-0-3-4-5---------0-3-0E|--------------3---3-3-------

Living, Loving, she's just a woman


RIFF 2:
E|------------------------B|------------------------G|------------------------D|------------------------A|-0-0----0-0---0-0-0-2-0-E|------------------------Misses cool rides out in her aged Cadillac, (riff 1)
(riff 2) Living, Loving, she's just a woman
CHORUS:
D7
Come on babe on the roundabout
A
A7
Ride on the merry-go-round
D7
We all know what your name is, so you
E7(once)
Better lay your money down
RIFF 3:
E|-----------------0-0-0-0-0-0-0-0B|-----------------3-3-3-3-3-3-3-3G|-----------------1-1-1-1-1-1-1-1D|-----------------2-2-2-2-2-2-2-2A|-----------------2-2-2-2-2-2-2-2E|-0-0-0-0-0-0-0-0-0-0-0-0-0-0-0-0-

then riff 1

ADDITIONAL VERSES:
Alimony, alimony paying your bills
Living, Loving, she's just a woman
When your conscience hits you, knock it back with pills
Living, Loving, she's just a woman
(chorus)
Telling tall tales of how it
Living, Loving, she's just a
With the butler and the maid
Living, Loving, she's just a
(chorus)

used to be
woman
and the servants three,
woman

Nobody hears a single word you say

Tablature.host.sk

Pagina 98 di 182

Living, Loving, she's just a woman


But you keep on talking till your dying day
Living, Loving, she's just a woman
(chorus)

Thanks to the original poster.


Peace,
Paul Z

Tablature.host.sk

Pagina 99 di 182

MOBY DICK
by Led Zeppelin
Re-Tabbed: Joel Bruner (brunej@rpi.edu)
Riff1
E-----------------------B-----------------------G-----------------------D-----------------------A--5-5-3-0--------------D-0-----------3-5-3-5-3-Riff2
E----------------------------------------------B----------------------------------------------G----------------------------------------------D----5-5-3-0----------------5-5-3-0------------A--------------1-3-1-3-1--------------1-3-1-3-1D--5----------------------5--------------------Riff3
E-------------------------------------------------B-------------------------------------------------G-------------------------------------7-5---------D----7-7-5---7---7---5--7--55555----------7-5-----A--0-------7-------7-------------8-5----------8-5-D-------------------------------------------------Riff1 4x

Riff2 2x

Riff1 2x

Riff3 1x

Riff1 3x

minisolo

Riff1 1x

minisolo

Riff2 1x

minisolo

Riff1 1x

minisolo

drumfill

Riff2

drumfill

Riff3

Riff3 1x

minisolo

!!!!!!!!!
Drum SOLO
!!!!!!!!!
Riff1 1x
End:
D5
C5
A5
E-------------------------------------------------B-------------------------------------------------G-----5------------------3-----------------2------D-----5------------------3-----------------2------A-----7------------------5-----------------0------D--------------------------------------------------

From: rand@ingress.com (Jimmy Pena)


Date: Tue, 28 Nov 95 19:53:32 EST
Subject: Update to Tab: Moby Dick by Led Zeppelin
I've updated this tab so please add it to the archives. Thank you.

From: Simon Chiplin <scc92@ecs.soton.ac.uk>


I've never heard the song myself, but here's a friend's
transcription of that Led Zeppelin classic (!!??)...

Tablature.host.sk

Pagina 100 di 182

MOBY DICK
by Led Zeppelin
|-----------|---------|-----------|---------|
|-----------|---------|-----------|---------|
|-----------|---------|-----------|---------|
|-----------|---------|-----------|---------|
|---7-7-5-7-|---------|---7-7-5-7-|---------|
|-0---------|-3-5-3-5-|-0---------|-3-5-3-5-|
|-----------|---------|-----------|---------|
|-----------|---------|-----------|---------|
|-----------|---------|-----------|---------|
|---7-7-5-7-|---------|---7-7-5-7-|---------|
|-0---------|-3-5-3-5-|-0---------|-3-5-3-5-|
|-----------|---------|-----------|---------|
|-------------------|-----------|-------|---------|------|
|-------------------|-----------|-------|---------|------|
|-------------------|-----------|-------|---------|------|
|---7-7-0-5-5-0-3-5-|-0-3-5-7-5-|-0--3--|-5-7-5-3-|-0----|
|-0-----------------|-----------|-------|---------|------|
|-------------------|-----------|-------|---------|------|
enter John Bonham's major DRUM SOLO...

From: Joel Christopher Bruner <brunej@rpi.edu>


MOBY DICK
by Led Zeppelin
Re-Tabbed: Joel Bruner (brunej@rpi.edu)
Riff1
E-----------------------B-----------------------G-----------------------D-----------------------A--5-5-3-0--------------D-0-----------3-5-3-5-3-Riff2
E----------------------------------------------B----------------------------------------------G----------------------------------------------D----5-5-3-0----------------5-5-3-0------------A--------------1-3-1-3-1--------------1-3-1-3-1D--5----------------------5--------------------Riff3
E-------------------------------------------------B-------------------------------------------------G-------------------------------------7-5---------D----7-7-5---7---7---5--7--55555----------7-5-----A--0-------7-------7-------------8-5----------8-5-D-------------------------------------------------Riff1 4x

Riff2 2x

Riff1 2x

Riff3 1x

Riff1 3x

minisolo

Riff1 1x

minisolo

Riff2 1x

minisolo

Riff1 1x

minisolo

Riff3 1x

minisolo

!!!!!!!!!
Drum SOLO
!!!!!!!!!

Tablature.host.sk

Pagina 101 di 182

Riff1 1x

drumfill

Riff2

drumfill

Riff3

End:
D5
C5
A5
E-------------------------------------------------B-------------------------------------------------G-----5------------------3-----------------2------D-----5------------------3-----------------2------A-----7------------------5-----------------0------D--------------------------------------------------

Subject: Led Zeppelin - Moby Dick (by rand@ingress.com)


Someone is forgetting something! The low E is tuned down to a D
for Moby Dick.
Here is the song:
This song is really easy to play, even if you don't know the
solos. :-) Enjoy! Make sure you listen to the song or you won't know the
changes. You NEED to tune the 6th string to D to play this.
[Riff 1]
e:-------------------------------|
B:-------------------------------|
G:o-----------------------------o|
D:o-----------------------------o|
A:----5--5--3--------------------|
E:-0-----------5--3--5--3--5--3--|
[Riff 2]
e:-------------------------------|
B:-------------------------------|
G:o-----------------------------o|
D:o--5--5--3--0-----------------o|
A:---------------1--3--1--3--1---|
E:-5-----------------------------|
[Riff 3]
e:--------------------------------------------------------------|
B:--------------------------------------------------------------|
G:-------------------------------------------7--5---------------|
D:---7--7--5-----7--7---5--7--5-5-5-5-5-----------7--5----------|
A:------------7-------7-----------------8--5-----------8--------|
E:-7------------------------------------------------------------|
Okay, now for the song, play [Riff 1] four times, then [Riff 2] two
times, then back to [Riff 1] two times, then break into [Riff 3] once,
then repeat the entire cycle. This sequence repeats a few times, then
after the end of [Riff 3] play this:
e:--------------|
B:--------------|
G:--------------|
D:--------------|
A:----5---------|
E:----0---------|
So when the song is ending, instead of looping back to [Riff 1] after

Tablature.host.sk

Pagina 102 di 182

[Riff 3], you play this as the last note. There is a long pause in the
middle where Bonham goes off, which is good for drummers but not for us.
:-) This song took me about 10 minutes to get down right, and I've only
been playing for 7 months, so this one should be no sweat. Of course, if
you can do Page's mini solos in between the pauses later in the song,
good luck.
Jimmy Pena - rand@ingress.com

Tablature.host.sk

Pagina 103 di 182

No Quarter by Led Zeppelin


Here are the two chords played before the chorus:
both are strummed out sort of slowly
e-------------------------------------------------------------------b--4----------------9-----------------------------------------------g--6---------------11-----------------------------------------------d--7---------------12-----------------------------------------------a--7---------------12-----------------------------------------------E-------------------------------------------------------------------And the chorus part has some heavy fuzz on the guitar:
(The last bend is for the end of the chorus)
e-------------------------------------------------------------------b-------------------------------------------------------------------g-------------------------------------------------------------------d-----6-6-6------6-6-6------6------------------------2--------------a-2/4-4-4-4--2/4-4-4-4--2/4-4-4-----4-4-4-2------2-----4----2^4-----E-------------------------------0/2-2-2-2-0--0-4---4----------------The solo has two guitars on it, one clean, and one with fuzz.
Just listen to the song to try to match up parts.
Here is the clean guitar solo:
e-------------------------------------------------------------------b-------------------------------------------------------------------g--------------------------4-6/8-6-4-6/8-6\4-6----------------8-11p8d-9p6---9p6---6p4--------6---------------------------9-8----9-------a-----9-----7-----7--4-7---------------------------------11---------E-------------------------------------------------------------------e-------------------------------------------------------------------b-------------------------------------------------------------------g--11p8---8-11p8-11p8---8-------------------------------------------d-------9-------------9---9-8----8-9---8----------------------------a-----------------------------11----------11-11-11------------------E-------------------------------------------------------------------e--------------------------------------------14p11----14p11---------b-------------------------------------11-12--------12-------12-16p12g-----------9---------9-11-11---11h13-------------------------------d----8-9-11---11p9-11-----------------------------------------------a-11----------------------------------------------------------------E-------------------------------------------------------------------e-------------------------------------------------------------------b--11-12p11----11--------------------9------------------------------g-----------13----13-11-9----9-11-12--------12-11-9-8--9p8----8-9p8-d--------------------------11------------------------------11-------a-------------------------------------------------------------------E-------------------------------------------------------------------e-------------------------------------------------------------------b-------------------------------------------------------------------g----9--------------------------------------------4---6---8-----8---d-11---11-9---9-11------9-------------------------------------------a-----------11---------------7-6----6-7-6---------2---4---6-----6---E---------------------------------9-------9-------------------------e-------------------------------------------------------------------b-------------------------------------------------------------------g-11--13----13\12--13\12---13\12--12/13-----------------------------d----------------------------------------9--------------------------a--9--11----11\10--11\10---11\10--10/11-----------------------------E--------------------------------------------------------------------

Tablature.host.sk

Pagina 104 di 182

Here's the solo parts for the fuzzed guitar.


e-------------------------------------------------------------------b-------------------------------------------------------------------g-------6/8-6p4-6---------------------------------9-11-9-8----------d-----6------------------------------9-8-------------------11-------a-6-7------------------------------------11-11-11-------------------E-------------------------------------------------------------------(This is during the octave part)
e-------------------------------------------------11-11h12p11-11-12-b-9-11--11^12---12p11-12p11-12p11^12---14^16------------------------g-------------------------------------------------------------------d-------------------------------------------------------------------a-------------------------------------------------------------------E-------------------------------------------------------------------e-11h12p11---------------------------------------------------16-----b-----------14-12--11h12p11----11-12-14-16^17^16-14-16-16^17--------g---------------------------13--------------------------------------d-------------------------------------------------------------------a-------------------------------------------------------------------E-------------------------------------------------------------------e-------------------------------------------------------------------b-16^17--16-14-16-14--12^14^12----11-12-11----11-12-11-12-----------g------------------------------------------13-------------13-11--11-d-------------------------------------------------------------------a-------------------------------------------------------------------E-------------------------------------------------------------------e-------------------------------------------------------------------b-------------------------------------------------------------------g--13^15-----11-9----9-8---8h9p8------------------------------------d-----------------11-----9--------11--------------------------------a-------------------------------------------------------------------E-------------------------------------------------------------------Enjoy!
CHUCK

Tablature.host.sk

Pagina 105 di 182

No Quarter acoustic version from Jimmy Page & Robert Plant's No Quarter
Tuning D-A-D-G-A-D
12 string used on actual recording, and in fact sounds tons better that way.
These symbols-->
real notation

||:

& :|| enclose the repeat areas, I like it, it's closer to

INTRODUCTION:
D--12--------2-3-2-0--2--3--0------2-3-2-0--2--3--0-A--12--------0--------0--0--0------0--------0--0--0-G--12--------2--------0--0--0------2--------0--0--0-D--12--------0--------0--0--0------0--------0--0--0-A--12--------0--------3--5---------0--------3--5----D--12-----0-----------3--5------0-----------3--5----(harm)

||:
VOCAL START:
D-----------------------------2-3-2-0--2--3--0-A-----------------------------0--------0--0--0-G-----2--5--5--7--7--9--9-----2--------0--0--0-D--------0--0--0--0--0--0-----0--------0--0--0-A-----0--3--3--5--5--7--7-----0--------3--5----D--0-----------------------0-----------3--5----Walkin...

D---------------------------2-3-2-0--2--3--0---A---------------------------0--------0--0--0---G------5--5--5--7-----------2--------0--0--0---D------0--0--0--0-----------0--------0--0--0---A------3--3--3--5-----------0--------3--5------D--0--------------5------0-----------3--5------The Devil...
:|| x2

D--------------------------------------------------------------A--------------------------------------------------------------G-----2--5--5--7--7--9-----------------------------------------D--------0--0--0--0--0-----------------------------------------A-----0--3--3--5--5--7------1---0---1---0---1--->6--0--6--0--6-D--0------------------------1---0---1---0---1--->6--0--6--0--6-Carry news...

through...for me and you...

D--------------------------------------------------------------------A--------------------------------------------------------------------G-------------------------------------------7-7>8>7--7>8>7--7>8>7----D--------------------------------------------------------------------A--6----6------6---6----5-----3--2-2>0------5-5>6>5--5>6>5--5>6>5----D--6----6------6---6----5-----3--2-2>0-------------------------------they choose the path where no one goes

Tablature.host.sk

Pagina 106 di 182

||:
D--------------------------------------------------------------------A--------------------------------------------------------------------G-------------------------------------------7-7>8>7--7>8>7--7>8>7----D--------------------------------------------------------------------A--5----5------5---5----5-----3--2-2>0------5-5>6>5--5>6>5--5>6>5----D--5----5------5---5----5-----3--2-2>0-------------------------------:|| x3
BACK TO TOP
Ending is same as introduction, end on harmonic at 7 or 12, I like 7 better.
Enjoy,
Toyo Shimano
toyos@gol.com

Tablature.host.sk

Pagina 107 di 182

Nobody's Fault But Mine


by Led Zeppelin
The intro is double-tracked and played in two octaves.
Its also heavily flanged. Here's the lower octave:
e--------------------------------------------------------------------------b--3p0-0-3p0-0-3-3^5--3p0-0-3p0-0---------3p0-0-3-3^5-3-0------------------g----------------------------------0-2^4------------------2-0--------------d--------------------------------------------------------------------------a--------------------------------------------------------------------------E--------------------------------------------------------------------------e--------------------------------------------------------------------------b--------------------------------------------------------------------------g-2p1-1-2p1-1-2-2^4^2p1--2-------------------------------------------------d------------------------2-------------------------------------------------a------------------------1-------------------------------------------------E------------------------0-------------------------------------------------And the intro riff to the lyrics part:
e--------------------------------------------------------------------------b--------------------------------------------------------------------------g---------------------------------------------2----------------------------d--2p0-0--------------2-----9\7-7-7\4-4-------2----------------------------a---------2p0-0-------2-----7\5-5-5\2-2-------0----------------------------E----------------3^4--0------------------3^4--------------------------------

And the main rythym:


e--------------------------------------------------------------------------b---------------------------9--9---------------------9-9-9-10-9-10-9-------g--7--------7---------------9--9---7------7----------9-9-9-9--9-9--9-------d--0--7--7--0--7--7---------9--9---0-7-7--0--7-------9-9-9-11-9-11-9-------a-----0--0-----0--0---5--7--7--7-----0-0-----0--10h11----------------------E------------------------0-----0-------------------------------------------and the ascending chords at the end of each bar(?)
e--------------------------------------------------------------------------b--------------------------------------------------------------------------g--------------------------------------------------------------------------d--2-2--4-4--5-5--7-7-7-7-7-7-7-7-7----------------------------------------a--2-2--4-4--5-5--7-7-7-7-7-7-7-7-7----------------------------------------E--0-0--2-2--3-3--5-5-5-5-5-5-5-5-5----------------------------------------The solo's kind of tough and I really dont remember it.
Heres the ending sequence of the song:
e--------------------------------------------------------------------------b--------------------------------------------------------------------------g--------------------------------------------------------------------------d-------------------------------------------2-2-2--------------------------a-14\12-12-12-12\9-9-9-9-9\7-7-7-7-7\5------2-2-2--------------------------E-12\10-10-10-10\7-7-7-7-7\5-5-5-5-5\3-3^4--0-0-0--------------------------Enjoy!
CHUCK

Tablature.host.sk

Pagina 108 di 182

Nobody's Fault But Mine


by Page and Plant
Unledded
tabbed by Craig Knowles <r6qu@unb.ca>

D-----------------------------------------------------------------]
A-----------------------------------------------------------------]
F-2-2-2-2---2-0-0-0-0----2-2-2-2-------------------------2--------]
C-2-2-2-2---2------------2-2-2-2------------------2------0---2----]
G-0-0-0-0---0------------0-0-0-0------------------0--0-3---3-0----]
D---------3----------------------3--0-----3-2-0-2-------------3-0-]
D---------]
A---------]
F---------]
C-----2---]
G-----0---]
D-0-3-----]

Well that's basically it. The next couple of times through there
is a few percussive notes here and there, most notably 1 percussive
note in place of F-----0-0-0-0-; play a heavy ---
-x-x-x
I'll check the original notes when I go home and post any
corrections if need be. Otherwise, this is the way she is folks.
Only a few conditions regarding this post:
(1)
(2)
(3)
(4)
(5)

Tablature.host.sk

learn the riff


play it everywhere
show others how to play it
enjoy the music
tell everyone it was written by Jimmy Page

Pagina 109 di 182

From: bobz@crl.com (Robert Zawalski)


Subject: TAB: Out on the Tiles (Zeppelin)
Here is a tab of how I play it.
on album)

(I think Jimmy tunes own a semitone

E:------------------------------------------------------------B:------------------------------------------------------------G:------------------------------------------------------------D:--6-6-6-6-6-6-6-6--5-5-5-5-5-5-5-5--8-8---8-8---8-8---8-8---A:------------------------------------------------------------E:--4-4-4-4-4-4-4-4--3-3-3-3-3-3-3-3--6-5b6-6-5b6-6-5b6-6-5b6-(I kinda doubt Jimmy is playing anything on the D string, but it


thickens it up so..)
E:----------------------------------------------B:----------------------------------------------G:--------0-------------------------------------D:------0-----3-2-3-2-3-2-3-2-------------------A:----2-------------------------3-1-3-1-3-4-3-1-E:--3-------------------------------------------I sometimes play this instead..(just for flavour >=-)
E:----------------------------------------------B:----------------------------------------------G:--------0-------------------------------------D:------0---------------------------------------A:----2-------------------------3-1-3-1-3-4-3-1-E:--3--------1-0-1-0-1-0-1-0--------------------He plays this as the little bridge.. (listen to the record..)
E:------------------------------------------------------------B:------------------------------------------------------------G:--------0---------------------------------------------------D:------0-----3-2-3-2-3-2-3-2---------------------------------A:----2------------------------3-1-3-1-3-1-3-1--0-1-0-1-0-1-0-E:--3---------------------------------------------------------E:------------B:------------G:------------D:--5-3-5-3-5-A:--5-3-5-3-5-E:--3-1-3-1-3-Chorus:
F

Bb Bb F x2

Then do intro again.

Little ending thing:


E:--------------------------------------------------------------------B:--10-10-10-10/13-13--10-10-10-10/13-13--10-10-10-10/13-13--10-15-13-G:--10-10-10-10/13-13--10-10-10-10/13-13--10-10-10-10/13-13--10-15-13-D:--10-10-10-10/13-13--10-10-10-10/13-13--10-10-10-10/13-13--10-15-13-A:--------------------------------------------------------------------E:--------------------------------------------------------------------I think Pagey plays this with a slide on reconrd, but eighther way is
fine..

Tablature.host.sk

Pagina 110 di 182

OVER THE HILLS AND FAR AWAY - LED ZEPPELIN


==========================================
strum in rhythm
v
----------------3-------------------------2----------------3-------------------------3--0^2^0-----0---0-----0^2^0---0-4^2^0-----2--------4^0-----0-----------4---------0---0----------------2------------------------------------------3--------------------------play twice, then...
------------------3------------------------2---------------0-----0---0-----------------------3------------------------3---------------3--3--3--/5-----------------------0---0^2^0---0-4^2^0------2--0^2^0--------0--0--0---0-----------0---0-2-0---2---------4----------0---0--------4^0----2--0--3--/5-------0-2---2---------2-------------------------------------3--3--2--1--/3-----------------------3--------------------------------------------------------go back to start again, this time the 12-string kicks in.
the vocals start.

Third time around,

----3----------------------------3-------------3-5-3-5-/7-----0------0--2-4-------5-/7-----0-------------------0--0-----2----------------------------3------------------------"..maybe, more than enough..."

--------------0-----+----------------2--0--+--9----7-------------------------------------3-----|----------------3--3--|--10---8-------------------------0^2^0-------0--0--|----------------2--2--|--9----7-------------------------------4^0---2--0--|---------0-2-0--0--0--|--0----0-----------------------------------3-3--2--|-----0-2--------------|---------------------------------------------------+-3-3------------------+-------------------------------"you got... so much"|

repeat x 3

| strum in time, repeat x 4

Here's what I have to add:


After the soft strumming comes the loud part:
E-|--3---2-----2---0----|
B-|--3---3-----3---2----|
G-|--0---2-----2---2----|
D-|--0---0-----0---2----|
A-|--2---0-----0---0----|
E-|--3------------------|
E-|-3-3-3-3-3-------------------3-3-3-3-3---3---2-----2---0--|
B-|-3-3-3-3-3-------2---2-2-2-2-3-3-3-3-3---3---3-----3---2--|
G-|-0-0-0-0-0-x-x-x-2---2-2-2-2-0-0-0-0-0---0---2-----2---2--|
D-|-0-0-0-0-0-x-x-x-2---2-2-2-2-0-0-0-0-0---0---0-----0---2--|
A-|-2-2-2-2-2-x-x-x-0---0-0-0-0-2-2-2-2-2---2---0-----0---0--|
E-|-3-3-3-3-3-------------------3-3-3-3-3---3----------------|

Tablature.host.sk

Pagina 111 di 182

E-|-3-3-3-3-3-------------------3-3-3-3-3--------------------|
B-|-3-3-3-3-3-------2---2-2-2-2-3-3-3-3-3--------2--2--------|
G-|-0-0-0-0-0-x-x-x-2---2-2-2-2-0-0-0-0-0---x-x--2--2--------|
D-|-0-0-0-0-0-x-x-x-2---2-2-2-2-0-0-0-0-0---x-x--2--2--------|
A-|-2-2-2-2-2-x-x-x-0---0-0-0-0-2-2-2-2-2---x-x--0--0--------|
E-|-3-3-3-3-3-------------------3-3-3-3-3--------------------|
E-|------------------------------------------------------|
B-|------------------------------------------------------|
G-|------------------------------------------------------| Play
D-|---0---0-0---0-2b------------0---0-0---0--------------| 2 times
A-|-2---2-----2--------0--0---2---2-----2---2b---0-0-----|
E-|------------------------------------------------------|
After Playing this a few times, the rhythm changes a little
before going into the solo:
E-|--3--3-3---2--2-2---2--0--0--|
B-|--3--3-3---3--3-3---3--2--0--|
G-|--0--0-0---2--2-2---2--2--1--|
D-|--0--0-0---0--0-0---0--2--2--|
A-|--2--2-2---0--0-0---0--0--2--|
E-|--3--3-3------------------0--|
E-|-------10-------------------------------------------0------|
B-|-10b12----10b12rb10-------10------------------------9------|
G-|---------------------9b11----9b11rb9------9---7---11b13----|
D-|--------------------------------------7h9---9--------------|
A-|-----------------------------------------------------------|
E-|-----------------------------------------------------------|
E-|-------10------------------------------------------0-------|
B-|-10b12----10b12rb10-------10----------------------7b9------|
G-|---------------------9b11----9b11rb9------9---7------------|
D-|--------------------------------------7h9---9--------------|
A-|-----------------------------------------------------------|
E-|-----------------------------------------------------------|
E-|---------------------------------------------------|
B-|---------------------------------------------------|
G-|-------------9--9----------------------------------|
D-|--9bb11vvvvv------9b11---9b11---9b11rb9--7bbbvvv---|
A-|---------------------------------------------------|
E-|---------------------------------------------------|
E-|----------------------------------------------------------|
B-|----------------------------------------------------------|
G-|----------------------------------------------------------|
D-|-------------------7-7------------------------------------|
A-|--7-9--7-9--7-9--7----7-9--7h9p7---7----------------------|
E-|---------------------------------9---9-7-9-7s5--7p5sssss0-|
E-|---------------------------------------------|
B-|---------------------------------------------|
G-|---------------------------------------------|
D-|---------------------------------------------|
A-|---------------------------------------------|
E-|-0-0-2vvvvv--ssssss7b9vvvvv--0h2p0h2vvvvvv---|
E-|-----------17----17---19b21vv-----17---------------|
B-|--------19----19---19----------------19p17-19p17---|
G-|--19b21--------------------------------------------|
D-|---------------------------------------------------|
A-|---------------------------------------------------|
E-|---------------------------------------------------|

Tablature.host.sk

Pagina 112 di 182

<----7 times---->
E-|---------------17------------------------------------------------|
B-|---17-17-17b19-----17-17-17b19rb17p14-17p14s12-14p12s10-12vv-----|
G-|-----------------------------------------------------------------|
D-|-----------------------------------------------------------------|
A-|-----------------------------------------------------------------|
E-|-----------------------------------------------------------------|
E-|-------------------------------------------|
B-|-10-10-10----------10-10-------------------|
G-|----------11p9-11--------11p9-11--11s9vv---|
D-|-------------------------------------------|
A-|-------------------------------------------|
E-|-------------------------------------------|
E-|-----------------------------4-------------------16--18ssss--|
B-|--------------------------5------------------17--------------|
G-|--------------1--3-3-3-6-------15-15-15--18------------------|
D-|-----------2-------------------------------------------------|
A-|-1-1-1-4-----------------------------------------------------|
E-|-------------------------------------------------------------|
Then you go back and play more of the stuff from the main part of the
song until you reach the very end
----------------------3----------------------2---------------------------------------------------3----------------------3---------------------------------------------------0----------------------2----------------------------------------0-2-0------0------------0-2-0-----0------------------------------------0-2-------2-0--2--------0-2-------2-0---------------------------------3--3----------------3---3--3---------------------------------------------At the end they repeat this and fade it out to some very echo-ish stuff
(a simplified version of the verse, with the individual notes played up
an octave)

Again, special thanks go to the origional poster,


Mr.Scary (Gary Chapman), that got me started on this whole thing.
Corrections, etc. are welcome
Matthew M Holladay <holladay@engin.umich.edu>
----------------------------

Tablature.host.sk

Pagina 113 di 182

The Rain Song

Led Zeppelin
-----------------------------------------

Half tabbed by Jeff Lo


Additions/corrections by Howard Wright
spxhaw@uk.ac.cf.thor

Tuning :
--------From low to high : D G C G C D
/ means slide
h means hammer on
p means pull off

D---0-------0--0--0----0-------0--0--0--------------------------------C----7------7--7--7-----6------6--6--6-------5-5-3-2---3----3--3------G-----0-----0--0--0------0-----0--0--0-------4-4-4-4---3----3--3-----C------7----7--7--7-------6----6--6--6-------5-5-5-5---3----3--3------G-------0---0--0--0--------0---0--0--0---0---0---------0----0--0-----D----------------------------------------------------------------------

D-----------------0---0---0---0---0---0-0-----0---0---0---0---0---0-0-C-----------------11--9---12--11--4---9-9-----11--9---12--11--4---9-9-G-----2---4-4-----0---0---0---0---0---0-0-----0---0---0---0---0---0-0-C-----2---2-2-----11--9---12--11--4---9-9-----11--9---12--11--4---9-9-G-0-0-0---0-0-----0---0---0---0---0---8-8-----0---0---0---0---0---8-8-D---------------------------------------------------------------------

D--0----------------0-----------------5--5--5-------5--5--5--]
C--10/9----9---9----9-----9---9-------0--0--0-------0--0--0--]
G--11/10---10--10---10----10--10------0--0--0-------0--0--0--] Repeat 3
C--12/11---11--11---10----10--10------5--4--0---0-4-5--4--0--]
times
G--0-------0---0----0-----0---0------------------------------]
D------------------------------------------------------------]

Guitar 1:
D------------------------------------------------------------------2------C-2--2--2-------------2--2--2-------------2--2--2-------------2--2----2---G-2--4--4-------------2--4--4-------------2--4--4-------------2--4------4-C-2--2--2-------------3--3--3-------------4--4--4-------------5--5--------G-0-----0-------------0-----0-------------0-----0-------------0-----------0
D---------------------------------------------------------------------Guitar2:
D-------------------------------------------------------------------C-------------------------------------------------------------------G--------2-4-0-2---0---------2-4-0-2---0---------2-4-0-2---0--------C----------------4---2---------------4---2---------------4---2------G-------------------------------------------------------------------D--------------------------------------------------------------------

Tablature.host.sk

Pagina 114 di 182

D----5--4h5p4-------4--2--4----4-----0---2--0h2p0------0--2--0h2p0---C----4--------4-----2--2--2----2-----0-----------0-----0----------0--G----4----------4---2--2--2----2-----0------------0----0-----------0-C--0---------------------------------0-------------0---0-------------G-------------------4-----4----4-----2--------------2--2-------------D---------------------------------------------------------------------

D------------C------------G--2--4--4---C--2--2--2---G--0--0--0---D-------------

Variation :
-----------(slightly different version of the above two lines of TAB)

D-----5--4h5p4-------4--2--4---4----5---5---5-----7--7--7--7-----5--5---C-----4--------4-----2--2--2---2----4---4---4-----5--5--5--5-----4--4--G-----4----------4---2--2--2---2----4---4---4-----5--5--5--5-----4--4---C---0-------------------------------0---0---0--------------------0--0----G--------------------4-----4---4------------------7--7--7--7------------D----------------------------------------------------------------------

D--4h5p4-------4--2--4---4------0---2--0h2p0------0--2--0h2p0------C--------4-----2--2--2---2------0-----------0-----0----------0-----G----------4---2--2--2---2------0------------0----0-----------0-----C-------------------------------0-------------0---0------------------G--------------4-----4---4------2--------------2--2------------------D----------------------------------------------------------------------

Ending :
---------

D---/9--9---9--7----7--7----5--7-----5--5---5--4-----4--4---4--5--------C---/7--7---7----7--5--5--5-5--------4--4---4----4---2--2---2--4--------G---/7--7---7-------5--5----5--------4--4---4--------2--2---2--4--------C---/7--7---7-------5--5-------------0--0---0------------------0--------G---0---0-----------0--0-----------------------------4--4---4-----------D----------------------------------------------------------------------

Tablature.host.sk

Pagina 115 di 182

D---7--7---7-8----10--8--10--8--10--12/---------------0--------C---5--5---5-7----8------8------8-------------------5---5---5---G---5--5---5-7----8------8------8-----------------6-------6------C-----------------------------------------------7----------------G---7--7---7-8----10--------------------------0------------------D-----------------------------------------------------------------

D----------0----------7p5-----5--2p0--------5p3---3----------0-----0--C--------5---5---5--------6----------0---------4-4-4--------5-----4---G------6-------6------------7----------0--------5---5------0-----0----C----7----------------0----------0-------0--0-------------0-----------G--0------------------------------------------------------------4-----D----------------------------------------------------------------------

D-----0----0----0----0--------0-----------C----2----2----2----2--------2------------G---0----0----0----0--------2-------------C--------------------------2--------------G--2----2----2----2-------0---------------D------------------------0-----------------

Tablature.host.sk

Pagina 116 di 182

"Ramble On"
by Led Zeppelin - Led Zeppelin II
Transcribed by Bryan Steele (thanks to Dave Whitehill for his help)
Questions, Comment, Corrections:
------------------------------35149@wpoff.monm.edu
(school)
bsteele@heartland.bradley.edu
(otherwise)

The main acoustic riff is Riff.1. This is the basic feel for the riff and
you can add your own variations to make it sound more full. The chord
changes are E(E5), E7sus4, Esus2 | A, Asus4, A, A9.
Riff.1
E-|---------------0----------|-----0----------------------0-------------------|
B-|--9---------0--0----------|--5--5----5--5--5--5--5--5--5--------0----------|
G-|--9---9--9--7--9----------|--6--6h7--7--7--7--7--7--7--6--6--6--6----------|
D-|--9---9--9--7--7---0--0---|--7--7----7--7--7--7--7--7--7--7--7--5--7-------|
A-|--7---7--7--7--9---0--0---|--0--0----0-----0--0--0--0--------0-----7-------|
E-|---------0------------0---|----------------------------------------0-------|
Riff.1
E-|--------------0---------0--------------|----0------------------------------|
B-|--------9--9--0---------0--------------|----5----5-5-5---5---5--5--5----5--|
G-|--7/9---9--9--7--7-7----9--9-9-9-------|-6--6h7--7-7-7-7-6h7-7--7--6h7--7--|
D-|--------9--9--7--7-7-7--7--7-7-7--0--0-|-7--7----7-7-7-7-7---7--7--7----7--|
A-|--9/11--7--7--7---------9---------0--0-|-0-----------0---0---0--0--0----0--|
E-|-----------0-------------------------0-|-----------------------------------|

Riff.2 (electric) is a clean electric fill during the lyrics, "Ah, sometimes
I grow so tired, but I know one thing I've got to do!" Riff.2 (acoustic) is
the acoustic part played behind Riff.2 (electric). The chord pattern is
E, F#m7, G#m7 | A, F#m7, E.
Riff.2 (electric)
E-|-0---0-----0------------|-------------0---0---------|-0--------0-----------|
B-|-0----0-0--0---0-0----0-|-0----0--0---0-0---0-------|---------0--0--0-0---0|
G-|-11-----9--9-----9h11---|-7p6-----6p4---------------|b11(13)p9---9----9h11-|
D-|------------------------|---------------------7p6---|----------------------|
A-|------------------------|-------------------------7-|----------------------|
E-|------------------------|---------------------------|----------------------|
^play this measure the
^ extra addition to
first time -- goto the
measure one to give
end measure after that
the bend in the riff
Riff.2 (acoustic)
E-|-4---------------------------|--0----------------0-------------------------|
B-|----------2------7-----------|--5-----------2----0-------------------------|
G-|-1--------2------4--4--4-----|--6-----------2----1-------------------------|
D-|----------2------4--4--4--0--|--7--7--------2----2-------------------------|
A-|-2--2-----4------6--6--------|--0--0-0--7---4----2-------------------------|
E-|-0-----0--2--0---4-----------|----------0---2----0-------------------------|

These two riffs go on top of each other to make the sound more full. These
start at "Ramble on, now's the time, the time is now. Sing my song..."

Tablature.host.sk

Pagina 117 di 182

Riff.3 (electric)
E-|--------------------|-----------------------------2---2--3-----------------|
B-|-9------------------|--3/5-----5--5\3---3--3------3---3--3-----------------|
G-|-9--9--9--7--9\-----|-------------------------0-------2--------------------|
D-|-9--9--9--7--7\-----|--5/7--------7\5------5--0----------------------------|
A-|-7--7--7--7--9\-----|------------------------------------------------------|
E-|--------------------|------------------------------------------------------|
Riff.3 (acoustic)
E-|--------------------|-------0----------0---0----------2--3-----------------|
B-|--------------------|----5--5--5--5\3--3---3----------3--3-----------------|
G-|-9--9--9--7--9\-----|-------0--0-------0---0--0-0-----2--0-----------------|
D-|-9--9--9--7--7\-----|----7--------7\5---------0-0-----0--------------------|
A-|-7--------7--9\-----|------------------------------------------------------|
E-|--------------------|------------------------------------------------------|

These riffs are for the first solo.

They harmonize quite nicely.

Solo.1 (gtr1)
E-|---------|-----------------------------12----------------------------------|
B-|-15------|-15p14h15--15p14h15-15p14h15-----15-14-15------------------------|
G-|---------|-----------------------------------------------------------------|
D-|---------|-----------------------------------------------------------------|
A-|---------|-----------------------------------------------------------------|
E-|---------|-----------------------------------------------------------------|
Solo.1 (gtr2)
E-|---------|-----------------------------------------------------------------|
B-|-12------|-12p10h12--12p10h10-12p10h12-14--12-10-12------------------------|
G-|---------|-----------------------------------------------------------------|
D-|---------|-----------------------------------------------------------------|
A-|---------|-----------------------------------------------------------------|
E-|---------|-----------------------------------------------------------------|

Here is the second harmonized solo.


Solo.2 (gtr1)
E-|-12-------------12-------------12------|-12--------------------------------|
B-|---15-14-12-------15-14-12-------15-14-|---15-14-12----12-14--12-14--12-14-|
G-|------------14-------------14----------|------------14---------------------|
D-|---------------------------------------|-----------------------------------|
A-|---------------------------------------|-----------------------------------|
E-|---------------------------------------|-----------------------------------|
Solo.2 (gtr2)
E-|-------------------------------------|-------------------------------------|
B-|-14p12---------14p12---------14p12---|-14p12-------------------------------|
G-|------14p11---------14p11---------14-|------14p11----11-14--11-14--11-14---|
D-|-----------14------------14----------|-----------14------------------------|
A-|-------------------------------------|-------------------------------------|
E-|-------------------------------------|-------------------------------------|

This riff starts at the end of the second harmonized solo.


acoustic riff (Riff.1) is played behind Riff.4.

The first

Riff.4 (electric)
E-|------------------------------|--------------------------------------------|
B-|------------------------------|--------------------------------------------|
G-|--------9--9--9---------------|------9-9--9--7---7-7-7---------------------|
D-|------9-9--9--9-------9-9-----|-9h11-----11--7h9-----9--6-7----------------|
A-|-9h11-----11--9--9p11-----11--|--------------------------------------------|
E-|------------------------------|--------------------------------------------|

Tablature.host.sk

Pagina 118 di 182

Rock And Roll :- Led Zeppelin


==============
/ and \ mean slide up or down
^ means hammer on or pull off
' means bend 1/2 step (1 fret)
"means bend 1 whole step ( two frets)
a number in parenthesis means it should still be ringing from when it was last
played
A riff
|------------------------|--------------------------|
|------------------------|--------------------------|
|------------------------|--------------------------|
|-2--2-----2--5^2--4-----|-----2--4--2--2--2--4--2--|
|-0--0--4--0--0----0--3'-|-(3)-0--0--0--0--0--0--0--|
|------------------------|--------------------------|

D riff
|------------------------|--------------------------|
|------------------------|--------------------------|
|-2--2-----2--5^2--4-----|-----2--4--2--2--2--4--2--|
|-0--0--4--0--0----0--3'-|-(3)-0--0--0--0--0--0--0--|
|------------------------|--------------------------|
|------------------------|--------------------------|
E riff
|---------------------------------------------------|
|------------------------|--------------------------||------------------------|--------------------------|
|------------------------|--------------------------|
|-2--2-----2--5^2--4-----|-----2--4--2--2--2--4--2--|
|-0--0--4--0--0----0--3'-|-(3)-0--0--0--0--0--0--0--|
The riff names coorespond to the chord names of a twelve bar blues in A.
each riff is two measures long the progression looks like this:

Since

| A riff | A riff | D riff | A riff | E riff | A riff |


The verse tab also follow the chords of a twelve bar blues like this.
A verse riff
|-----------------|
|-----------------|
|-----2-----------| play 3
|-----2-----------| times
|-----0-----------| <---|--3--------------|

|------------------|
|------------------|
|-----2-----2------|
|-----2-----2------|
|-----0-----0------|
|--3-----3-----3^0-|

D verse riff
|-----------------|
|-----3-----------| play 3
|-----2-----------| times
|-----0-----------| <---|--3--------------|
|-----------------|

|------------------|
|-----3-----3------|
|-----2-----2------|
|-----0-----0------|
|--3-----3-----3^0-|
|------------------|

E verse riff
|--------------------------|--------------------------|------------|
|--------------------------|--------------------------|------------|
|--------------------------|--------------------------|------------|
|--9--9--11-9--9--9--11-9--|--9--9--11-9--9--9--11-9--|--7---------|
|--7--7--7--7--7--7--7--7--|--7--7--7--7--7--7--7--7--|--5---------|

Tablature.host.sk

Pagina 119 di 182

|--------------------------|--------------------------|------------|

Rock and Roll


By
Led Zeppelin
Song:
A riff
|------------------------|--------------------------|
|------------------------|--------------------------|
|------------------------|--------------------------|
|-2--2-----2--5^2--4-----|-----2--4--2--2--2--4--2--|
|-0--0--4--0--0----0--3'-|-(3)-0--0--0--0--0--0--0--|
|------------------------|--------------------------|

repeat 1x

D riff
|------------------------|--------------------------|
|------------------------|--------------------------|
|-2--2-----2--5^2--4-----|-----2--4--2--2--2--4--2--|
|-0--0--4--0--0----0--3'-|-(3)-0--0--0--0--0--0--0--|
|------------------------|--------------------------|
|------------------------|--------------------------|
A riff
|------------------------|--------------------------|
|------------------------|--------------------------|
|------------------------|--------------------------|
|-2--2-----2--5^2--4-----|-----2--4--2--2--2--4--2--|
|-0--0--4--0--0----0--3'-|-(3)-0--0--0--0--0--0--0--|
|------------------------|--------------------------|

E riff
|---------------------------------------------------|
|------------------------|--------------------------||------------------------|--------------------------|
|------------------------|--------------------------|
|-2--2-----2--5^2--4-----|-----2--4--2--2--2--4--2--|
|-0--0--4--0--0----0--3'-|-(3)-0--0--0--0--0--0--0--|
A riff
|------------------------|--------------------------|
|------------------------|--------------------------|
|------------------------|--------------------------|
|-2--2-----2--5^2--4-----|-----2--4--2--2--2--4--2--|
|-0--0--4--0--0----0--3'-|-(3)-0--0--0--0--0--0--0--|
|------------------------|--------------------------|

A verse riff
|-----------------|
|-----------------|
|-----2-----------| play 3
|-----2-----------| times
|-----0-----------| <---|--3--------------|

|------------------|
|------------------|
|-----2-----2------|
|-----2-----2------|
|-----0-----0------|
|--3-----3-----3^0-|

Been a long time since I rock and rolled


A verse riff
|-----------------|

Tablature.host.sk

|------------------|

Pagina 120 di 182

|-----------------|
|-----2-----------| play 3
|-----2-----------| times
|-----0-----------| <---|--3--------------|

|------------------|
|-----2-----2------|
|-----2-----2------|
|-----0-----0------|
|--3-----3-----3^0-|

Been a long time since I did the stroll.

D verse riff
|-----------------|
|-----3-----------|
|-----2-----------|
|-----0-----------|
|--3--------------|
|-----------------|
Let me get back let

|------------------|
|-----3-----3------|
|-----2-----2------|
|-----0-----0------|
|--3-----3-----3^0-|
|------------------|
me get back let me get back, baby where I come
play 3
times
<----

A verse riff
|-----------------|
|-----------------|
|-----2-----------| play 3
|-----2-----------| times
|-----0-----------| <---|--3--------------|
from.

|------------------|
|------------------|
|-----2-----2------|
|-----2-----2------|
|-----0-----0------|
|--3-----3-----3^0-|

E verse riff
|--------------------------|--------------------------|------------|
|--------------------------|--------------------------|------------|
|--------------------------|--------------------------|------------|
|--9--9--11-9--9--9--11-9--|--9--9--11-9--9--9--11-9--|--7---------|
|--7--7--7--7--7--7--7--7--|--7--7--7--7--7--7--7--7--|--5---------|
|--------------------------|--------------------------|------------|
It's been a long time been a long time been a long lonely lonely lonely lonely
lonely
A riff
|------------------------|--------------------------|
|------------------------|--------------------------|
|------------------------|--------------------------|
|-2--2-----2--5^2--4-----|-----2--4--2--2--2--4--2--|
|-0--0--4--0--0----0--3'-|-(3)-0--0--0--0--0--0--0--|
|------------------------|--------------------------|
time.

repeat 1x

That covers the two types of progressions for the verse and chorus.
be able to figure out when each is played by the way they sound.

You should

The end is as follows:


free time
A7
|--------------------------------------------------------------------------|
|--5-----------------------------------------------------------------------|
|--x-----------------------------------------------------------------------|
|--5---------------------------5^7^5-7^5----5------------------------------|
|--4--------3^5^3------3-5/7-------------0-----------------------5---------|
|-------5---------3^5-------------------------------------------------------|
Royal Orleans

Tablature.host.sk

Pagina 121 di 182

INTRO: 2X
guitar1
H
|---------------------------------|----------------------------------|
|---5-7-5--/8-----5-7-5--/8-------|---5-7-5---8--7--5------5---------|
|---6-7-6--/9-----6-7-6--/9-------|---6-7-6---9--7--5^6----6---------|
|---------------------------------|---------------------7------------|
|---------------------------------|----------------------------------|
|---------------------------------|----------------------------------|
|
1 4 1
1
1 4 1
1
|
|
2 4 2
2
2 4 1 2 3 2
|
|
|
|guitar2
|
|---------------------------------|----------------------------------|
|---------------------------------|----------------------------------|
|---------------------------------|----------/4--2-------------------|
|---------------------------------|-----------------4-2--------------|
|----------0-------------0--------|-------00------------4--0---------|
|---0-2-2---------0-2-2-----------|---0-2----------------------------|
1 1
1
3 1 3 1 3

VERSE1: 2X
|-------------------|-------------------|-------------------|-------------------|
|--9-9---9-9-9--7---|--9-9---9-9-9--7---|--9-9---9-9-9--7---|--9-9---9-9-9--7---|
|--9-9---9-9-9--7---|--9-9---9-9-9--7---|--9-9---9-9-9--7---|--9-9---9-9-9--7---|
|-------------------|-------------------|-------------------|-------------------|
|-------------------|-------------------|-------------------|-------------------|
|------0------------|------0------------|------0------------|------0------------|

INTRO: 2X

VERSE2: 4X
|-------------------10-101010-----|--------------------10-1010-------|
|--9-9-7---9-9-9-7---9--9-9-9-----|--9-9-7---9-9-9-7----9--9-9-------|
|--9-9(7)--9-9-9(7)---------------|--9-9(7)--9-9-9(7)----------------|
|---------------------------------|----------------------------------|
|---------------------------------|----------------------------------|
|---------------------------------|----------------------------------|
3 3 1
4 4 4 4
|
3 3 1
3 3 3 3
| tail end for
V
last verse
--------121212121212-|
--------121212121212-|
---------------------|
---------------------|
---------------------|
---------------------|
4 4 4 4 4 4
4 4 4 4 4 4
^L
INTRO: 4X
VERSE2:

4X

SOLO: 4X

Tablature.host.sk

Pagina 122 di 182

|------------------------12--12-12-12--|------------------------12--12-12-----|
|--11-11-9--11-11-11-9---11--11-11-11--|--11-11-9--11-11-11-9---11--11-11-----|
|--11-11(9)-11-11-11(9)----------------|--11-11(9)-11-11-11(9)----------------|
|--------------------------------------|--------------------------------------|
|--------------------------------------|--------------------------------------|
|--------------------------------------|--------------------------------------|
3 3 1
3 3 3 1
4
4 4 4
3 3 1
3 3 3 1
3
3 3 3

INTRO: 2X
BRIDGE: 4X
H
H
H
H
|--------------------------------------|--------------------------------------|
|----------------------------(3)(3)----|----------------------------(3)-------|
|-----------------------------2--2-----|-----------------------------2--------|
|--------------/4--2----------0--0-----|--------------/4--2----------0--------|
|---------0-^2-------------------------|---------0-^2-------------------------|
|---0-^2--------------0-0-0------------|---0-^2--------------0-0-0------------|
1
1 4 1
3 3
1 1
VERSE2: 8X

Music by Jimmy Page


Tab'd by Alan Williams

/: slide into note


^ H: hammer on
(): note fingered, slightly played
numbers underneath are fingers, just suggestions
(1-index, 2-middle, 3-ring, 4-pinky)

Tablature.host.sk

Pagina 123 di 182

SINCE I'VE BEEN LOVING YOU


Led Zeppelin

(13)

/-3-\

..

a ghost note, a continuation of a previously


played note into the current var. I put

..

Notes directly under are triplets

Rest
|
/-3-\
V
||---|-8------|-8-|-11-10-8-10-11-|-10-8---10-8-----|--------|-------|
||-8-|---11-8-|---|---------------|------9------9-9-|-9-8----|-R-3-4-|
||---|--------|---|---------------|-----------------|-----10-|-------|
||---|--------|---|---------------|-----------------|--------|-------|
||---|--------|---|---------------|-----------------|--------|-------|
||---|--------|---|---------------|-----------------|--------|-------|
So here it is:

(enjoy)

/-3-\
/-3-\
||---------------|-----|-------------|---/3-|-3-3-|-(3)-------|
||-6-3-4---------|-----|-4-3---3-4-6-|-/----|-----|-----16-18-|
||-------5-3-----|---5-|-----5-------|------|-----|-----------|
||-----------5-3-|-----|-------------|------|-----|-----------|
||---------------|-6---|-------------|------|-----|-----------|
||---------------|-----|-------------|------|-----|-----------|
/--3---\ /--3---\
||-15-------15----------------|----|---------------15-------------|
||----18-16----18-16-18-------|----|------18-16-18----18-16-18-17-|
||----------------------17-15-|-17-|-(17)-------------------------|
||----------------------------|----|------------------------------|
||----------------------------|----|------------------------------|
||----------------------------|----|------------------------------|

||---------|--------|-8-----------------------|---------|---------|
||------11-|-8----8-|---11-8------------------|-4-3-----|-4-3-----|
||-(17)----|---10---|--------11-10-8----10----|-----5-3-|-----5-3-|
||---------|--------|----------------10----10-|---------|---------|
||---------|--------|-------------------------|---------|---------|
||---------|--------|-------------------------|---------|---------|
/-3--\
||-----------|------------8-8-|-8-------------|-15----------15-15-|
||-----4-3---|-3-4-6-8-11-----|---------16-18-|----18-16-18-------|
||-(3)-----5-|----------------|---15-17-------|-------------------|
||-----------|----------------|---------------|-------------------|
||-----------|----------------|---------------|-------------------|
||-----------|----------------|---------------|-------------------|
/-------6--------\
||-------------------------|------------------15-15-|-------|-------|
||-------------------------|------------15-18-------|-------|----16-|
||-15-------15-------------|---------15-------------|----15-|-17----|
||----17-15----17-15-17-17-|-(17)-17----------------|-18----|-------|
||-------------------------|------------------------|-------|-------|
||-------------------------|------------------------|-------|-------|

||----------|-15-15-|----15-|-------|
||----16----|-------|-18----|-16----|
||-17----15-|-------|-------|----17-|
||----------|-------|-------|-------|
||----------|-------|-------|-------|
||----------|-------|-------|-------|

Tablature.host.sk

Pagina 124 di 182

STAIRWAY TO HEAVEN
From: HISCAP@LUSTA.LATROBE.EDU.AU (PERRETT,Andrew)
ok ascii pacing set to 2 seconds a line this time hehe
/* sorry guys this time ive got it right... i didnt even make
a backup copy of the other version i sent, vege eh */

I had a few hours to kill and just bought a couple of CD's one
is The Money or The Gun's, Stairways to Heaven (which is where that rolf
harris version of this song came from) so I thought id fix up a
full version of stairway to heaven.
This as far as I can tell is the complete CD (the one remastered
by pagey) version of stairway to heaven. Id like to thank
mwelie@cs.vu.nl (Welie van M) for the first bit of the song and
sef@icbr.ufl.edu for the solo.
I used their tabs and filled in the blanks. Lyrics from ftp.sunet.se

E-------5-7-----7-|-8-----8-2-----2-|-0---------0-----|-----------------|
B-----5-----5-----|---5-------3-----|---1---1-----1---|-0-1-1-----------|
G---5---------5---|-----5-------2---|-----2---------2-|-0-2-2-----------|
D-7-------6-------|-5-------4-------|-3---------------|-----------------|
A-----------------|-----------------|-----------------|-2-0-0---0--/8-7-|
E-----------------|-----------------|-----------------|-----------------|
E---------7-----7-|-8-----8-2-----2-|-0---------0-----|-----------------|
B-------5---5-----|---5-------3-----|---1---1-----1---|-0-1-1-----------|
G-----5-------5---|-----5-------2---|-----2---------2-|-0-2-2-----------|
D---7-----6-------|-5-------4-------|-3---------------|-----------------|
A-0---------------|-----------------|-----------------|-2-0-0-------0-2-|
E-----------------|-----------------|-----------------|-----------------|
E-------0-2-----2-|-0-----0----------|---------3-----3B-----------3-----|---1-----0h1------|-1-----1---0----G-----0-------2---|-----2-------2----|---0---------0--D---2-----0-------|-3----------------|-----2----------A-3---------------|---------0----0-2-|-3--------------E-----------------|------------------|---------3------Intro end.
E---------2-----2-|-0-----0----------|---------------2-|-0-0-0-----------|
B-------1---3-----|---1-----0-1------|-------1-----3---|-1-1-1-----------|
G-----0-------2---|-----2-------2----|-----0-----2-----|-2-2-2-----------|
D---2-----0-------|-3----------------|---2-----0-------|-3-3-3-----------|
A-3---------------|---------0----0-2-|-3---------------|-----------------|
E-----------------|------------------|-----------------|-----------------|
Theres a
E-------5-7-----7-|-8-----8-2-----2-|-0---------0-----|-----------------|
B-----5-----5-----|---5-------3-----|---1---1-----1---|-0-1-1-----------|
G---5---------5---|-----5-------2---|-----2---------2-|-0-2-2-----------|
D-7-------6-------|-5-------4-------|-3---------------|-----------------|
A-----------------|-----------------|-----------------|-2-0-0-----------|
E-----------------|-----------------|-----------------|-----------------|
lady whos
glitter
buying a
heaven When she
E-------5-7-----7-|-8-----8-2-----2-|-0---------0-----|-----------------|
B-----5-----5-----|---5-------3-----|---1---1-----1---|-0-1-1-----------|
G---5---------5---|-----5-------2---|-----2---------2-|-0-2-2-----------|
D-7-------6-------|-5-------4-------|-3---------------|-----------------|
A-----------------|-----------------|-----------------|-2-0-0-------0-2-|
E-----------------|-----------------|-----------------|-----------------|

Tablature.host.sk

Pagina 125 di 182

gets there

stores are

ord she can get

came for

E---------2-----2-|-0-----0---------------|---------3-----3-|-3^2-2-2-------|
B-------1---3-----|---1----1--0-1---------|-1---1-1---0-----|-3---3-3-------|
G-----0-------2---|-----2---------2-------|---0-0-------0---|-2-----2-------|
D---2-----0-------|-3---------------------|-----2-----------|-0-----0-------|
A-3---------------|-----------0------0-2--|-3---------------|-----------0-2-|
E-----------------|-----------------------|---------3-------|---------------|
Oooh
oooh
and shes buying a
heaven
Theres
E-------0-2-----2-|-0-----------------|---------2-----2-|-0-0-0-----------|
B-----------3-----|---1--1--0 1-------|-1-----1---3-----|-1-1-1-----------|
G-----0-------2---|-----2-------2-----|---0---------2---|-2-2-2-----------|
D---2-----0-------|-3-----------------|-----2---0-------|-3-3-3-----------|
A-3---------------|---------------0-2-|-3---------------|-----------------|
E-----------------|-------------------|-----------------|-----------------|
sign on
she wants
you
know
two
meanings
In a
E-------5-7-----7-|-8-----8-2-----2-|-0---0-----0-----|-----------------|
B-----5-----5-----|---5-------3-----|---1---1-----1---|-0-1-1-----------|
G---5---------5---|-----5-------2---|---------------2-|-0-2-2-----------|
D-7-------6-------|-5-------4-------|-3---------------|-----------------|
A-----------------|-----------------|-----------------|-2-0-0---0--/8-7-|
E-----------------|-----------------|-----------------|-----------------|
tree
theres a song
times all of our
mis given
E--------5-7---7---|----8-------2------|----0-------0----|-----------------|
B-----------5-5-5--|---5-5-----3-3-----|---1--1----1-1---|-0-1-1-------3---|
G------5-----5---5-|--5---5---2---2--2-|--2----2--2---2--|-0-2-2-------0---|
D----7-----6-------|-5-----5-4-----4---|-3-------3-----3-|-------------0---|
A-0-0--------------|-------------------|-----------------|-2-0-0-------2---|
E------------------|-------------------|-----------------|-----------------|
|-3---3-3-3--3--0-0-|-2-------2-------|-3--3-3-3--3--0-0---7-|--5---3---5---|-1---1-1-1--1--1-3-|-3--3--3---3-0-0-|-1--1-1-1--1--1-1---8-|--7---5---7---|-2---2-2-2--2--2-2-|-2-----------0-0-|-2--2-2-2--2--2-2---9-|--7---5---7---|-2---2-2-2--2--2---|---0-------------|-2--2-2-2--2--2-2---0-|-------------0|-------------------|-----------------|----------------------|-------------0|-------------------|-----------------|----------------------|--------------Oooh it makes me wonder
|-3---3-3-3--3--0-0-|-2-------2-------|-3--3-3-3--3--0-0---7-|--5---3---5---|-1---1-1-1--1--1-3-|-3--3--3---3-0-0-|-1--1-1-1--1--1-1---8-|--7---5---7---|-2---2-2-2--2--2-2-|-2-----------0-0-|-2--2-2-2--2--2-2---9-|--7---5---7---|-2---2-2-2--2--2---|---0-------------|-2--2-2-2--2--2-2---0-|-------------0|-------------------|-----------------|----------------------|-------------0|-------------------|-----------------|----------------------|--------------oooh
makes me wonder
theres a
------------------|------------------------|-----------------0--|--0----------------1------3-|-0h1----------1---------|-------1---------0--|--1--------------0------0---|-----2-------2----------|-----0--------0--2--|--2------------2------0-----|---------2--------------|---2--------0----3--|--2--------0h3------2-------|-------0----------0--2--|-3--------2------3--|--0---0-2-------------------|------------------------|-----------------1--|----------feeling
when look to
my
spirit
leaving in my
whispered
all call the tune then the piper will
to reason &
----------------|--------------------|----------------0-|--0------|---------------1------3-|-0h1---------1------|-------1--------1-|--1------|----1---3
-----0------0---|-----2-----2--------|-----0-------0--2-|--2------|---0---0---2------0-----|---------2----------|---2-------0----3-|--2------|--2---0--3------2-------|-------0------0--2--|-3-------2------3-|--0--0-2-|-3---2------------------|--------------------|----------------1-|---------|--------thoughts I
smoke through
voices of
looking [goto %]
new day
those who
forests will laugh - ter

Tablature.host.sk

Pagina 126 di 182

|-3--3-3-3--3p-0-0---7-|--5---3---5----|-3--3-3-3--3h-0-0-|-2-----2-2-2-2-0-0|-1--1-1-1--1--1-1---8-|--7---5---7----|-1--1-1-1--1--1-3-|-3-----3-3-3-3-0-0|-2--2-2-2--2--2-2---9-|--7---5---7----|-2--2-2-2--2--2-0-|-2-----2-2-2-2-0-0|-2--2-2-2--2--2-2---0-|----------0----|-2--2-2-2--2--2---|----0--0----------|----------------------|-------------0-|------------------|------------------|----------------------|---------------|------------------|------------------whoah
|-3--3-3-3--3--0-0---7-|--5---3---5---|-1--1-1-1--1--1-1---8-|--7---5---7---|-2--2-2-2--2--2-2---9-|--7---5---7---|-2--2-2-2--2--2-2---0-|----------0---|----------------------|-------------0|----------------------|---------------

------------------|------------------------|-----------------0--|--0----------------1------3-|-0h1----------1---------|-------1---------1--|--1--------------0------0---|-----2-------2----------|-----0--------0--2--|--2------------2------0-----|---------2--------------|---2--------0----3--|--2--------0h3------2-------|-------0----------0--2--|-3--------2------3--|--0---0-2-------------------|------------------------|-----------------1--|----------If theres a bust


'edge row dont
its just a
Queen
Yes there are
go by but
and theres still
your on
----------------|-3--3-3-3--3--0-0-|-2-----2-2-2-2-----|-3--3-3-3--3--0-7-------1------0-|-1--1-1-1--1--1-3-|-3-----3-3-3-3-0-0-|-1--1-1-1--1--1-8-----0------0---|-2--2-2-2--2--0-0-|-2--2--2-2-2-2-0-0-|-0--0-2-0--0--0-9---2------0-----|-2--2-2-2--2------|----0--0-----------|-2--2-2-2--2------3------2-------|------------------|-------------------|---------------------------------|------------------|-------------------|-----------------and it
won der
-5--3--5--|-3--3-3-3--3--0-0-|-2-----2-2-2-2-0-0-|-3--3-3-3--3--0-7-|-5--3--5-7--5--7--|-1--1-1-1--1--1-3-|-3--3--3-3-3-3-0-0-|-1--1-1-1--1--1-8-|-7--5--7-7--5--7--|-2--2-2-2--2--0-0-|-2--2--2-2-2-2-0-0-|-0--0-2-0--0--0-9-|-7--5--7----------|-2--2-2-2--2------|-------------------|-2--2-2-2--2------|----------------0-|------------------|-------------------|------------------|--------0
----------|------------------|-------------------|------------------|--------oooh
------------------|------------------------|-----------------0--|--0----------------1------3-|-0h1----------1---------|-------1---------1--|--1--------------0------0---|-----2-------2----------|-----0--------0--2--|--2------------2------0-----|---------2--------------|---2--------0----3--|--2--------0h3------2-------|-------0----------0--2--|-3--------2------3--|--0---0-2-------------------|------------------------|-----------------1--|----------Your head is
wont go
the pipers
him
Dear lady can
blow
your stairw
whispering wind
wierd time (3/4?)
-----3--------3---|--2---------0-2--|-3----0-2--3--0-2--|---3-3-2-----------5--------3---4-|--3-------3-3-3--|-3--3-3-3--3--3-3--|---3-3-3-3-------5-----5--4-------|--2-------2-2-2--|-2--2-2-2--2--2-2--|---2-2-2-0------------------------|-----------------|-0--0-0-0--0--0-0--|---0-0-0-2------------------------|-----------------|-------------------|---------3------------------------|-----------------|-------------------|-------------------2-2-2---|---2--2-2--0-0-0-2-|-3-0-2--0-2-|-3-3-3-3-|---2--2-2-0-0-|-0-2-2-0
-3-3-3-3-1-|-1-3--3-3--3-3-3-3-|-3-3-3--3-3-|-3-3-3-3-|-3-3--3-3-3-3-|-3-3-3-3
-0-0-0-0-0-|-0-0--0-0------2-2-|-2-2-2--2-2-|-2-2-2-0-|-0-0--0-0-0-0-|-0-0-0-0
---------2-|-----------0-0-0-0-|-0-0-0--0-0-|-0-0-0-2-|-2------------|----------------3-|-------------------|------------|-------3-|--------------|------------------|-------------------|------------|---------|--------------|--------

Tablature.host.sk

Pagina 127 di 182

Ok this is where the solo starts.


I'll include the chords to play over
it they sound pretty open I think
its a 12 string.

Am
Am7
Fmaj7

- x02210
- x02010
- xx3210

Am
Am7
Fmaj7
|----------5---------------|------------------8--8-|
|------------8-5-----------|-------------8b10------|
|---7b9----------7-5---7p5-|-----------------------|
|--------------------7-----|-7p5-------------------|
|--------------------------|----8------------------|
|--------------------------|-----------------------|
Am
Am7
Fmaj7
|--8b10---8--5 -----8--10-|-8-----------------------5-------|
|---------------8b10-------|---10-8----8h10------------8-5---|
|--------------------------|--------10-----------7b9-------7-|
|--------------------------|---------------------------------|
|--------------------------|---------------------------------|
|--------------------------|---------------------------------|
Am
Am7
Fmaj7
|----------------------------|----5------------------------|
|----------------------------|------8-5--------------------|
|-5---7p5------------5---5-5-|----------7-5--7p5-----------|
|---7-----7-5---5-7----7-----|-5------------7----7p5-7p5---|
|-------------7--------------|---------------------------8-|
|----------------------------|-----------------------------|
Am
Am7
|---------------------------------------------|
|------------------------------------------13-|
|---------10-------------------12----12-14----|
|------10----12-10----10-12/14----14----------|
|-8/12-------------12-------------------------|
|---------------------------------------------|
Fmaj7
|------------------------15b17-15-12----------------|
|--15b17-15-13--15-13-13-------------15b17-15-13----|
|------------------------------------------------14-|
|---------------------------------------------------|
|---------------------------------------------------|
|---------------------------------------------------|
Am
Am7
|---------------------------------------------------------------------------|-13-15b17b15p13----13-15b17b15p13----13---15b17b15p13----13--15b17b15p13---|----------------14----------------14------------------14-----------------14|---------------------------------------------------------------------------|---------------------------------------------------------------------------|---------------------------------------------------------------------------Fmaj7
|---------------------------------------------------------------------------|-13-15b17b15p13----13--15b17b15p13----13--15b17b15p13----13--15b17b15p13---|----------------14-----------------14-----------------14-----------------14|---------------------------------------------------------------------------|---------------------------------------------------------------------------|---------------------------------------------------------------------------Am
Am7
hold bend
|------------------------------------------15b17--|
|-13--15b17b15p13----13---15b17b15p13----13-------|
|-----------------14------------------14----------|
|-------------------------------------------------|
|-------------------------------------------------|
|-------------------------------------------------|
Fmaj7
|-b17b15-12---12--------------------------------15--|

Tablature.host.sk

Pagina 128 di 182

|-----------15---15--13----13-15-13---13--15b17-----|
|-----------------------14----------14--------------|
|---------------------------------------------------|
|---------------------------------------------------|
|---------------------------------------------------|
* this slide riff is another guitar and
is actually played on the 1st string
------8/7---8/5---/
Am
Am7 /---------\
Fmaj7
-----------------------------|-----------17----------------------------------15b17b15p13----13/12--13/10-|--------20----20-20----------------------------------------14--------------|--19b21-21----------19b21b19p17---19--17----19-----------------------------|--------------------------------19-------19--------------------------------|---------------------------------------------------------------------------|----------------------------------------------Am
Am7
Fmaj7
Am
Am7
|--------------------|--------------------------------|--------------|
|--------------------|--------------------------------|--------------|
|-19b21--13/12 13/10-|--14b17--14b17-14--12--14--12-12b14------------|
|--------------------|--------------------------------|--------------|
|--------------------|--------------------------------|--------------|
|--------------------|--------------------------------|--------------|
Fmaj7
Am
Am7
|-----------------------------------|----------8/7--8/5--|
|-----------------------------------|--------------------|
|-10b14----10b12b10-9-7----7--------|-7-9-7--------------|
|-----------------------10----10----|-------10-7---------|
|-----------------------------------|--------------------|
|-----------------------------------|--------------------|
Fmaj7
|----20-p17------20-p17------20-p17------20-p17------20-p17-----20b22-|
|-17--------17----------17----------17----------17----------17--------|
|---------------------------------------------------------------------|
|---------------------------------------------------------------------|
|---------------------------------------------------------------------|
|---------------------------------------------------------------------|
The two guitars continue
meaning hit very hard &)
good. The lead basically
can tweak the slide riff

into this section. Walloping (a technical term


the strings using the full barre sounds pretty
follows the bass. You can do both (like you
with one guitar)

I think i can probably tabascii the bass now, ive listened to it enough.
But ive had it for this song!! unless someone really needs it please dont
ask just yet.. Ive gotten transfixed by a few other zepplin tracks
that where on the album, their slower more melodic stuff like no quarter
down by the seaside etc..
Am
G
F G
Am
G
F G
|-5------------3----------------|-1--3-|-5------------3-------------|--1--3|-5------------3----------------|-1--3-|-5------------3-------------|--1--3|-5------------4----------------|-2--4-|-5------------4-------------|--2--4|-7------------5----------------|-3--5-|-7------------5-------------|--3--5|-7------------5----------------|-3--5-|-7------------5-------------|--3--5|-5------------3----------------|-1--4-|-5------------3-------------|--1--4And as we
wind on down the road
Our shadows taller than our soul
Am
G
F G
Am
G
|-5------------3-------------|-1--3--|-5------------3----------|
|-5------------3-------------|-1--3--|-5------------3----------|
|-5------------4-------------|-2--4--|-5------------4----------|
|-7------------5-------------|-3--5--|-7------------5----------|

Tablature.host.sk

Pagina 129 di 182

|-7------------5-------------|-3--5--|-7------------5----------|
|-5------------3-------------|-1--4--|-5------------3----------|
there walks a lady we all know
who shines w' light and to
F
G
Am
G
--1-----------------------3--|--------------------------------1-----------------------3--|--------------------------------2-----------------------4--|--------------------------------3-----------------------5--|--------------------------------3----------3--5h7--5--3-5--|--------------------------------1----1-3h5--------------3--|-5---5--------3--3------------show
how everything still turns to
Am
G
F G
Am
G
|---------------------5------------3-------------|-1--3--|-5------3---------|---------------------5------------3-------------|-1--3--|-5------3---------|---------------------5------------4-------------|-2--4--|-5------4---------|---------------------7------------5-------------|-3--5--|-7------5---------|-------3--5h7--5--3--7------------5-------------|-3--5--|-7------5---------|-1-3h5---------------5------------3-------------|-1--4--|-5-5----3--3------gold
and if you listen very hard the tune will
come to u at

F
G
Am
G
F
|--1------------------------|----------0-|---0-0-0-0----|--1------------------------|----------1-|---1-1-1-1----|--2------------------------|----------2-|---2-2-2-2----|--3------------------------|----------3-|---3-3-3-3----|--3----------3--5h7--5--3--|------------|--------------|--1----1-3h5---------------|-5-5--3-3-1-|-1----------5-5
last
when
all __ yeah
Am
G
Fmaj7
Am
Am7/G
Fmaj7
|-----------0-|-0-0-0-0------|--------8-10-----|------------------------|-----------1-|-1-1-1-0------|-8/10--------10--|--8h10p10----------3-3--|-----------2-|-2-2-2-0------|-----------------|-----------------5b7-2--|-----------3-|-3-3-3-0------|-----------------|---------------------3--|-------------|--------------|-----------------|------------------------|-5-5--3-3--1-|--------------|-----------------|------------------------to be a rock roll__

Am
Am7/G
Fmaj7
Am
Am7/G
----------------------0--|-------------------|---------------------------5-------8------10-3--|-----13-------12---|-----13------12------13--7b9----10b12--12b14-0--|--15b17----14b16---|--15b17---14b16---15b17__
----------------------0--|-------------------|-------------------------------------------------|-------------------|-------------------------------------------------|-------------------|------------------------Fmaj7
|----------------------------------------|-13------12-------13------15-------------__17---14b16----15b17---17b19-------------|----------------------------------------|-----------------------------------------|------------------------------------------

slow
Am
Am7/G
Fmaj7
----------------------|-0------------------------------------------------13------12-----15-|-1----13---------------------------------------15b17---14b16--17b19-|-2-15b17------------------------------------------------------------|-3------------------------------------------------------------------|-----------------------------------------------

Tablature.host.sk

Pagina 130 di 182

----------------------|----------------------------------------------And shes buying a stairway to heaven


@SONG: Stairway To Heaven

There's a lady who's sure


All that glitters is gold
And she's buying a stairway to heaven.
When she gets there she knows
If the stores are all closed
With a word she can get what she came for.
Ooh, ooh, and she's buying a stairway to heaven.
There's a sign on the wall
But she wants to be sure
'Cause you know sometimes words have two meanings.
In a tree by the brook
There's a songbird who sings,
Sometimes all of our thoughts are misgiven.
Ooh, it makes me wonder,
Ooh, it makes me wonder.
There's a feeling I get
When I look to the west,
And my spirit is crying for leaving.
In my thoughts I have seen
Rings of smoke through the trees,
And the voices of those who standing looking.
Ooh, it makes me wonder,
Ooh, it really makes me wonder.
And it's whispered that soon
If we all call the tune
Then the piper will lead us to reason.
And a new day will dawn
For those who stand long
And the forests will echo with laughter.
If there's a bustle in your hedgerow
Don't be alarmed now,
It's just a spring clean for the May queen.
Yes, there are two paths you can go by
But in the long run
There's still time to change the road you're on.
And it makes me wonder.
Your head is humming and it won't go
In case you don't know,
The piper's calling you to join him,
Dear lady, can you hear the wind blow,
And did you know
Your stairway lies on the whispering wind.
And as we wind on down the road
Our shadows taller than our soul.
There walks a lady we all know
Who shines white light and wants to show
How ev'rything still turns to gold.
And if you listen very hard
The tune will come to you at last.
When all are one and one is all
To be a rock and not to roll.
And she's buying a stairway to heaven.

Tablature.host.sk

Pagina 131 di 182

From: stinky10@aol.com (Stinky10)


Subject: TAB:Tangerine
Here is another slightly different version of "Tangerine", by Led
Zeppelin.
Jimmy uses a 12 string so it's sounds slightly different if
you're using a 6.
Key:
^
r
[

bend
release
] harmonics

|o--------o|
|o--------o|
/ y
slide

repeat

Tune down 1/4 step.


Verse:
|----------------------------------------3----3-----------2---2-|------1------3------1-----0----------0----0-----0----3---3-|o----2------2------2-----2----------0----0-----0----2---2-|o----2------2------2-----2----------0----0-----0----0---0-|------0------0------0-----0----------2----2------------------|----------------------------------------3----3-------------------

___1st ending
|-------2-----2-----|
|-------3-----3-----|
|-------2-----2----o|
|--0---0-----0----o|
|---------------------|
|---------------------|

___2nd ending
|--0---0------0---0-----------------------------------------|--1---1------1---1--------------------1----------------3--|--0---0------0---0---------------0-----------------0------|--2---2------2---2----------2-----------------0-----------|--3---3------3---3-----3------------------2------------------------------------------------------------------------------|---0------0---0-----------------------------2---2--|---1------1--1-------5--5-----3--3-------3---3---|---2------2--2-------5--5-----4--4-------2---2---|---2------2--2-------5--5-----5--5-------0---0---|---0------0--0----------------------------------------|---------------------------------------------------------

|---------2-------2--2----3----2---------2|---------3-------3--3----3----3----0---3|---------2-------2--2----2----2----0---2|---------0-------0--0----0----0----0---0|---------------------------------------------|----------------------------------------------

Refrain:
_____1, 2, 3 endings
|----0--0---0----2--2--2-----|------3-----3-------3---3----2--2--2-|----1--1---1----3--3--3-----|------3-----3-------3---3----3--3--3-|----0--0---0----2--2--2-----|o----0-----0-------0---0----2--2--2-|----2--2---2----0--0--0-----|o----0-----0-------0---0----0--0--0-|----3--3---3------------------|------2-----2-------2---2--------------|--------------------------------|------3-----3-------3---3---------------

Tablature.host.sk

Pagina 132 di 182

|---0---------0----------0---0---0----2---2---2------|
|---1---------1----------1---1---1----3---3---3------|
|---0---------0----------0---0---0----2---2---2----o|
|---2---------2----------2---2---2----0---0---0----o|
|---3---------3----------3---3---3---------------------|
|---3---------3------------------------------------------|
_______4th ending
|--3--3-----3--3-----3---3-----2---------2-------2-|--0--0-----0--0-----0---0-----3---------3-------3-|--0--0-----0--0-----0---0-----2---------2-------2-|--0--0-----0--0-----0---0-----0-----3--0----3--0|--2--2-----2--2-----2---2---------------------------|--3--3-----3--3-----3---3----------------------------

Solo Rhythm:
|Am

|G

(Listen to CD)
|D

|F

|E

|E

then:
|---0------0-------0---0------3---3---3-------3---|---1------1-------1---1------0---0---0-------0---|---0------0-------0---0------0---0---0-------0---|---2------2-------2---2------0---0---0-------0---|---3------3-------3---3------2---2---2-------2---|--------------------------------3---3---3-------3----

|------2-----------------------|------3-----------3--------3-|------2-----------2--------2-|------0-------3--0----3---0-|--------------------------------|---------------------------------

Refrain
Outro:
___________7 times
______4 times
|-----2---2---2-----------------|----2---2---2-----2---2----3----2------|
|-----3---3---3-----------------|----3---3---3-----3---3----3----3------|
|o---2---2---2---------------o|o---2---2---2-----2---2----2----2----o|
|o---0---0---0---------------o|o---0---0---0-----0---0----0----0----o|
|---------------------------------|-------------------------------------------|
|---------------------------------|-------------------------------------------|

|-------------3----------------------------------------------|----0-------1--------------1------------------------------|----0-------2--------------0-------------------1----3----|----0-------2--------------2-------------------0---------|-------------0------------------------------0--------------|----------------------------------------3--------------------

Tablature.host.sk

Pagina 133 di 182

|------------------------------------------------------------|---------------------------------------------------0----1--|---0--0--0---------------------0---0------2-------------|---0--0--0--0-----------------0---0------3-------------|--------------------------2--------------------------------|-------------------------------------------------------------

|-------3--3---3---3-----------------3---3---3---3--|-------1---1---1---1----------------1---1---1---1--|-------2---2---2---2----------------2---2---2---2--|-------3---3---3---3-----3---------3---3---3---3--|---------------------------------------------------------|----------------------------------------------------------

|--------------------------------------------------------------|----1----------0------------------------------------[12]---|----0----------0-----0----------------------0-----[12]----|----0----------0----------------------0------------[12]----|----2----------2---------------------------------------------|----3----------3----------------3---------------------------

Solo (over Solo Rhythm):


full
full
full
|-------------------------------------------------|-----10--------13-----------15---^----15---|-----12^-------15^----------------------------|-------------------------------------------------|------------------------------------------------|------------------------------------------------1/2 1/2
full
|------------------------------------------------------------------|-----r12^---------r13----12-------12---12------13 / 15|------------------------------------------------------------------|------------------------------------------------------------------|------------------------------------------------------------------|-------------------------------------------------------------------

full
full
full
full
|-----------------------------------------------------15^---15----17^|-------------------12--12-----13 / 15-----------------------------|-------r14^------------------------------------------------------------|------------------------------------------------------------------------|------------------------------------------------------------------------|-------------------------------------------------------------------------

full
full
1/2
full
|-17^---17^----17---17-------19-^-------20--20^-----|--------------------------------------------------------------|--------------------------------------------------------------|--------------------------------------------------------------|--------------------------------------------------------------|---------------------------------------------------------------

Tablature.host.sk

Pagina 134 di 182

From: jmarks@ramlink.net (John Marks)

Tangerine - Led Zep III


--------------3--3--2--2--2-----2-------------3--3--2--2--(2)---1--3--1--0--0--0--3--3--3--3--3--1--3--1--0-0--0--3--3--(3)---2--2--2--2--0--0--2--2--2-----2--2--2--2--2-0--0--2--2--(2)---2--2--2--2--0--0-----------------2--2--2--2-0--0--------------0-----------2--2-----------------0----------2--2--------------------------3--3----------------------------3--3-------------

--------------------------------------------------3--3--2--2----1--1-----1---------------------------1----1--1--0--0--3--3----0--0-----0-----------0-----------0---2----2--2--0--0--2--2----2--2--2--------2--2--------0--0------2----2--2--0--0----------3--3--3-----3------------2-----------0----0--0--2--2----------------------------------------------------------3--3---------

---2--2--2----3--2---0-----2-------3--3--3----3--3---3-----3-------2--2--2----2--2---2-----2-----------------------------------------------------------------------------------------------------

Repeat then strum Am,Am,Am,...D,D,D,...G,G ("tangerine...")

John Marks - Huntington, WV


jmarks@ramlink,net

Tablature.host.sk

Pagina 135 di 182

Tea For One ---- 3/4 blues in Cm

8 bars of Cm
8 bars of Fm
8 bars of Cm
4 bars of Gm (first bar is actually 2 beats of Fm and one beat of Gm)
2 bars of Fm
2 bars of Bb
back to Cm
--3----1----3----6---------4----1----3----6---------5----1----3----7---------5----3----5----8---------3----3----5----8--------------1----3----6-------Cm
Fm
Gm
Bb

------------------------------------6--(4)------------------------------------------------5s7---7s5---------------------------------------------------------------------------riff played over Cm every so often


...let notes ring (that F has to go back down to Eb)
----------------------------------------------------------------3--(1)------------------------------------------------3s5---5s3-----------------------------------------------same riff played over Fm

---6--8--10--10--8h10p8--------------------------------------7--8--10--10--8h10p8---------------------------------------------------------------------------------------------Bb
Cm
riff played at the end of each verse

Every so often a verse is played like this:


------------------------------------------------------------------------------3--5-----3--5----3--5-----------------3--5-----3--5----------3--5---------- Play twice
--1--3-----1--3----------------6---------------------------------------------

------------------------------------------------------------------------------8--10----8--10---3--5-----------------8--10----8--10---------3--5-----------6---8----6---8---------------6---------------------------------------------

Tablature.host.sk

Play once, then the above bit

Pagina 136 di 182

---------------4-------4--------------6-----6--8--10--10--8h10p8--------------6---6-------6----------6---6-----------------------------------5-------5-------5------7---------7--8--10--10--8h10p8---3--5---3-----------3-------3--8----------------------------------3--5-------------------------------------------------------------1--3-----------------------------------------------------------This is an arpeggio bit


This is the familiar riff ...
similar to what Pagey
plays each time through

Thanks to the original poster.


Peace,
Paul Z

Tablature.host.sk

Pagina 137 di 182

Ten Years Gone from Physical Graffitti


Words and Music by Jimmy Page and Robert Plant
Transcribed by Ted DaCosta

Page uses Drop D tuning for this song (low E tuned down from E to D)
You don't have to but Ive tabbed everything for this tuning.
First I'll provide the basic parts to the song and then provide instruction
on how to string them together. Sorry about the unorthodox approach but
this song is a tough one to type in. I read an article about how this
song was painfully pieced together by the band from a number of ideas
that Page had developed. With all the changes its evident there are mini
songs within the song. Check out the great rhythym guitar behind the
solos.
I strongly recommend listening to the recording to get the right timing for
all the parts. I really didn't double check the tab, so if it
doesn't sound right it probably isn't. By the way Page sure wrote some
great songs. I'll try to post more Zeppelin if people are interested.
Part 1: (played 2 times)
let ring
>>>>>>>>
>>>>>
e------------------|-------------------|----------0--------|----------------B-----2--0---0--3--|---3---------3-----|-------2-------0-3-|-3-3-3----------G-----2----2----2--|---2-------2---2---|-2-----2-----2---2-|-2----2---------D-----2---------3--|---3-----3-------3-|-2-----2---------3-|-3-----3--------A--0--0---------0--|---0--0------------|-0--0--0---------0-|-0--------------E------------------|-------------------|-------------------|----------------Part 2:
x = mute strings
e----------------------------------|-7-7-7-7-x-x----------------------------B--2--2--x(2)--x(2)--1-1-x(1)-x(1)-|-8-8-8-8-x-x-7-7-7-7-7-5----------------G--2--2--x(2)--x(2)--2-2-x(2)-x(1)-|-9-9-9-9-x-x-6-6-6-6-6-4----------------D--2--2--x(2)--x(2)--1-1-x(2)-x(1)-|-9-9-9-9-x-x-7-7-7-7-7-5----------------A--0--0----------------------------|----------------------------------------E----------------------------------|----------------------------------------Part 3: heavy guitar sound with distortion (remember drop D tuning)
Page overdubs to get that wall of sound here. I think a sitar was also
overdubbed.
lead in riff
e------------------------------|--------------------|----------------------B------------------------------|---0----------------|---------2------------G-----------------------2--4-2-|-4-4-4--6-2---2-4-2-|-2-2-2-4-2--2-4-2-----D-----------2-3-2-------2--2-2-|-5-5-5--5-4---4-4-4-|-3-3-3-3-2--2-2-2-----A------0-3----------0----------|------------0-------|-----------0----------E--2-3-------------------------|--------------------|-----------------------

e--------------------|----------------------B---0----------------|---------2------------G-4-4-4--6-2---2-4-2-|-2-2-2-4-2--2-4-2-----D-5-5-5--5-4---4-4-4-|-3-3-3-3-2--2-2-2-----A------------0-------|-----------0----------E--------------------|-----------------------

Tablature.host.sk

Pagina 138 di 182

e--------------------|----------------------B---0----------------|---------2------------G-4-4-4--6-2---2-4-2-|-2-2-2-4-2--2-4-2-----D-5-5-5--5-4---4-4-4-|-3-3-3-3-2--2-2-2-----A------------0-------|-----------0----------E--------------------|----------------------* heavy part ends leads into Part 1


e--------------------|----------------------|------------------------------B---0----------------|-------0-2---0---0-3--|--------3---------------------G-4-4-4--6-2---2-4-2-|-2-2-2---2-----2---2--|------2---2-------------------D-5-5-5--5-4---4-4-4-|-3-3-3---2---------3--|----3-------3-----------------A------------0-------|-------------------0--|--0---------------------------E--------------------|----------------------|------------------------------Part 4:
Dmaj7
C/G G
e----------------------|----------------------------------------------------B--5--7-7-7-7--7-7--5--|--5--3--5--3--3-3--3-3-3-3--------------------------G--4--6-6-6-6--6-6--4--|--5--4--5--4--4-4--4-4-4-4--------------------------D--5--7-7-7-7--7-7--5--|--5--5--5--5--5-5--5-5-5-5--------------------------A----------------------|----------------------------------------------------E----------------------|----------------------------------------------------Em7
>>>>> Dmaj7
e-0--0-0-0-0-0-0-0-0-|-0-2--2--2--|-----------------------------------------B-5--5-5-5-5-5-5-5-3-|-3-2--2--2--|--5-7-7-7-7--7-7-7-7---------------------G-4--4-4-4-4-4-4-4-4-|-4-2--2--2--|--4-6-6-6-6--6-6-6-6---------------------D-5--5-5-5-5-5-5-5-5-|-5-4--0--0--|--5-7-7-7-7--7-7-7-7---------------------A--------------------|------------|-----------------------------------------E--------------------|------------|----------------------------------------->>>>>
C/G
G
Em9
Dmaj7
e--------------------|-----------0-0-------------|----2---------------------B--5--5--5--3--------|--0-0-3-3--3-3--3-3--3--0--|-0--2---------------------G--5--5--5--4--4--4--|--0-0-0-0--0-0--0-0--0--0--|-0--2---------------------D--5--5--5--5--5--5--|--4-4-4-4-------4-4--4-----|-------2--2---------------A--------------------|---------------------------|-------0--0---------------E--------------------|---------------------------|--------------------------e-0--2--2--0--|----------------|------------------------0-|0----------------B-0--2--2--0--|-5--5-5-3--3--3-|-0-0--0-0--0-0--0-0-0-0-3-|3---7--7----------G-0--2--2--0--|-5--5-5-4--4--4-|-0-0--0-0--0-0--0-0-0-0-4-|4---6--6----------D-------------|-5--5-5-5--5--5-|-4-4--4-4--4-4--4-4-4-4-5-|5---7--7----------A-------------|----------------|--------------------------|-----------------E---------------------------------------------------------|------------------

Dmaj7
e----------------------|
B--5--7-7-7-7--7-7--7--|
G--4--6-6-6-6--6-6--6--|
D--5--7-7-7-7--7-7--7--|
A----------------------|
E----------------------|
distorted
C/G
G
Em9
(remember drop d)
e--------------------|-----------0-0-------------|--------------------------B--5--5--5--3--------|--0-0-3-3--3-3--3-3--3--5--|-5--7--7-7----------------G--5--5--5--4--4--4--|--0-0-0-0--0-0--0-0--0--4--|-4--6--6-6----------------D--5--5--5--5--5--5--|--4-4-4-4-------4-4--4--5--|-5--7--7-7----------------A--------------------|---------------------------|------------5-7-7-9-9-7---E--------------------|---------------------------|------------5-7-7-9-9-7----

Tablature.host.sk

Pagina 139 di 182

Part 5:
e-------------------|-0---------------|
B-------------------|-0---------------|
G-------------------|-2---------------|
D-------------5-5---|-4---------------|
A-7-5-5-5-5-5-5-5-0-|----0-0-5-7-9-9-7|
E-7-5-5-5-5-5-5-5-0-|----0-0-5-7-9-9-7|

Repeat 2 more times and then

e---------------------|
B---------------------|
G---------------------|
D---------------------|
A-7-5-5-5-5-5-5-5-5-7-|
E-7-5-5-5-5-5-5-5-5-7-|
Part 6:
e----------0-|-0--5-5-5-5-5-5-5-0-|-0-0-0-0-0-0-0-0-0-0|-0------------------B-----9-9--7-|-7--7-7-7-7-7-7-7-7-|-7-7-7-7-7-7-7-7-7-0|-0------------------G-----9-9--6-|-6--6-6-6-6-6-6-6-7-|-7-7-7-7-7-7-7-7-7-0|-0--0--0--0---------D-----7-7--7-|-7--7-7-7-7-7-7-7-5-|-5-5-5-5-5-5-5-5-5-2|-2------------------A-7----------|------------------5-|-5-5-5-5-5-5-5-5-5-3|-3------------------E-7----------|------------------5-|-5-5-5-5-5-5-5-5-5--|---------------------

e-4-0-0-0-0-0-0-0--|-0--0--0--0--0--9--7-|-7-7-7-7-7-7-7-0------------------B-5-5-5-5-5-5-5-10-|-10-10-10-10-10-10-7-|-7-7-7-7-7-7-7-0------------------G-6-6-6-6-6-6-6-11-|-11-11-11-11-11-11-7-|-7-7-7-7-7-7-7-0------------------D-6-6-6-6-6-6-6-12-|-12-12-12-12-12-12-5-|-5-5-5-5-5-5-5--------------------A------------------|-------------------5-|-5-5-5-5-5-5-5--------------------E------------------|-------------------5---5-5-5-5-5-5-5---------------------

Intro:
[ Guitar : Part 1 ]
[ Guitar : Part 2 ]
[ Guitar : Part 3 ]
Verse:
[ Guitar : Part 1 ]
Think as it was, then again it will be.
Though the course may change sometimes, rivers always reach the sea.
[ Guitar : Part 2

(no vocals) ]

[ Guitar : Part 3 (vocals start in second measure) ]


Blind spies of fortune, each has several ways
on the wings of maybe, downing birds of prey.
Kind of makes me feel sometime I didn't have to grow.
For as a eagle leaves a nest, I got so far to go.

[ Guitar : Part 1 ]
Changes fill my time, baby thats all right with me,
in the midst I think of you and how it used to be.

Tablature.host.sk

Pagina 140 di 182

[ Guitar : Part 2 ]
[ Guitar : Part 4 ] played behind solo 1, leads into Part 5 with vocals
[ Guitar : Part 5 ]
Did you ever really need somebody and really need'em bad
Did You ever really want somebody the best stuff you ever had
Will you ever remember me baby, did it feel so good
Cause it was just the first time and you knew you would
[ Guitar : Part 6] played behind solo 2.
[ Guitar : Part 3]
Do the eyes not sparkle, senses go again
tasting love along the way, see a feather spring
Gonna make you a meal sometime, it'll help you know
We are eagles all one loves, the message in our soul
[ Guitar : Part 1 ]
Fixin in my dreams with great surprise to me
I never thought I'd see your face, the way it used to be
[ Guitar : Part 2 ]
Oh darling, Oh darlin.
[ Guitar : Part 3 ]

Repeat and fade etc.

Note on the outro Page overdubs a riff similar to Part 3 but played
with only single notes (no double stops) in the 10th position. Listen
to the recording.

Tablature.host.sk

Pagina 141 di 182

THANK YOU
by LED ZEPPELIN
from Led Zeppelin III
tabbed by Jay Reeves
Riff A
| 1 e & a 2 e & a 3 e & a 4 e & a | 1 e & a 2 e & a 3 e & a 4 e & a |
======================================================================
|---------3-2-0-0-2-----2-0---2---|----------3-2-0-0-2-----2-0---2---|
|---------3-3-3-3-3-----3-3---3---|--------3-3-3-3-3-3-----3-3---3---|
|-----2---2-2-2-2-2-----2-2---2---|------0---0-0-0-0-0-----0-0---0---|
|-0-------------------------------|----------------------------------|
|---------------------------------|2h3-------------------------------|
|---------------------------------|----------------------------------|
| 1 e & a 2 e & a 3 e & a 4 e & a | 1 e & a 2 e & a 3 e & a 4 e & a |
=====================================================================
|---------3-2-0-0-2-----2-0---2---|---------2-------2-2---3(3)3-3-3-|
|---------3-3-3-3-3-----3-3---3---|---------3-------3-3---3(3)3-3-3-|
|-------0-0-0-0-0-0-----0-0---0---|-2-------2-------2-2---2(2)2-2-2-|
|-----0---------------------------|-0-------------------------------|
|-0h2-----------------------------|---------------------------------|
|---------------------------------|---------------------------------|
end of riff A
Repeat first 3 measures
of the section above and
then proceed below.
| 1 e & a 2 e & a 3 e & a 4 e & a | 1 e & a 2 e & a 3 e & a 4 e & a |
=====================================================================
|---------2--(2)-(2)2-2-3(3)3-3---|-2--(2)-(2)-(2)-(2)-(2)-(2)-(2)--|
|---------3--(3)-(3)3-3-3(3)3-3---|-3--(3)-(3)-(3)-(3)-(3)-(3)-(3)--|
|-2-------2--(2)-(2)2-2-2(2)2-2---|-2--(2)-(2)-(2)-(2)-(2)-(2)-(2)--|
|-0-------------------------------|-0--(0)-(0)-(0)-(0)-(0)-(0)-(0)--|
|---------------------------------|---------------------------------|
|---------------------------------|---------------------------------|
Rest for the next 4 measures

| 1 e & a 2 e & a 3 e & a 4 e & a | 1 e & a 2 e & a 3 e & a 4 e & a |


=====================================================================
|-----------------3-------3-------|-----------------3-------3-------|
|-------------3---------------3---|-------------3-------3-------3---|
|---------0-----------------------|---------0-----------------------|
|-----2---------------2-----------|-----0---------------------------|
|-3-------------------------------|-0h2-----------------------------|
|---------------------------------|---------------------------------|
| 1 e & a 2 e & a 3 e & a 4 e & a | 1 e & a 2 e & a 3 e & a 4 e & a |
=====================================================================
|-------------2---3---2-----------|-2-----2-2-----2-2-----2-2---2-2-|
|---------3---------------3-------|-3-----3-3-----3-3-----3-3---3-3-|
|-----2-----------------------2---|-2-----2-2-----2-2-----2-2---2-2-|
|-0-------------------------------|-0-----0-0-----0-0-----0-0---0-0-|
|---------------------------------|---------------------------------|
|---------------------------------|---------------------------------|
| 1 e & a 2 e & a 3 e & a 4 e & a | 1 e & a 2 e & a 3 e & a 4 e & a |
=====================================================================
|-2---2---2---2---2---2---2-------|-7---7---7--(7)7-7---7---7---0---|
|-3---3---3---3---3---3---3-------|-9---9---9--(9)9-9---9---9---0---|
|-4---4---4---4---4---4---4-------|-9---9---9--(9)9-9---9---9---0---|
|-4---4---4---4---4---4---4-------|-9---9---9--(9)9-9---9---9---0---|
|---------------------------------|---------------------------------|
|---------------------------------|---------------------------------|

Tablature.host.sk

Pagina 142 di 182

| 1 e & a 2 e & a 3 e & a 4 e & a | 1 e & a 2 e & a 3 e & a 4 e & a |


=====================================================================
|-2---2---2-----2-2-------2-------|-7---R---0--(0)-(0)-(0)--R-------|
|-3---3---3-----3-3-------3-------|-9---R---2--(2)-(2)-(2)--R-------|
|-4---4---4-----4-4-------4-----9-|-9---R---2--(2)-(2)-(2)--R-------|
|-4---4---4-----4-4-------4-----9-|-9---R---2--(2)-(2)-(2)--R-------|
|---------------------------------|---------------------------------|
|---------------------------------|---------------------------------|
| 1 e & a 2 e & a 3 e & a 4 e & a | 1 e & a 2 e & a 3 e & a 4 e & a |
=====================================================================
|-0---0---0---0---0---0---0---0---|-3---3---3---3---3---3---3---3-3-|
|-1---1---1---1---1---1---1---1---|-3---3---3---3---3---3---3---3-3-|
|-0---0---0---0---0---0---0---0---|-0---0---0---0---0---0---0---0-0-|
|-2---2---2---2---2---2---2---2---|-0---0---0---0---0---0---0---0-0-|
|-3---3---3---3---3---3---3---3---|-2---2---2---2---2---2---2---2-2-|
|---------------------------------|---------------------------------|
| 1 e & a 2 e & a 3 e & a 4 e & a | 1 e & a 2 e & a 3 e & a 4 e & a |
=====================================================================
|-2---2---2---2---3-3-3---3-3-3-3-|-2-------2-----2-2-2-2---2-2-2---|
|-3---3---3---3---3-3-3---3-3-3-3-|-3-------3-----3-3-3-3---3-3-3---|
|-2---2---2---2---2-2-2---2-2-2-2-|-2-------2-----2-2-2-2---2-2-2---|
|-0---0---0---0---0-0-0---0-0-0-0-|-0-------0-----0-0-0-0---0-0-0---|
|---------------------------------|---------------------------------|
|---------------------------------|---------------------------------|
| 1 e & a 2 e & a 3 e & a 4 e & a | 1 e & a 2 e & a 3 e & a 4 e & a |
=====================================================================
|-0---0-0-0---0-0-0---0-0-0---0-0-|-3---3-3-3-----3-3-----3-3-----3-|
|-1---1-1-1---1-1-1---1-1-1---1-1-|-0---0-0-0-----0-0-----0-0-----0-|
|-0---0-0-0---0-0-0---0-0-0---0-0-|-0---0-0-0-----0-0-----0-0-----0-|
|-2---2-2-2---2-2-2---2-2-2---2-2-|-0---0-0-0-----0-0-----0-0-----0-|
|-3---3-3-3---3-3-3---3-3-3---3-3-|-2---2-2-2-----2-2-----2-2-----2-|
|---------------------------------|---------------------------------|
| 1 e & a 2 e & a 3 e & a 4 e & a | 1 e & a 2 e & a 3 e & a 4 e & a |
=====================================================================
|-2---2-2-2---2-2-3-3-3---3-3-3-3-|-2---2-2-2---2-2-2-2-2---2-2-2-2-|
|-3---3-3-3---3-3-3-3-3---3-3-3-3-|-3---3-3-3---3-3-3-3-3---3-3-3-3-|
|-2---2-2-2---2-2-2-2-2---2-2-2-2-|-2---2-2-2---2-2-2-2-2---2-2-2-2-|
|-0---0-0-0---0-0-0-0-0---0-0-0-0-|-0---0-0-0---0-0-0-0-0---0-0-0-0-|
|---------------------------------|---------------------------------|
|---------------------------------|---------------------------------|
| 1 e & a 2 e & a 3 e & a 4 e & a | 1 e & a 2 e & a 3 e & a 4 e & a |
=====================================================================
|-2---2-2-2---2-2-2---2---2---2---|-7---7---7--(7)7-7-----7-7---7---|
|-3---3-3-3---3-3-3---3---3---3---|-9---9---9--(9)9-9-----9-9---9---|
|-4---4-4-4---4-4-4---4---4---4---|-9---9---9--(9)9-9-----9-9---9---|
|-4---4-4-4---4-4-4---4---4---4---|-9---9---9--(9)9-9-----9-9---9---|
|---------------------------------|---------------------------------|
|---------------------------------|---------------------------------|
| 1 e & a 2 e & a 3 e & a 4 e & a | 1 e & a 2 e & a 3 e & a 4 e & a |
=====================================================================
|-2-----2-2---2---2-----2-2-------|-7---R---0--(0)-(0)-(0)--R-------|
|-3-----3-3---3---3-----3-3-------|-9---R---2--(2)-(2)-(2)--R-------|
|-4-----4-4---4---4-----4-4-----9-|-9---R---2--(2)-(2)-(2)--R-------|
|-4-----4-4---4---4-----4-4-----9-|-9---R---2--(2)-(2)-(2)--R-------|
|---------------------------------|---------------------------------|
|---------------------------------|---------------------------------|

Tablature.host.sk

Pagina 143 di 182

| 1 e & a 2 e & a 3 e & a 4 e & a | 1 e & a 2 e & a 3 e & a 4 e & a |


=====================================================================
|---------3-2-0-0-2-----2-0---2---|---------3-2-0-0-2-----2-0---2---|
|---------3-3-3-3-3-----3-3---3---|---------3-3-3-3-3-----3-3---3---|
|---------2-2-2-2-2-----2-2---2---|-----0---0-0-0-0-0-----0-0---0---|
|-0-------------------------------|-3-------------------------------|
|---------------------------------|---------------------------------|
|---------------------------------|---------------------------------|
| 1 e & a 2 e & a 3 e & a 4 e & a |
===================================
|---------3-2-0-0-2-----2-0---2---|
|---------3-3-3-3-3-----3-3---3---|
|-------0-0-0-0-0-0-----0-0---0---|
|-----0---------------------------|
|-0h2-----------------------------|
|---------------------------------|

Solo starts here (transcribed below),


Continue with rythym work by repeating
Riff A thru solo.

Acoustic solo:
| 1 e & a 2 e & a 3 e & a 4 e & a | 1 e & a 2 e & a 3 e & a 4 e & a |
=====================================================================
|---------------------------------|-------7-------------------------|
|---------------------------------|-7-8-10-10-8-7---7-----------7-8-|
|---------------------4-6-7---7-9-|---------------9---9-7-6-7-9-----|
|-7--(7)-(7)--4-5-7---------------|---------------------------------|
|---------------------------------|---------------------------------|
|---------------------------------|---------------------------------|
| 1 e & a 2 e & a 3 e & a 4 e & a | 1 e & a 2 e & a 3 e & a 4 e & a |
============================================================================
|-----7---------------------------7-|---------5-7-----------5-7---5--------|
|(8)----10-10-8-8--(8)--7-8-10------|----5h7h8---------5h7h8-------8-7---8-|
|-----------------------------------|-6h7-----------6h7--------------------|
|-----------------------------------|--------------------------------------|
|-----------------------------------|--------------------------------------|
|-----------------------------------|--------------------------------------|
| 1 e & a 2 e & a 3 e & a 4 e & a | 1 e & a 2 e & a 3 e & a 4 e & a |
=========================================================================
|-------------------------------------|---------------------------------|
|---8-8-8-7-7-7-----------------------|---------------------------------|
|---------------------------------7-R-|-7--(7)--7-6-7-6-4-6---4---------|
|---------------------------7-9-------|-0--(0)--------------7---5-7-4-5-|
|-------------------------------------|---------------------------------|
|-------------------------------------|---------------------------------|
| 1 e & a 2 e & a 3 e & a 4 e & a | 1 e & a 2 e & a 3 e & a 4 e & a |
=====================================================================
|---------------------------------|-------------------7-5-----------|
|---------------------------------|-------------5-7-8-----8-7-5-7-8-|
|---------------------------------|-------4-6-7---------------------|
|-5---4-------------------4-5-7---|-----7---------------------------|
|---7---7-5--(5)--5-4-5-7---------|---------------------------------|
|---------------------------------|---------------------------------|
| 1 e & a 2 e & a 3 e & a 4 e & a | 1 e & a 2 e & a 3 e & a 4 e & a |
=====================================================================
|---------------------------------|-3------(3)-----(3)-----(3)------|
|-8-7-7---7-------8-7-7---8-7-7---|-3------(3)-----(3)-----(3)------|
|---------------------------------|-2------(2)-----(2)-----(2)------|
|---------------------------------|---------------------------------|
|---------------------------------|---------------------------------|
|---------------------------------|---------------------------------|

Tablature.host.sk

Pagina 144 di 182

Rest for the next 3 measures


| 1 e & a 2 e & a 3 e & a 4 e & a | 1 e & a 2 e & a 3 e & a 4 e & a |
=====================================================================
|-----5p0-2p0---------------------|---------------------------------|
|-------------------3-------------|-------------1-------1-----------|
|---------------2/4---4\2---------|---------0-------0---------------|
|---------------------------0-----|-----2-------------------2p0---0-|
|-----------------------------2-0-|-3---------------------------3---|
|---------------------------------|---------------------------------|
| 1 e & a 2 e & a 3 e & a 4 e & a | 1 e & a 2 e & a 3 e & a 4 e & a |
=====================================================================
|---------------------------------|-------------0---2-------2---2---|
|-----------------1---------------|---------3-------------------3---|
|-------------0-------2p0---------|-----2---------------2-------2---|
|-2p0-----0---------------2p0-----|-0---------------------------0---|
|-----2-----------------------0h2-|---------------------------------|
|---------------------------------|---------------------------------|
| 1 e & a 2 e & a 3 e & a 4 e & a | 1 e & a 2 e & a 3 e & a 4 e & a |
=====================================================================
|-3---3-3-2---2-2-2-2-2---2-2-2-2-|-2---2-2-2---2-2-2---2---2---2---|
|-3---3-3-3---3-3-3-3-3---3-3-3-3-|-3---3-3-3---3-3-3---3---3---3---|
|-2---2-2-2---2-2-2-2-2---2-2-2-2-|-4---4-4-4---4-4-4---4---4---4---|
|-0---0-0-0---0-0-0-0-0---0-0-0-0-|-4---4-4-4---4-4-4---4---4---4---|
|---------------------------------|---------------------------------|
|---------------------------------|---------------------------------|
| 1 e & a 2 e & a 3 e & a 4 e & a | 1 e & a 2 e & a 3 e & a 4 e & a |
=====================================================================
|-7---7---7-----7-7-----7-7---7---|-2---2---2---2---2---2---2---2---|
|-9---9---9-----9-9-----9-9---9---|-3---3---3---3---3---3---3---3---|
|-9---9---9-----9-9-----9-9---9---|-4---4---4---4---4---4---4---4---|
|-9---9---9-----9-9-----9-9---9---|-4---4---4---4---4---4---4---4---|
|-0---0---0-----0-0-----0-0---0---|---------------------------------|
|---------------------------------|---------------------------------|

| 1 e & a 2 e & a 3 e & a 4 e & a |


===================================
|-7-------0---------------R-------|
|-9-------2---------------R-------|
|-9-----2-2---------------R-------|
|-9-----2-2---------------R-------|
|-0-------------------------------|
|---------------------------------|

Rest for the next 4 measures

| 1 e & a 2 e & a 3 e & a 4 e & a | 1 e & a 2 e & a 3 e & a 4 e & a |


=====================================================================
|-----5-7-5-----------------------|-------------------------3---0---|
|-----------8-7-5-----------------|-------------1-------------------|
|-----------------2-4-2-----------|---------0-----------------------|
|-----------------------5-4-2---0-|-----2---------------------------|
|-----------------------------3---|-3-------------------------------|
|---------------------------------|---------------------------------|
| 1 e & a 2 e & a 3 e & a 4 e & a | 1 e & a 2 e & a 3 e & a 4 e & a |
=====================================================================
|---------------------------------|---------5---2---3p2-------------|
|---------------------------------|---------------------3---3p0-----|
|---------------------------------|-----2-----------------------2---|
|-----0h2p0-----------0h2p0-------|-0-------------------------------|
|-0h2---------0---0h2---------2---|---------------------------------|
|---------------------------------|---------------------------------|

Tablature.host.sk

Pagina 145 di 182

| 1 e & a 2 e & a 3 e & a 4 e & a | 1 e & a 2 e & a 3 e & a 4 e & a |


=====================================================================
|---------------------------------|---------------------------------|
|---------------------------------|---------------------------------|
|-2p0-----------------------------|---------------------------------|
|-----4---2p0-----0h2p0---0-------|---------------------------------|
|-------------0h2-------2-----2---|-3------(3)-----(3)-----(3)------|
|---------------------------------|---------------------------------|
| 1 e & a 2 e & a 3 e & a 4 e & a | 1 e & a 2 e & a 3 e & a 4 e & a |
=====================================================================
|---------------------------------|---------------------------------||
|---------------------------------|---------------------------------||
|---------------------------------|-2------(2)-----(2)-----(2)------||
|---------------------------------|-0------(0)-----(0)-----(0)------||
|-2------(2)-----(2)-----(2)------|---------------------------------||
|---------------------------------|---------------------------------||

Tab Notes:

--R----X----2/4--4\2--2p0--0h2-(2)-

Tablature.host.sk

=
=
=
=
=
=
=

Rest
Mute string
Slide from 2nd fret up to 4th fret
Slide down
Pull off from 2nd fret to open string
hammer-on from open string to 2nd fret
sustained note

Pagina 146 di 182

That's the Way


from the albumn Led Zeppelin III
by Led Zeppelin

Transcribed by Steve Schablitsky

Key:

^
v

=
=

downstroke
upstroke

Open G tuning

|
|
|
|
|
|

D
B
G
D
G
D

|
|
|
|
|
|

* (If you want you can play the fifth string also)

Riff 1
^ v ^ v ^ ^
v
^ v ^ ^ v ^ v ^ ^
v ^ ^ v ^ v
|--0-0-0-0--2--4---4---4--4----4-4-4-4--2--0---0---2-2-2-0--|
|--0-0-0-0--1--3---3---0--0----3-3-3-3--1--0---0---1-1-1-0--|
|--0-0-0-0--0--0-------0-------0-0-0-0--0--0-------0-0-0-0--|
|--0-0-0-0--2--4-------0-------4-4-4-4--2--0-------2-2-2-0--|
|--*-------------------0----0--------------0-----0----------|
|-----------------------------------------------------------|
Riff 2
^ v ^ ^ ^ ^ ^ v ^ v ^ ^ ^ ^ ^ v
|--3--3-----3-----3--3--3--3--3-----3----3--3--3--|
|--3--3-----3-----3--3--3--3--3-----3----3--3--3--|
|--3--------3-----3--3--3--3--------3----3--3--3--|
|--3-----3--3--3--3--3--3--3-----3--3--3-3--3--3--|
|--*-----0-----0-----------------0-----0----------|
|-------------------------------------------------|
Riff 3A

Riff 3B

^ v ^ ^ ^ ^ ^ v
|--4--4-----4-----4--4--4--|
|--3--3-----3-----3--3--3--|
|--2--------2-----2--2--2--|
|--0-----0--0--0--0--0--0--|
|--0-----0--0--0--0--0--0--|
|--------------------------|

^ v ^ ^ ^ ^ ^ ^
|--4--4-----4--4--0--2--4--|
|--3--3-----3--3--3--3--3--|
|--2--------2--2--2--2--2--|
|--0-----0--0--0--0--0--0--|
|--0-----0--0--0-----------|
|--------------------------|

Riff 4
^ v ^ v ^ ^
^
^ v ^ v ^ v ^ ^
^
^ v
|--3--3--3--3-----3-----3-----3--3--0--0--0--0-----0-----0-----0--0--|
|--1--1--1--1-----1-----1-----1--1--1--1--1--1-----1-----1-----1--1--|

Tablature.host.sk

Pagina 147 di 182

|--2--2--2--2--2--2-----2-----2--2--0--0--0--0--0--0-----0-----0--0--|
|--3--3--3--3--3--3-----3-----3--3--2--2--2--2--2--2-----2-----2--2--|
|--0--0--0--0--0--0-----0-----0--0--0--0--0--0--0--0-----0-----0--0--|
|--------------------------------------------------------------------|
Riff 5
^ ^ v
^ ^ v
^ ^ v
^ ^ v
^ v ^ ^ ^
v ^ v
|--0--0--0----0--0--0----0--0--0----0--0--0----4--4-----4--4---4--4--4--|
|--0--0--0----1--1--1----3--3--3----5--5--5----3--3-----3--3---3--3--3--|
|--0--0--0----0--0--0----0--0--0----0--0--0----2--2-----2--2---2--2--2--|
|--0--0--0----2--2--2----4--4--4----5--5--5----0--0--0--0--0---0--0--0--|
|--0----------0----------0----------0--0--0----0-----0--0--0------------|
|-----------------------------------------------------------------------|
^ ^ ^ ^ ^
v ^ v ^ ^ ^ ^ ^
v ^ v ^ ^ ^ ^ ^
v ^ v
|--2--4--5--4--0---0--0--0--2--4--5--4--0---0--0--0--2--4--5--4--0---0--0--0-|
|--1--3--3--3--3---3--3--3--1--3--3--3--3---3--3--3--1--3--3--3--3---3--3--3-|
|--0--0--0--0--0---0--0--0--0--0--0--0--0---0--0--0--0--0--0--0--0---0--0--0-|
|--2--4--4--4--4---4--4--4--2--4--4--4--4---4--4--4--2--4--4--4--4---4--4--4-|
|--*-------------------------------------------------------------------------|
|----------------------------------------------------------------------------|
^ v ^ ^
^
v ^ v ^ v ^ ^ ^ ^
^ v
|--4--4-----4---4---4-4-4--4--4-----4-----4---4--4--|
|--3--3-----3---3---3-3-3--3--3-----3-----3---3--3--|
|--2-----2--2---2---2-2-2--2-----2--2--2--2---2--2--|
|--0-----0--0---0---0-0-0--0-----0--0--0--0---0--0--|
|--0-----0--0---0----------0-----0--0--0--0---------|
|---------------------------------------------------|

Intro:

Riff 1

2x

Riff 1
I don't know how I'm going to tell you
Riff 1
I can't play with you no more
Riff 1
I don't know how I'm going to do what mama told me
Riff 1
My friend the boy next door
Riff 1

3x

Riff 1
I can't believe what people saying
Riff 1
You only let your hair down
Riff 1
I'm satisfied to sit here working all day long
Riff 1
You're in the darkest side of town
Riff 1

4x

Riff 1
And when I'm out I see you walking
Riff 1
Why don't your eyes see me
Riff 1
Could it be you've found another game to play
Riff 1

Tablature.host.sk

Pagina 148 di 182

What did mama say to me


Riff 2
Riff 1
That's the way
Oh that's the way it ought to be
Riff 2
Riff 3A 2x
Mama said that's the way it ought to stay
Riff 4
Riff 1 1x
Riff 1
And
Riff 1
And
Riff 1
And
Riff 1
Had
Riff 1
Riff 1
And
Riff 1
But
Riff 1
And
Riff 1
And
Riff 1

yesterday I saw you standing by the river


weren't those tears that filled your eyes
all the fish that lay in dirty water dying
they got you hypnotized
4x

yesterday I saw you kissing tiny flowers


all that lives is born to die
so I say to you that nothing really matters
all you do is stand and cry
4x

Riff 1
I don't know what to say about it
Riff 1
When all your ears are turned away
Riff 1
But now's the time to look and look again at what you see
Riff 1
Is that the way it ought to stay
Riff 2
Riff 1
That's the way That's the way it ought to be
Whoa don't you know now
Riff 2
Riff B 3x
Mama said mama said that's the way it's going to stay
Ahh Ahh
Riff 4
Aaaaaaaaaah

Ahhh

Ohhhhhhhhhhhhh

Riff 5 until end

Tablature.host.sk

Pagina 149 di 182

Subject: CRD: Led Zeppelin - The Crunge

This is out of one of "those" books, so take this with a grain of salt:
A9 =
A6 =
D9 =
C#9=
Eb9=
C9 =

xxx12,12,12
xxx14,14,14
xxx555
xxx444
xxx666
xxx333

A6 A9
I wanna tell you 'bout my good thing
D9 C#9 D9 C#9 D9 C39 D9
Eb9 D9
C#9
I ain't disclosin' no names, but
D9
C#9 D9 C#9
D9
C9
C#9 D9
C#9
He sure is a good friend and
D9
C#9
D9 C#9
D9
Eb9
I ain't gonna tell you where he comes from, but
C#9
D9
C#9 D9 C#9
D9 C9 C#9 D9
If I tell yuou, you won't come again
oh
D9
C#9
D9
C#9
I ain't gonna tell you nothin' but
C#9 D9 C#9 D9
A6 A9
A6 A9
I do, well, but I know, yeah

D9
C#9

D9 C#9 D9 C#9 D9 Eb9

Now let me tell you 'bout my girl


I open up a newspaper and what do I see?
Ah, see my girl, ah
Ah, lookin' at me
Ooh, and when she walks, she walks,
Let me tell you
When she talks, she talks
And when she looks me in my eye
She's my baby, Lord, I wanna make her mine
Oh, tell me baby what you want me to do
And you want me to love you
Love some other man
Oo they ain't gonna call me Mister Pitiful No
I don't need no respect from nobody no,
I ain't gonna tell you nothin, I ain't gonna tell you no more,
No she is my baby, let me tell you that I love her so
And, and she's the woman I really wanna love and let me tell you more
Oo, she's my baby, let me tell you she lives
Next door
She's the one a woman, the one a woman that I know
I ain't goin', I ain't goin', I ain't gonna tell.
I ain't goin' tell you one thing that you really ought a know
But - she's my lover baby, and I love her so.
And - she's the one that really makes me whirl and twirl
And - she's the kind of lover that makes me fill the whole world
And - she's the one who really makes me jump and shout
Oh - she's the kind of girl that I know what it's all about
Take it home,
Take it, take it, take it
Ah, excuse me,
Ah, will you excuse me?
I'm just try'n a find the bridge,
Has anybody seen the bridge?
(spoken) Please, have you seen the bridge?

Tablature.host.sk

Pagina 150 di 182

I ain't seen the bridge


Where's that confounded bridge?

I don't know...give it a try,


Brian Richard Ross

Tablature.host.sk

Pagina 151 di 182

The Lemon Song


from the album Led Zeppelin II
by John Paul Jones, Jimmy Page, John Bonham, & Robert Plant

7\
~~
)\
pm

=
=
=
=

slide
vibrato
bend & release
palm muting

X = percussive sound
) = bend
|
12 = hold bend & play

12^14 = hammer on
14^12 = pull off

Even
gliss
~~

With pick and fingers


~~~~~~~~
e|--0--0---0--0---0--0---0-----------------------------------------------------0-0---0--0---0--0---0--------------------------------------------------B|--0--0---0--0---0--0---0------------8-------X-------X------8---------(8)\----0-0---0--0---0--0---0------------8----X----X----8--------12------12--12G|------------------------------------7-------X-------X------7---------(7)\-\-----------------------------------7----X----X----7--------12------12--12D|------------------------------------6-------X-------X------6---------(6)\-\-----------------------------------6----X----X----6----12--12------12--12A|------------------------------------7-------X-------X------7---------(7)\-\-----------------------------------7----X----X----7------------14--------E|--0--0---4--4---5--5---7\-------0-----------------------------------------\--0-0---0--0---0--0---7--------0-----------------------------------------~~~

Let Ring
e|-----------0--0---0--0---0--0---0---------------------------------------------------------------------------0--0---0--------------------------------B|--(12)\----0--0---0--0---0--0---0------------8----X----X----8-----------3-----------------------------------0--0---0------0------8----X----X----8---G|--(12)\--------------------------------------7----X----X----7---0--2^4--------2^4^2^0--------------------------------------------7----X----X----7---D|--(12)\--------------------------------------6----X----X----6-------------------------2^0----------------------------------------6----X----X----6---A|---------------------------------------------7----X----X----7--------------------------------------------------------------------7----X----X----7---E|-----------0--0---4--4---5--5---7-------0-----------------------------------------------------0--0---4--4---5--5---7------0--------------------------

long

1.I should have quit you


time a go

even gliss.
~~~~
~~~~~~
e|-------/-----------------------0--0---0--0---0--0---0---------------------------------------------0--0---0--0---0--0---0---0------------------------B|--(8)/-/-----------------------0--0---0--0---0--0---0---0-----8-----X--------8------------(8)-\---0--0---0--0---0--0---0---0-----8-------X----8-----G|--(7)/-/------------------------------------------------------7-----X--------8------------(8)-\---0--0---0--0---0--0---0---0-----8-------X----8-----D|--(6)/-/------------------------------------------------------6-----X--------6------------(6)-\----------------------------------6-------X----6------

Tablature.host.sk

Pagina 152 di 182

A|--(7)/--------------------------------------------------------7-----X--------7------------(7)-\----------------------------------7-------X----7-----E|-------------------------------0--0---4--4---5--5---7---0-----------------------------------------0--0---4--4---5--5---7---0-------------------------

time

oh
ago

yeah

yeah

long

_
_
~~~~~
~~~~
e|-----------------------------------0--0---0--0---0---------------------|-------\-----------------0--0---0--0---0--0---0---0-------------------------B|-----------------------------------0--0---0--0---0---------------------|-------|-----------------0--0---0--0---0--0---0---0------8----X---X----8----G|-------------------------------------------------------------2-----(2)-|-------|-------------------------------------------------7----X---X----7----D|------------5------------------------------------------------2------2--|---------------------------------------------------------6----X---X----6----A|--5---5^7-------5---5^7-----0--0---4--4---5--5---7-----0-----0------X-/----------------------------------------------------------7----X---X----7----E|--------------------------------------------------------------------3--------------(3)-----------0--0---4--4---5--5---7---0--------------------------

down

on

I wouldn't
this

be

here
my
killin' floor
~~~~~~~

children
~~~~~~~~

- - - - - e|-----------------------------------------------------------------------------------------------------------------------------)----|---|---|---------B|-----------------------------3---------3-------------3------3----------------2^3-----3--2--2----2--------------------------15----15--15--15------12-G|--------------------------------2------------2----------2------2--------0---------0----------------0--2--0--0--0------------------------------------D|-----------------------------------1------------1--------------------------------------------------------------0------------------------------------A|--(6)-------------------------------------------------------------0---------------------------------------------------------------------------------E|---4-----5----6----7---------------------------------------------------------------------------------------------------------------------------------

second

I should have
mind

listend

baby

to my

~~~
~~~
~~~
e|-----------------------------------------------------------------------------0-0---0--0---0--0---0----0----------------------------------/----------B|--12-------------------------------------------------------------------------0-0---0--0---0--0---0----0------8---------8------------(8)/-/----------G|------14--X--12-------------------12-------------------------------------------------------------------------7----0----7------------(7)/-/----------D|-----------------14---12--13--14-------14--12-----------------12---------------------------------------------6-----0---6------------(6)/-/----------A|--------------------------------------------------12--13--14------14--(14)\----------------------------------7---------7------------(7)/------------E|-----------------------------------------------------------------------------0-0---4--4---5--5---7----0----------------------------------------0--0-oh,
I should have listend baby

to my

second

~~~
- ~~~
e|--0--0---0--0---0----0---------------------------------------------------------------0-------0---0--0---0-------------------|-----|---------------0--

Tablature.host.sk

Pagina 153 di 182

B|--0--0---0--0---0----0-----8----------8---(8)\--------3------------------------------0-------0---0--0---0-------------------|-----|---------------0-G|---------------------------7----------7---(7)\-0--2^4---2^4^2^1----------------------------------------------------2--------|-----|-----------------D|---------------------------6----7^5---6---(6)\------------------2^0------------------------------------------------2----2---|-----|-----------------A|---------------------------7----------7---(7)\-----------------------------------0---4-------4---5--5---7----0-----0----X--/------------------------E|--4--4---5--5---7----0-------------------------------------------------------0------------------------------------------3/--------------3------0--0-mind.
Every time I

go

away

and leave

darlin'
~~~~~
~~~~
~~~~
e|--0--0---0-----0----0-------------------------------------------------------------------------------------------------------------------------------B|--0--0---0-----0----0-----0-----8-------X-----8----(8)-\----------------------------------------------------------------------------------------2---G|--------------------------------7-------X-----7----(7)-\-\----------------------------------7-----------------7-------7------7---7----------0-------D|--------------------------------6-------X-----6----(6)-\-\--------------------------------------7-------------7-------7------7---7------------------A|--------------------------------7-------X-----7----(7)-\-\------------------------------------------9---7--9------9----------------------0----------E|--4--4---5-----5----7-----0------------------------------\--0^4------5-------6-----7----------------------------------------------------------------send me the blues

you

way

down

the line.

oh!
- - - e|---------0----------0---0---------------------)----|---|----|-------------------------------------------------16--16\---------16--16--14--12--12\---B|--------------------2---2---2---------------15----15--15---15---15--12---------------)--------------------------------------------------------------G|--0-----------------0---0-------0----------------------------------------14----X---12--------\----------------16--16\-----16------16--14--13--13\---D|-----2--------------2---2-----------------------------------------------------------------14----\---------------------------------------------------A|------------0---0----------------------------------------------------------------------------------\------------------------------------------------E|----------------------------------------------------------------------------------------------------------------------------------------------------~~~~~~~~
~~~~~~
e|-------12--12--14--15--16-------------16------14--12--12\-----------17--17---19-21--21------------21--21--19--17--17\----------12--12--14--16---16--B|----------------------------------------------------------------------------------------------------------------------------------------------------G|--/13------13--14--15--16---------16------16--14--13--13\-------18------18---19-21--21--------21------21--19--18--18\------13------13--14--16---16--D|----------------------------------------------------------------------------------------------------------------------------------------------------A|----------------------------------------------------------------------------------------------------------------------------------------------------E|----------------------------------------------------------------------------------------------------------------------------------------------------~~~~~~
e|--16---------16---16--14--12--12\--------17------17------17------17\-----15----15-----15-----15-----15----------------------------------------------B|-------------------------------------16------16------16------16-------14-----14----14-----14-----14--------15-----15-----15-15----15------15---------

Tablature.host.sk

Pagina 154 di 182

G|--16---------16---16--14--13--13\-----------------------------------------------------------------------13-----13-----13-------13------13--------14-D|----------------------------------------------------------------------------------------------------------------------------------------------13----A|----------------------------------------------------------------------------------------------------------------------------------------------------E|----------------------------------------------------------------------------------------------------------------------------------------------------~~~~
~~~
e|-------------------------------------------------------------------------------------------------------12-------------------------------------------B|-----------------------12------------------------------------------12---------------)------------------12---12-------------------------12---12------G|-------14-----14--/16------14-14--12--12-----14-(14)\-------14^16-----14-----1412-14-------12------------------14-12--12------14---------------14-12D|----13-----13------------------------------------------------------------------------------------14-14----------------------------------------------A|----------------------------------------------------------------------------------------------------------------------------------------------------E|-----------------------------------------------------------------------------------------------------------------------------------------------------

e|----------12-----------12-----------12-----------12-------------12----------------------------------------------------------------------------------B|------)------15-12---)----15-12---)----15^12---)----15-12----12----15^12----------------------------------------------------------------------------G|----14-------------14-----------14-----------14-----------14----------------14^12------------------------------------------------------------12-14-12
D|----------------------------------------------------------------------------------14^12---------------------------------------------12-13-14----14-12
A|----------------------------------------------------------------------------------------14^12\10----10^12^10-13^13-10--10-10-12/14------------------E|-------------------------------------------------------------------------------------------------12--------------------------------------------------

~~~~~
~~~~~
e|-------------------------------------------12-------)-----------)------|-----------|---------)----|---------------|--------)----|-------------------B|----------------------------------)--12--------15-15----------14)-----14-------)--14-------14)---14----)----)----14------14)---14---)---------------)
G|--14/15-12-14-15-12----12----12-14----------------------------14---------14--14------------14--------14---14-------------14-------14----14--------12D|--------------------14----14------------------------------------------------------------------------------------------------------------------------A|----------------------------------------------------------------------------------------------------------------------------------------------------E|----------------------------------------------------------------------------------------------------------------------------------------------------hold bend
~~~~~~~~
- - -|
~~~~~~~
E|---------------------------------)----)-----)\)----)------)-----)-------------|\--)\--)\--)------------)--------------------------------------------B|---------------------------X---17---17---17------17-----17----17---17--17----17-17--17--17--17-------15---15----------20^17----21^17---21^17----21^17
G|-------14---12---------12(\0)-----------------------------------------------------------------------------------------------19------19-------19-----D|--14-------------------------------------------------------------------------------------------------------------------------------------------------

Tablature.host.sk

Pagina 155 di 182

A|----------------------------------------------------------------------------------------------------------------------------------------------------E|-----------------------------------------------------------------------------------------------------------------------------------------------------

lay back _ _ _|
_ ~~ _ |
E|-----------------------0----------------------------------------------------------------------------------------)------------|----)-----------------B|-----21^17----21^17----21^17----21^17----21^17----21^17----21^17----21^17-----1721^17-----21^17------17----20-20-------20---20--20--(20)--20---17---G|--19-------19-------19-------19-------19-------19-------19-------19--------19---------19--------19-------------------------------------------------19
D|----------------------------------------------------------------------------------------------------------------------------------------------------A|----------------------------------------------------------------------------------------------------------------------------------------------------E|-----------------------------------------------------------------------------------------------------------------------------------------------------

Babe,
~~~

~~~~

~~~~~~
E|------------------------------------------------------------12---------------------------------------------------0----0---0--0---0------------------B|--20---17---------20----17---(17)-------17\-X-X--X------)------15^12---------------------------------------------0----0---0--0---0---------8-------XG|----------19------------------------------------------14-------------14^12---------------------------12--(12)\-----------------------------7-------XD|---------------------------------------------------------------------------14^12-----------------------------------------------------------6-------XA|--------------------------------------------------------------------------------14^12^10----12---------------------------------------------7-------XE|-----------------------------------------------------------------------------------------12----12----0----0------4----4---5--5---7-----0------------yeah,
gimmie my baby
accel.
_ _ _ _
~~~~~~
E|-----------------------------------------------0--0---0--0---0--0---0---------------------|----------\------------0--0---0--0---0--0---0----0-------B|--X----8----------------3----------------------0--0---0--0---0--0---0----0----------------|-----------|-----------0--0---0--0---0--0---0----0------8G|--X----7--------0--2^4-----2^4^2^0---------------------------------------------2---X----2-|-----------|--------------------------------------------7D|--X----6----------------------------2^0^2^0------------------------------------2---X----2-|-----------|--------------------------------------------6A|--X----7---------------------------------------0--0---4--4---5--5---7----0-----0--------X-|-----------|--------------------------------------------7E|----------------------------------------------------------------------------------------3/---------------3--------0--0---4--4---5--5---7----0--------

oh

oh

oh,
my
my
even gliss.

my
let arpeggio ring
rake
_ _ _~~
E|----------------------------------------------------------------------------------------------------------0--------0-----------0-----------)--------B|-------X-------X-----8----(8)/----X\----------------------3-----------3---3-------2^-----------------------------------------------------15---15--15G|-------X-------X-----7----(7)/----X\--------------------------2--------------------0-------------------2--------2-----------2-----0---(0)------------

Tablature.host.sk

my
accel

Pagina 156 di 182

D|-------X-------X-----6----(6)/----X\---------------------------------------------------------2---X-----------------------2-------------0------------A|-------X-------X-----7----(7)/----X\----------7\2----2------------2-----------2--------------0---X--0--------0--------0-----------------------------E|----------------------------------------------------------------------------------------------------------------------------------------------------spoken: Now take it down a little bit


2.People tell me baby, can't be satisfied
tryin' to worry me baby,
~~
accel.
(w/delay)
E|----------------------------------------------------------------------------------------------------------------------------------------------------B|--15--12------12---)--------------------------------------------------------------------------------------------------------------------------------G|-----------14----12------------------12-------------------------------------------------------------------------------------------------------------D|-----------------------14---12-13-14----14-12--------------12---------------------------------------------------------8(8)\-------------------------A|------------------------------------------------(12)----13-14-(14)-----------1/2--------------------------------------7(7)\-------------------------E|----------------------------------------------------------------------------0(0)--------------------------------------6(6)\-------------------------but I never end up, get to be myself
people worry baby
keep you satisfied
Ah,
let me tell you babe
ah, you ain't

can't

(w/delay)
pick slide (w/delay)
E|----------------------------------------------------------------------------------------------------------------------------------------------------B|--------------------------------------------------------------------------------------------------------17-\----------------------------------------G|--------------------------------------------------------------------------------------------------------------\-------------------------------------D|--------------------------------------------------------------X(X)\----------------------------------------------\----------------------------------A|--------------------------------------------------------------X(X)\-------------------------------------------------\-------------------------------E|--------------------------------------------------------------X(X)\----------------------------------------------------\----------------------------nothing but a two bit no good jive
I went to sleep last
night, I work as hard as I can
I bring home my money, you take my money,
~~~~~~~~~~
~~~~~~~~~~~~~~~~~~~~
~~~~~~~~~~~~~~~~
E|-------------------------------------------------------------------------------)--------------------------)-----------------------------------------B|-----------------------------------------)------------------------------------15------------------------15------------------------)-----------------G|--------------------------------/14--(14)--------------------------------------------------------------------------------------/14------------------D|----------------------------------------------------------------------------------------------------------------------------------------------------A|----------------------------------------------------------------------------------------------------------------------------------------------------E|----------------------------------------------------------------------------------------------------------------------------------------------------give it to another man
a long time ago,
oh

I should have quit you baby,


I wouldn't be here with all my

oh, such

~~~~~~~~~~~~~~~~~~~~~~~
(w/delay)
rake w/delay
E|-------------------------------------------------------------------------------------------17\-------------------------------------------------------

Tablature.host.sk

Pagina 157 di 182

B|---------------------------------------)---------------------------------------------------17\---\--------------------------------------------------G|--------------------------/16--------16----------------------------------------------------------\----\---------------------------------------------D|------------------------------------------------------------------------------------------------------\---------14\---------------------------------A|-----------------------------------------------------------------------------------------------------------------X----------------------------------E|----------------------------------------------------------------------------------------------------------------12\---------------------------------troubles
Squeeze me babe,

mm, down on this killin' floor


til the juice runs down my leg

(simil.)
E|----------------------------------------------------------------------------------------------------------------------------------------------------B|-----------------------------------------------------------------------------------------------------)-\-------------)------------------------------G|----------7--7^9---------------------------------7^9^7^9-------------------------------------------14---(14)^12--(12)-------------------------------D|----------------------------------------------------------------------------------------------------------------------------------------------------A|----------------------------------------------------------------------------------------------------------------------------------------------------E|-----------------------------------------------------------------------------------------------------------------------------------------------------

The way you squeeze my


lemon, I,

I'm gonna

E|--------------------------------------------------------------------------------------------------------------------------------------)-------------B|----------)-----------------------------------------------------------------------------------------------------------------12-X-15-15--------------G|--15^14^12---15^14^12--15^14^12--15^14^12--15^14^12-15^14^12-15^14^12----14---12--------------------------------------------------------------------D|----------------------------------------------------------------------14----14---14-12--------------------------------------------------------------A|----------------------------------------------------------------------------------------14--14\-----------------------------------------------------E|----------------------------------------------------------------------------------------------------------------------------------------------------fall right out of bed

bed bed bed


(bend string behind nut) (simil.)
E|--------------------------------------------------------------------------------------------------------------------- _ _ _ _ _ _ _ ---------B|----------------15^12^15^12^15^12^15^12^15^12^15^12------------------------------------9^11------9--------------)----)--------------------\---------G|-----------------------------------------------------------------------------(9)--11---------11------11--------9---11---11------(11)------11--------D|----------------------------------------------------------------------------------------------------------------------------------------------------A|----------------------------------------------------------------------------------------------------------------------------------------------------E|----------------------------------------------------------------------------------------------------------------------------------------------------~~~
hold bend
~~~~~~
E|--------------------------------------12------------------------------------------)----|-------------------------------------------------------------

Tablature.host.sk

Pagina 158 di 182

B|-------------------------------|---12----15---12---)\------------------)------(14)----14-------|-------------------------------------------|-\------G|--9---11-------9---(9)\-------14-----------------14-(14)^12-0-14-----12-----12-14---------14--14---(14)-----14--(14)^12----14------12--14-14---12---D|-----------11-----------------------------------------------0-----14-----14---------------------------------------------14-----14-------------------A|----------------------------------------------------------------------------------------------------------------------------------------------------E|----------------------------------------------------------------------------------------------------------------------------------------------------~~~~~~~~~
~~
~~
~~~
~~~
E|-------------------------------------------------------------------------------|\--------------------~------)-\-------------------------------12----B|-------------------------------------------------------------------------------|--(11)^9----11------9-----11---(11)^9-11------9----------)-12----15-G|--12--------------------------9-------9--9------9--9------9--9^11--9------9----/---------11----(11)---11------------------11-----11----14-----------D|-----14-14--(14)\-------9^11-----11---------11--------11--------------11-----11---------------------------------------------------------------------A|----------------------------------------------------------------------------------------------------------------------------------------------------E|-----------------------------------------------------------------------------------------------------------------------------------------------------

Hey!

Hey!

Hey!

E|----------------------------------------------------------)-----------------------------------------------------------------------------------------B|--12---)\---)------)------------------------------------12-)--------------------)--------)-----)---)-----)-------------------------------------)----G|-----14---12-14--12------------12-12------12-12------12-12------14-14-------1212-------12----12--12----12-------------------------2\11-------14-13^12
D|--------------------14--12-14-----12(14)----(12)--14---------14--------14----------14-----14--------14----------------------------------------------A|------------------------------------------------------------------------------------------------------------14--14\---------------------------------E|----------------------------------------------------------------------------------------------------------------------------------------------------Hey!
you

hey,
hey,
hey,
hey,
baby, baby, baby, baby, baby, baby, baby, baby, baby,

~~~~~~~~~~
(hold
bends)
E|---------|\-------------------------------------12----------------------------------------------------------------------|------|------|------|------|
B|---------|--\-------------)\-------------)--12------15----)\----------------------------------------------------------)14---)-14---)-14---)-14---)-14
G|--------14---(14)^12----14--(14)^12----14---------------14--(14)^12-14------12^14-----------------------------------14----14-----14-----14-----14---D|------------------------------------14----------------------------------14--------------------------------------------------------------------------A|----------------------------------------------------------------------------------------------------------------------------------------------------E|----------------------------------------------------------------------------------------------------------------------------------------------------baby
hey

hey,
hey

hey,

hey
~~~~~~~

~~~~

~~~~~

Tablature.host.sk

Pagina 159 di 182

E|----|-----------------------------------------------------------------------------------------------------------------------------------------------B|---14----14--12--15^12---)\----------------)-----------|\--------------------)------(----------------|\---------------)-\--------------)------------G|-----14----------------14--(14)^12----14^12-----------14-(14)^12-----------14--------(14)^12--------14-(14)^12-----14----(14)^12-----14-------------D|-----------------------------------14---------------------------------------------------------------------------------------------------------------A|----------------------------------------------------------------------------------------------------------------------------------------------------E|----------------------------------------------------------------------------------------------------------------------------------------------------tremlo~~~~~~~~~~~~~~~~~~~~~~~~~~~~~
~~~~~~
E|-----------------------------------------16--16\------16--16--16--14--12---12\-----12--12--12--14--16------16-----------16--16--16---14--12--12\----B|-----------------------------------------15--15\------15--15--15--14--12---12\-----12--12--12------15--15--15-----------15--15--15---14--12--12\----G|--9^7------------------------------------16--16\------16--16--16--14--13---13\-----13--13--13--14--16--16--16--(16)-----16--16--16---14--13--13\----D|----------------------------------------------------------------------------------------------------------------------------------------------------A|----------------------------------------------------------------------------------------------------------------------------------------------------E|-----------------------------------------------------------------------------------------------------------------------------------------------------

w/pick & finger


~~~~~~~
accel. w/pick &
E|--(17)-----------------21--------------------21------21--19--17--17\-------12-----14--16------------16--16--16---14--12---12------------------17----B|---17--17--17------------------------------------------------------------------------------------------------------------------2/16-------16------16G|---18--18--18--19--21--21----------------21------21------19--18--18\--/13-----13--14--16--(16)------16--16--16---14--13---13------------------------D|----------------------------------------------------------------------------------------------------------------------------------------------------A|----------------------------------------------------------------------------------------------------------------------------------------------------E|----------------------------------------------------------------------------------------------------------------------------------------------------finger
Rake
E|--17------17------17------17------15------15------15------15------15---------------------------------------------------------------------12^--------B|------16------16------16------14------14------14------14------14-------------15-----15------15------15------15-----------------------------12^------G|----------------------------------------------------------------------13--------13------13------13------13----------14------14--14--14-------12--X--X
D|----------------------------------------------------------------------------------------------------------------13------13------13--13--------------A|----------------------------------------------------------------------------------------------------------------------------------------------------E|----------------------------------------------------------------------------------------------------------------------------------------------------~~~~~~
rake
rake
rake
rake
p.m.
accel.
E|------------------------------12^---------------12---------------------------------------------------------------15^12--15^12--15^12--15^12--15^12--B|---|-\---|--------12^-----------12^-------------12^-----12-----)--12-------12^---------)---12^-----------(14)---------12-----12-----12-----12-----12-

Tablature.host.sk

Pagina 160 di 182

G|--14----12----------12^-----------12---12^0-------12^-----14-12-----14^12----12^--14-12------X^--14-12----------------------------------------------D|----------------------14----------------------------14------------------------14--------------X-----------------------------------------------------A|----------------------------------------------------------------------------------------------------------------------------------------------------E|-----------------------------------------------------------------------------------------------------------------------------------------------------

I'm gonna leave my


~~
~~~~
e|--15^12---15-12----15-12----15-12-------12--12-------------------------------------------------------------------)----12----------------------------b|-------12-------12-------12-------12-12-12-(12)---------14^12--15^12--------14^12-----15^12-----15^14------15--15-------15-12--|--------------------g|-------------------------------------------------14\12---------------12-----------12--------12--------12----------------------14--14^13-14----------d|----------------------------------------------------------------------------------------------------------------------------------------------------a|----------------------------------------------------------------------------------------------------------------------------------------------------E|----------------------------------------------------------------------------------------------------------------------------------------------------children

down on this killin' floor

e|---------------------------------------|
b|---------------------------------12\9--|
g|---------------------------------12\9--|
d|---------------------------------12\9--|
a|---------------------------------------|
E|---------------------------------------|

Tablature.host.sk

w/delay
That's it.. the whole song
in it's 6:49 glory. If there is
any questions about lyrics, riffs
or plain old Zep trivia, e-mail
me at zil@masterpiece.com.

Pagina 161 di 182

The Ocean
by Led Zeppelin
Intro
--------------------------------------------------------------------------------------------------------------------------------------------------------------------2-------2-----------------------------------------2----------2----------------------------5---2------------0---2---5------0---2-----------------0-----2-------------------------3-------------------------------------4-----------------------------------------------------------------------------------------------You repeat that a couple of times. In some of the repeats of that part
there's this thing that Page throws in there. It's just a bunch of Palm
Muted C's(5'th string 3rd fret). Also you can substute the 5's for open's on
the next string, but i think Page plays it with 5's
Main Riff
You use the following chords. They're barre chords, but i don't know they're
specific names(i.e. Gsus5). But I know the roots, so that'll have to do.
Chord
D
C
A
G

EADGBE
5577xx
3355xx
577xxx
355xxx

The riff goes...


DDDD CCCC AGADDDD

Tablature.host.sk

Pagina 162 di 182

The Song Remains the Same


by Led Zeppelin
This was a requested a while ago, but it took a while to tab.
Sorry for the wait.

This song has 3 12-string electrics and 2 6-strings(telecaster thru supro)


Ill try to keep them all straight for you.
The intro is 1 12string banging out an open D repeatedly.
plays this set of chords over it:

One 12-string

e--2-----5-----7-----9\----14------14\----------------------------------b--3-----6-----8----10\----15------15\----------------------------------g--2-----5-----7-----9\----14------14\----------------------------------d-----------------------------------------------------------------------a-----------------------------------------------------------------------E-----------------------------------------------------------------------and the third 12 plays these chords:


e--------------12----12---------14-----14\------------------------------b--7-----8-----12----14---------15-----15\------------------------------g--7-----7-----12----14---------14-----14\------------------------------d--7----10--------------------------------------------------------------a-----------------------------------------------------------------------E-----------------------------------------------------------------------Now one 12 stops playing and one 12 plays these chords
while the second 12 plays the same chords but with an open D-string
instead of a second fret D.
e--0----0-0--2------2-2--0---0-0--2--2-2--3--3-3-0--0-0--3--3-3--2-----b--3----3-3--3------3-3--3---3-3--3--3-3--3--3-3-3--3-3--3--3-3--3-----g--2----2-2--2------2-2--2---2-2--2--2-2--2--2-2-2--2-2--2--2-2--2-----d--2----2-2--2------2-2--2---2-2--2--2-2--2--2-2-2--2-2--2--2-2--2-----a----------------------------------------------------------------------E----------------------------------------------------------------------Now this chord sequence is played by 2 12's the same way
and repeat it.
/-again the 2nd 12 plays the open D on this chd
e-2--2-2-----2--2--3--3-3----2--0--------------------------------------b-3--3-3-----3--3--3--3-3----3--3--------------------------------------g-2--2-2-----2--2--2--2-2----2--2--------------------------------------d-0--0-0-----0--0--0--0-0----0--0--------------------------------------a-----------------------------------------------------------------------E----------------------------------------------------------------------Next is both 12's playing this:
e---0----0---0-0----0---0---0-------0--------0----0-0-0-0-0-0-0-0-0-0---b---1-1----1---0-0--0-----0----1--3---3-1-3-------0-0-0-0-0-0-0-0-0-0---g-----------------------------------------------------------------------d-3-----------------3----------3----------------------------------------a-----------------------------------------------------------------------E-----------------------------------------------------------------------Next one of the 6 strings come in with the 2 12's to play this:
e--0----0-0--2------2-2--0---0-0--2--2-2--3--3-3-0--0-0--3--3-3--2-----b--3----3-3--3------3-3--3---3-3--3--3-3--3--3-3-3--3-3--3--3-3--3-----g--2----2-2--2------2-2--2---2-2--2--2-2--2--2-2-2--2-2--2--2-2--2-----d--2----2-2--2------2-2--2---2-2--2--2-2--2--2-2-2--2-2--2--2-2--2-----a----------------------------------------------------------------------E-----------------------------------------------------------------------

Tablature.host.sk

Pagina 163 di 182

One this next distorted part,


the six string plays this:
and 12's play this
e-------------------------------------------------2----------------------b-------------------------------------------------3----------------------g-------------------------------------------------2----------------------d-------------------------------------------------2----------------------a---------------0------------------------------0-------------------------E---3^4--0-3^4--0-----------------3^4--0--3^4----------------------------Here is the 2 12's backing part to the first solo:
e---2------2---3--3-------5--3------------------------------------------b-----3------3------3-----3--5------------------------------------------g-------2-------------2-------------------------------------------------d-0---------------------------------------------------------------------a-----------------------------------------------------------------------E-----------------------------------------------------------------------And the first 6 string solo:
e-----------------------------------------------------------------------b-----------------------------------------------------------------------g-----------------------------------------------------7-9-7---7---------d------------------------7-9-7---9-7---7--7-7-----7-9-------9-----------a-3^4--0--3^4--5-7p5-7/9-------9-----9----------------------------------E-----------------------------------------------------------------------e-------------7----------------------------------------10---------------b---------------10-7----------------------------------------------------g----7--9^11---------9-7---9-7---7-9-7---7-7----7-9^11----(11)^9--7-----d--9---------------------9-----9-------9-----9--------------------------a-----------------------------------------------------------------------E-----------------------------------------------------------------------e------------------------------------7-----------------------------------b--7^8-7-------------------------------10-7------------------------------g--------7------7-9-7---7----7-9^11---------9-7---9-7---7----------------d-----------7-9-------9----9--------------------9-----9------------------a------------------------------------------------------------------------E------------------------------------------------------------------------Now the 6 string plays this figure a few times:
e------------------------------0-----------------------------------------b------------------------------0-----------------------------------------g--/5-4-2---2----/5-4--2-----2-------------------------------------------d---------3--------------3-3---------------------------------------------a------------------------------------------------------------------------E------------------------------------------------------------------------And ends it with this:
e-----------------------------------------------------------------------b-----------------------------------------------------------------------g--/5-4-2-0------------------------------------------------------------------d------------3-2-0---------------------------------------------------------a------------------3-2-0---------------------------------------------------E------------------------------------------------------------------------

Tablature.host.sk

Pagina 164 di 182

The 2 12's play this after the solo: and end that section with a bunch of
/-these
e--3-5---8--8--8------3--5---8--8--8--7-7---8--------------------------b--5-7--10-10-10------5--7--10-10-10--9-9--10--------------------------g----------------------------------------------------------------------d----------------------------0-----------------------------------------a----------------------------------------------------------------------E----------------------------------------------------------------------During the vocals, the 2 12's play on this basic pattern with a few
subtle changes on the first couple of measures.
e--0---0---------------3-----0------0----------------------------------b--1---1-----3-----3h5----3--3--3-3---3p1-----0------------------------g--0---0-----0-----------------------------0---------------------------d--2---2---------------------------------------------------------------a--3---3---------------------------------------------------------------E----------------------------------------------------------------------While the 6 plays this on the first two measures.
e-----------------------3----------------------------3-----------------------b----------------1---------------------------------3-------3---0-------------g-2^4^2----------------------0--0--------------5^6-----3/4---4--------0------d---------0-0-2----2---------2--2------0----5---------------------0h2--------a----------------------------3--3---------5-----------------------------1h2--E---------------------------------------------------------------------------3And on the third measure the 12's play this:
e-0--0----0--0---0-----------0--0----------0--0----0--0---0---0---0--0------b-1--1----2--2---2-----2-----0-------0-2--------0--1----0-1-----0-1---1-0--0g-0--0--------------3-----3--------3---3---3-------------------------------0d-2--2----4----4----4--4--4------------------------------------------------0a-3--3----------------------------------------------------------------------E---------------------------------------------------------------------------And the 6 plays this:
e-----------------------------------7--------6-------5--5--/10-8-/13-13/12
b--2-----2---------------------------------5-------5----------------------g----------3-------------------4/7-----4/6-----4h5------5----------------d----4-----4-----------------4-------------------------------------------a--------------------------4---------------------------------------------E------------------------------------------------------------------------Heres that mid section thing:
e--------15-|-(5)^7^5-5-3------3------------3------------------------------b-----------|-------------------------3-----------4------------------------g--14/16----|--------------3h4----3-4---3h4---3-4---3^4--------------------d-----------|-------------------------------------------5------------------a-----------|--------------------------------------------------------------E-----------|--------------------------------------------------------------On the last measure of the vocal part, the 6 plays this:
e---------------------------------1--------5-------10--8-----8-------10-b-------------------------0-----1---1--------------------------10/12----g---------------------------1-2-------3/5-----5/10----10-10-10----------d-6^8-6^8-6-5-4 --6^8-6-4-----------------------------------------------a-----------------------------------------------------------------------E-----------------------------------------------------------------------Then just bend the g-string 5th fret up and pick it as you release the bend.

Tablature.host.sk

Pagina 165 di 182

The second solo is this:


e----------------------------------------7------------------------------b--7-----7-----------------------------7---10-10-7----------------------g--9^11--9^11--9p7h9----7-7-7-----9^11-------------9p7-9p7----7-7-------d---------------------9-------9----------------------------9------9-----a-----------------------------------------------------------------------E-----------------------------------------------------------------------e-------7----------------------------------------------------------------b---------10-7-----------------------------------------------------------g--9^11--------9-7-9-7---7-9-7-------------------------------------------d----------------------9-------9-7-9-7---7-9-7---7-9-7/9-7-9-7---7-------a--------------------------------------9-------9---------------9---------E------------------------------------------------------------------------e---------------------------------------10-------------------------------b-------------------------------------------13-10----10------------------g------------------------9p7-7---7-9/11-----------12----10^11------------d----------------------7-------9------------------------------12---------a-9\7-5-5--5-5--5h7/9----------------------------------------------------E------------------------------------------------------------------------e--------------------------------------------------15-------------------b--------13-15^17-15-------------13-15-(15)^16^17-----15^17-15----------g--9/14---------------12----9/14----------------------------------------d-----------------------------------------------------------------------a-----------------------------------------------------------------------E-----------------------------------------------------------------------e--------------------------------------------------------------15---------b--15^17--15---------------------------------------------15^17-----15^17-15
g-------------12-14^16^14---------16^18---14----14-16---------------------d-------------------------------------------------------------------------a-------------------------------------------------------------------------E-------------------------------------------------------------------------e-------------------------------7---------------------------------------b--12^13---12^13^12---------------10-7-10-7\----------------------------g--------------------14------0-------------------------------7----------d-------------------------------------------------7-10-7---7-7----------a---------------------------------------------7/9--------9--------------E-----------------------------------------------------------------------e-----------------------------------------------------------------------b-----------------------------------------------------------------------g-----------------7-------------------7-7-7\----------------------------d------7-10-7---7-7-------10p7----7---7-7-7\----------------------------a--7/9--------9-------7/9------10---9-----------------------------------E-----------------------------------------------------------------------After the next vocals bit, The 12's play this chord sequence
hitting each one 3 or 4 times:
/--now just arpeggiate this chord
e--8--7--10---8--12---10/14--------------------------------------------b-10--8--12--10--13---12/15--------------------------------------------g------------------------16--------------------------------------------d----------------------------------------------------------------------a----------------------------------------------------------------------E----------------------------------------------------------------------After that, the 12's play this:
e-0-----------------------------2---3---2---0------------0------0--------

Tablature.host.sk

Pagina 166 di 182

b-------3-------------------3----3---3---3---3---1-3---1----------------g-0-0-0-0--0-0-0--0-0-0-0---0-----2---2---2---2------2------------------d-------------------------0-2-----------------------------------2---2---2
a-------------------------------------------------------------3-----3-3-E-----------------------------------------------------------------------e-----------------------------------------------------------------------b--------------------------------3--------------------------------------g--------------------------------2--------------------------------------d--5-5-5-4-4-4-2-----------------0--------------------------------------a--3-3-3-2-2-2-0--7-7-7-5-5-5-5--2--------------------------------------E-----------------5-5-5-3-3-2-0--0--------------------------------------The 6 string part over that is:
e--15-------------------------------------------------------------------b------(15)^17^15-------------------------8^10---(8)^10^8---------------g------------------(14)^16^14--9--7-8-9-7------7------------------------d-----------------------------------------------------------------------a-----------------------------------------------------------------------E-----------------------------------------------------------------------e-15--------------------------------------------------------------------b----15^17^15-----------------------------------------------------------g-------------14^16^14-14--14\12----------------------------------------d--------------------------------12-12/14-------------------------------a-----------------------------------------------------------------------E-----------------------------------------------------------------------e--------------------------------7^9-7-5-----------(7)^9^7-7-5----------b------------------6---5-----5------------7^9-7-5-----------------------g------------5-5-7---7---7-7--------------------------------------------d------5-5-7------------------------------------------------------------a--5-7------------------------------------------------------------------E-----------------------------------------------------------------------And then the power chords with the 12's and the 6
Next is as little soloing over the rythym laid down by the 2 12's and
1 6
e-----------------------------------------------------------------------b-----------------------------------------------------------------------g---7^9^7p5-------------2h4p2---2----------2h4p2---2------2h4p2---2-----d-----------7-------2-4-------4--------2-4-------4--------------4-------a-----------------------------------------------------------------------E-----------------------------------------------------------------------e-------2---------------------------------------------------------------b---------5-2---------2----10h13p10--12-15-15^16--15-12-12--------------g--4^6--------4-2-4-2---------------------------------------------------d-----------------------------------------------------------------------a-----------------------------------------------------------------------E-----------------------------------------------------------------------e-----------------------------------------------------------------------b-------10-12-10----10----10--------10-12-10----10----12------10-12-10--g--9/11----------11----11------9/11----------11----11-----9/11----------d-----------------------------------------------------------------------a-----------------------------------------------------------------------E-----------------------------------------------------------------------e---------------------5--------------------------------------------------b-----10-10-------------5^7-5-3-3----------------------------------------g--11-------12----------------------2p0---0-2p0---0----------------------d---------------------------------------4-------4----2p0---0-2p0---0------

Tablature.host.sk

Pagina 167 di 182

a--------------------------------------------------------4-------4-------E------------------------------------------------------------------------e-----------------------------------------------------------------------b-----------------------------------------------------------------------g--2p0--0---------2p0--0---------2p0---0--------------------------------d------4---2p0--0-----4--2p0---0-----4---2p0---0-2p0-0------------------a--------------4-------------4---------------4--------------------------E-----------------------------------------------------------------------e---------------------15------------------------13-14-15-------------------b------13-15-15^17-15----15^17-15------13-15^17----------15^17-15-13-15-13\g--/14------------------------------14-------------------------------------d--------------------------------------------------------------------------a--------------------------------------------------------------------------E--------------------------------------------------------------------------Now w/heavy distortion repeat this figure a few times and end it w/
that last little chord.
e-----------------------------------------------------------------------b-----------------------------------------------------------------------g--------------2----------------------4p2-----------------2-------------d--2-2-----2-4---4-2--2-2------2-4-2------4p2-------------0-------------a--0-0-2/4------------0-0--2/4------------------------------------------E-----------------------------------------------------------------------Well that's about all of it.
CHUCK

Tablature.host.sk

Sorry for any mistakes.

Pagina 168 di 182

Trampled Underfoot by Led Zeppelin


There are only a few guitar parts essential to the song.
There are also some fills played with a wah-wah, but theyre
not that hard to figure out(though they are to remember).
There are several guitars doubling various parts of the song
and some have a wah-wah on them.
Heres the main riff:
e--------------------------------------------------------------------------b-2-3----------------------------------------------------------------------g-2-3--2-3-0-------0-------------------------------------------------------d------------3-0-3---------------------------------------------------------a--------------------------------------------------------------------------E--------------------------------------------------------------------------And this ascending part:
e------5-5-5-------7-7-7---------10-10-10----------12-12-12----------------b--------------------------------------------------------------------------g--4/6---------6/8---------9/11--------------11/13-------------------------d--------------------------------------------------------------------------a--------------------------------------------------------------------------E--------------------------------------------------------------------------And after that this is played:
e--11--11-------------------------11-11------------------------------------b--11--12--11-12------------------11-12-11-12------------------------------g-----------------12-10----10-12--------------12-10----10-12\--------------d-----------------------12--------------------------12---------------------a--------------------------------------------------------------------------E--------------------------------------------------------------------------And the chord before the keyboard solo and at the end of the song:
e--------------------------------------------------------------------------b--------------------------------------------------------------------------g---7----------------------------------------------------------------------d---5----------------------------------------------------------------------a--------------------------------------------------------------------------E--------------------------------------------------------------------------Thats really about it except for the wah-wah bits here and there.
Enjoy,
CHUCK

Tablature.host.sk

Pagina 169 di 182

Wanton Song -- Led Zeppelin

verse:
----------------------------------------------------------------5-5-----5-5-----------------------3-3-----3-3-----play this four times
then this 4X again

----------------1--2---1--2---3--4--------then this

------------------------------------------------------------------------------7---6---5---3----------------3--------------------------3-4-5---5---5---4---3---1---------------------------------------then this

bridge: (double-tracked - clean gtr panned hard left, dirty - panned =


right; parts sound almost identically, but have some minor differencies, =
so listen)=20
----------------------------------------------------------------------1--3-4---3--4--6---4--4-6-8---5---6/8-------------------------------1--------1---------3----------3-------------------------------------3--------3---------5----------5-------------------------------------3--------2---------3----------4-------------------------------------1-----------------------------------------------------------------Fm
Bb7-9
Cm7
C7-9

---------------------------------------------------------------------5h6p5-------(5)--------------------------x-x-----------------------5------------5-------------------3-------x-x----------3------------0------7-----5h7p5--------5--7---3h5p3---x-x----------3-------------------------x-----(h)5----------x-----5-x-x---3-4-5-----5----------------------5-------------------3-----------------------------Dm7sus2
Am7
Gm7
=20
----------------------------------------------------------------------5h6p5-------(5)----------------------------------------------------5------------5-------------------3--------------3---------5--------0------7-----5h7p5--------5--7---3h5p3------------------------------------------x-----(h)5----------x-----5--3-4-5------5-6-7----6-7----------------5-------------------3------------------------------Dm7sus2
Am7
Gm7
=20
---------------------------------------------------------------------5h6p5-------(5)--------------------------x-x-----------------------5------------5-------------------3-------x-x----------3------------0------7-----5h7p5--------5--7---3h5p3---x-x----------3-------------------------x-----(h)5----------x-----5-x-x---3-4-5-----5----------------------5-------------------3------------------------------ =
etc.
Dm7sus2
Am7
Gm7 =20

reverse guitar=20
-------------3-----------3----------3-----------------------------Gm7

Tablature.host.sk

Pagina 170 di 182

Guitar solo over Bb-C-F-Gm, then that reverse fade bit, then last verse.
Chord shapes:
Am7
AxGCxx
5x55xx

Dm7sus2
xxDCEx
xx055x

C7-9
xC#GFEx
x4 535x

Cm7

Tablature.host.sk

Gm7

Fm
GxFBbxx
3x3 3xx

Bb7-9
FCFAbCx
1331 1x

xBFAbDx
x231 3x

xCGBbEbx
x353 4 x

Pagina 171 di 182

What is And What Should Never Be


Words and Music Jimmy Page and Robert Plant
from Led Zeppelin II (The Brown Bomber)
Transcribed by Ted DaCosta
Here's the words, tab and solo to this great Zep tune.

Here's the breakdown.

Verses: Jimmy basically plays and A13 and E9 during the slower verses.
Here's how I form these chords :
A13

E9

and these varied forms

e----------|----0---------7-------------------------------------B---7------|----7---------0-------------------------------------G---6------|----7---------7-----7-------------------------------D---5------|----6---------6-----6-------------------------------A----------|--------------------7-------------------------------E----------|----------------------------------------------------I suggest to do a little ad-lib with the E9 chord variations until you find
something that works and sounds good to you.

Chorus : (heavy guitar sound with distortion)


notation : h - hammer
p - pulloff
b - bend
e---------------------------------|----------------2------------------------B---------------------------------|----------------3--2---------------------G---------------------------------|-------------2--2--2---------------------D----5h7---7-7-7p5---5--5--5------|-4--4---4----2--4--2---------------------A----0-----0---------0--0----0--0-|-0--0-0----0-0-----0--0------------------E---------------------------------|-----------------------------------------e---------------------------------|----------------2------------------------B---------------------------------|----------------3--2--2------------------G---------------------------------|-------------2--2--2--2------------------D----7---7---7p5-----5-------5----|-4-4-4-4---2-2-----2--2------------------A----0---0-0---------0--0-0----0--|-0-0-0-0---0-0-----0--0------------------E-----------------3---------------|----------------------0-------------------

e-----------------------------|
B-4-4-4-4---------------------|
G-4-4-4-4----4---4---4---4----|
D-4-4-4-4----4---4---4---4----|
A-2-2-2-2--0---0---0---0------|
E-----------------------------|
let ring
e-----------------------0-------------|--------|----------------B-----------------------0---4--2------|--2-----|----------------G-----4---4---4----4----1---4--3------|--2-----|----------------D-----4---4---4----4----2---4--4------|--2-----|----------------A-----------------------2---2--4------|--0-----|--2-------------E---4---4---4----4------0------2------|------3b|--0-------------1/2 step
Jimmy plays slide on the solo (I don't, I'm not the best slide player, so if
you can't, just slide to the notes rather than picking each note, it sounds ok
especially if you add a little delay.)
notation : s = slide (e.g. xsy means pick note x and slide from note x to
note y)

Tablature.host.sk

Pagina 172 di 182

e-------------------------|--------|-------------------|--------------------B-------------------------|--------|------5--7s9--7s9--|--7s2---------------G----------9--9s13--11s13-|--11s6--|--4-6----7s9--7s9--|--7s2---------------D---9--11-----------------|--------|-------------------|--------------------A-------------------------|--------|-------------------|--------------------E-------------------------|--------|-------------------|--------------------e---------12---10-12-10---------------|-------------------------------------B---7s12----------------10s12---10s12-|-10s12s14-------12-------------------G-------------------------------------|-------------------------------------D-------------------------------------|-------------------------------------A-------------------------------------|-------------------------------------E-------------------------------------|-------------------------------------e--14s16--10s12-----------------------|-------------------------------------B----------------10s12---10-8-10------|--10s14------------------------------G-------------------------------------|-------------------------------------D-------------------------------------|-------------------------------------A-------------------------------------|-------------------------------------E-------------------------------------|-------------------------------------e----------------------------------------|----------------------------------B-------14-------14------------14--14----|------14-14-14----14--------------G--------------------------14------------|----------------------------14----D--7s14----14-14------5s14--------------7s14-14----------14------12---14----A----------------------------------------|-----------------------12---------E----------------------------------------|----------------------------------e----------------------------------------|----------------------------------B-------14-------14------------14--14----|------14-14-14----14--------------G--------------------------14------------|----------------------------14----D--7s14----14-14------5s14--------------7s14-14----------14------12---14----A----------------------------------------|-----------------------12---------E----------------------------------------|----------------------------------e----------------------------------------|-------------------7--------------B----------16----16-------------16--16---|------16-16-16--9--7--------------G-------16----16----16-------16----------|---16-----------9-----------------D--9s16-----------------9s16-----------7s|16--------------------------------A----------------------------------------|----------------------------------E----------------------------------------|----------------------------------e----------------------|-----------------------------------|-------|---|---B--14s17-16-14---------|--14s12s14--14s12s14--12s14--12s14-|12s9s7s|sss|s2-G------------------14--|-----------------------------------|-----7s|sss|s2-D---------------14-----|-----------------------------------|-----7s|sss|s2-A----------------------|-----------------------------------|-------|---|---E----------------------|-----------------------------------|-------|---|---Note that on the solo if you aren't playing slide just bar the A
on the 14th fret and the B on the 16th fret with your ring finger. It allows
you to let the notes ring and makes the fingering very easy.
Sometimes I substitute the following A chord and B chords for the
A on the 14th and the B on the 16th respectivley, but still play the same
notes. Obviously you don't do this if you play the solo with a slide.
A

e-----9-----------11----------B-----10----------12----------G-----9-----------11----------D-----------------------------A-----------------------------E------------------------------

Tablature.host.sk

Pagina 173 di 182

Outro : Distorted, play to the end of the song. After playing the following
part twice, from the third time on mute the strings in between the notes
that are played to get that "chuka" effect.

e-----------------|----------------------------------------------------------B------------9-9--|---------------9-9-9-9------------------------------------G------------9-9--|----7---7-7----9-9-9-9------------------------------------D---9-9------9-11-|--7-7---7-9----9-9-9-9------------------------------------A---9-11-----0----|--7-9---0------7-7-7-7------------------------------------E-----------------|---------------0-0-0-0------------------------------------Now putting it altogether :

And if I say to you tomorrow, take my hand child come with me.
It's to a castle I will take you, Well what's to be they say will be.

Chorus :
Catch the wind, see us spin, sail-away leave the day, way up high in the sky
hey whoa, But the wind won't blow, you really shouldn't go, it only
goes to show, that you will be mine by taking our time. Oooh Ho whoa.
And if you say to me tomorrow, oh what fun it all would be.
stop us pretty baby, but what is and what should never be.

Then what's to

Chorus :
Guitar Solo (with verse rhythym guitar and then into the chorus guitar part)
So if you wake up with the sunrise, and all your dreams are still as new,
and happiness is what you need so bad, well girl the answer lies with you yeah
Chorus :
Outro guitar with ad-lib vocals :
Uh, but a the wind wont blow and we really shouldn't go, and it only goes
to show, whoa, whoa whoa. Got the wind gonna see us spin we're gonna
say leave the day. A do be do ba da 'n' do oh. My my my my my yeah.
Everybody I know seems to know me well, but they say I'm gonna move like
hell. Uh baby, baby, baby, baby, baby, baby ....

As always with my tab versions you better listen to the record to get
the timing straight and the changes. Feel free to make any corrections
because if it don't sound right it probably ain't.

Tablature.host.sk

Pagina 174 di 182

White Summer
Jimmy Page
---------------------------------------------------------------------Notation:
Above the staff:

*
\
/
0:12

harmonic
arpegiate chord downwards (high string to low)
arpegiate chord upwards (low string to high)
the time appearing on my CD player at this point

On the staff:

h
p
b
r
/
\
~

hammer next note on


pull next note off
bend up to next note
release bend down to next note
slide up to next note
slide down to next note
bend note up and back

---------------------------------------------------------------------Tuning:
Tune both E strings down one tone to D
Tune the B string down one tone to A

The introduction....

0:00
*
*
*
*
d-|----12-----7-----5--------------------------------0-----------0-----------a-|----12-----7-----5-----------------------------------------------------3--G-|----12-----7-----5--------------0-12--------------0-h2-p0-----0-h2-h4-----D~|----12-----7-----5-----0-h2-h4-----------------------------4--------------A-|----12-----7-----5--------------------------------------------------------D-|----12-----7-----5--------------------3-b5-~5------------------------------

\
\ 0:16
d-|--0-----------------------------------------------------------------------a-|-----------------0-----------------------------3--------------0-----------G-|--4-p2-p0--2-----2--------0-h2-p0-----0-h2-h4-----4-p2--0--2--2--2-p0-----D~|-----------------0-----------------4--------------------------0--------2-p0
A-|-----------------0--------------------------------------------0-----------D-|-----------------0--------------------------------------------0------------

d-|--------------------------------------------------------4-/5-\4-/8-\7/12\10
a-|-----------------------2--------------------------------------------------G-|--------------------------------------------------------------------------D~|-----2--------4--------------------2--2-h4-p2-h4-p2-----4-/5-\4-/8-\7/12\10
A-|--3-----3-/5-----5--3--2--------0-----------------------------------------D-|-----------------------------0--------------------------------------------0:23
/
d-|-----0--0--0--------------------------------------------------------------a-|--0--0--------------5-p3-b5-~5-----3-b5-r3-b5-----5-r3--------------------G-|--2-----4--5--5--------------------------------------------2--4-b5-r4-b5--D~|--0--------------0--------------------------------------------------------A-|--------------------------------------------------------------------------D-|---------------------------------------------------------------------------

Tablature.host.sk

Pagina 175 di 182

\
d-|--------------------------------------------------------------------------a-|--------------------3--------------0--------------------------3-----------G-|--2-p0-----0-h2-h3-----3-p2-p0-h2--2--------------0--0-h2-h4-----3-p2-p0--2
D~|--------4--------------------------0-----0-h2-h4--------------------------A-|-----------------------------------0--------------------------------------D-|-----------------------------------0---------------------------------------

0:39
\
\
\
d-|--4-p0-h4-----4-p0-h4-----4-p0-h4--------0--0--0--------------------------a-|--0-----------0-----------0-----------0--0--------------5-r3-b5-----3-b5-~5
G-|--2-----------2-----------2-----------2-----4--5--5-----------------------D~|--0-----------0-----------0-----------0--------------0--------------------A-|--0-----------0-----------0-----------------------------------------------D-|--0-----------0-----------0------------------------------------------------

d-|--------------------------------------------------------------------------a-|--5-p3-p2-h3-----5-p3-p2-h3-----5-p3-p2-p3-h5-/7-\5-----5-p3-p2--3-p2-p0--G-|--------------------------------------------------------------------------D~|--------------------------------------------------------------------------A-|--------------------------------------------------------------------------D-|--------------------------------------------------------------------------0:50
\
d-|-----------------------0-----------0-----------0--------------------------a-|--------------------------------------------3-----------------0-----------G-|--4-p2-p0--4-----------0-h2-p0-----0-h2-h4-----4-p2-p0--2-----2-----------D~|--------------------------------4-----------------------------0-----------A-|--------------------------------------------------------------0-----------D-|--------------3-b5-~~-----------------------------------------0------------

\
*
d-|--------------------------------------------------------------------------a-|-----------------------------3--------------0-----------------5-----------G-|-----------0-h2-p0--0-h2-h4-----4-p2-p0-h2--2--------------0--5-----------D~|--0-h2-h4-----------------------------------0-----0-h2-h4-----5-----------A-|--------------------------------------------0-----------------------------D-|--------------------------------------------0--------------------3-h5-~~---

1:00
\
d-|--0-----------0-----------0-----------------------------------------------a-|-----------------------3-----------------0--------------------------------G-|--0-h2-p0-----0-h2-h4-----4-p2-p0--2-----2--------------------------------D~|-----------4-----------------------------0--------------------------------A-|-----------------------------------------0--------------------------------D-|-----------------------------------------0---------------------------------

1:12
d-|-----------------------------------------------------------------0--------a-|-----------------------------------------------------------------0--------G-|--2-p0--------------------------------0--------------------------2--------D~|--------2-p0-----2--------4-----5-----9h10-p9--7-h9-p7--5-h7-p5--0--------A-|--------------3-----3-/5-----5--5----10--------9--------7--------0--------D-|---------------------------------------------------------------------------

Tablature.host.sk

Pagina 176 di 182

The guts...
(It gets really fast here....
d-|-----------0-----------0-----------0--------------------------------------a-|--------------------------------------------------------------------------G-|-----------0-h2--------0-h2--------0--2--------2--0-----------------------D~|--0-h2-h4--------4-----------4-----------0--0--------2--0-----2-----------4
A-|-----------------------------------------------------------3-----3--3-/5--D-|---------------------------------------------------------------------------

d-|----------------------a-|----------------------G-|----------------------D~|--------------3-/4----A-|--5--3-p2--0----------D-|--------------------0--

...

in fact, so fast that I can't make


the rest of it out. :-( )

SO ... if you have a good ear, or some means of slowing this down, I'd
be extremely grateful for a clue as to how to get started on this next bit!!!
---------------------------------------------------------------------Transcribed by Martin Gregory (marting@qpsx.oz.au), 21 Mar 1995,

Tablature.host.sk

Pagina 177 di 182

Whole Lotta Love (Led Zeppelin)


Main Riff:
e
B
G
D
A
E

---------------------------------------------------------------------------|
---------------------------------------------------------------------------|
-----------------9--------9--------9---------------------------------------|
-----------------9--------9--------9---------------------------------------|
--------5----5---7--------7--------7---------------------------------------|
--(5)>7----7-------0-0-0----0-0-0------------------------------------------|

Solo:
e
B
G
D
A
E

-------------12--------------------------------------|
----10/12-------15--12-------------------------------|
------------------------15p14p12--14p12--14>(16)-----|
-----------------------------------------------------|
-----------------------------------------------------|
-----------------------------------------------------|

e
B
G
D
A
E

/-3--\ /-3--\
-------------------------------------------------|
-------------------------------------------------|
-2/4---4p2--0--2p0-0--2p0------------------------|
---------------------------2p0--2p0--------------|
-------------------------------------2-----------|
---------------------------------------------0---|

e
B
G
D
A
E

----------12-10>(12)--12--15--10>(12)-|-12 15>(19)>15--12----15p12-|
-10>(12)--12--------------------------|-------------------14-------|
--------------------------------------|----------------------------|
--------------------------------------|----------------------------|
--------------------------------------|----------------------------|
--------------------------------------|----------------------------|

e
B
G
D
A
E

/------3------\
/---3---\
----19>(21)-19---18-17--15-----15-----|---------------------------17-19----|
-17------------------------17-----17--|---17-19-19>(21)--19>(21)--------17-|
--------------------------------------|------------------------------------|
--------------------------------------|------------------------------------|
--------------------------------------|------------------------------------|
--------------------------------------|------------------------------------|

Tabbed by Marcelo Melero.

Tablature.host.sk

Pagina 178 di 182

You Shook Me by Willie Dixon and J.B. Lenoir


performed by Led Zeppelin on Led Zeppelin
Wow, my first tab, and from the greatest band to ever play. I figured
this out by myself, no books (hence the many errors) Ok, this is a
basic slow blues, in E, as far as I can tell.
Intro:
E-|--------------------------------------------------------------------------B-|-17-17-15-17--15-12--------------\17-17-15-17-15--12----12----------------G-|--------------------14-12----------------------------14----14-12^---------D-|--------------------------14\0------------------------------------14\0----A-|--------------------------------------------------------------------------E-|---------------------------------------------------------------------------

E-|--------------------------|
B-|--------------------------|
G-|-------14-12^-------------|
D-|-12-14--------14^-12-14-12|
A-|--------------------------|
E-|--------------------------|

Then some weird slide thing...


If I had my slide, I'd figure it out.

1st verse
You

Know You Shook Me...

You shook me all night long...

E-|--------------------------------------------------------------------------B-|--------------------------------------------------------------------------G-|--------------------------------------------------12----------------------D-|--2--7--5--2--2--2--2--2---7--5--2-------12---14-------14-----------------A-|--2--7--5--2--2--4--4--2---5--5--2----14---------------------12\0---------E-|--0--5--3--0--0--0--0--0---5--3--0----------------------------------------|

You know you shook me baby


E-|--------------------------------------------------------------------------B-|--------------------------------------------------------------------------G-|-----------------------------------------12-------------------------------D-|--2--7--5--2--2--2--2--2--------12--14--------14--12-14\0-----------------A-|--2--7--5--2--2--4--4--2---14---------------------------------------------E-|--0--5--3--0--0--0--0--0---------------------------------------------------

You shook me all night long


E-|--------------------------------------------------------------------------B-|--------------------------------------------------------------------------G-|--------------12----------------------------------------------------------D-|------12---14------14----12\0----2--7--5--2--2--2--2--2-------------------A-|-14------------------------------2--7--5--2--2--4--4--2-------------------E-|---------------------------------0--5--3--0--0--0--0--0--------------------

Tablature.host.sk

Pagina 179 di 182

You shook me so hard baby

Baby, baby

please

come home

E-|--------------------------------------------------------------------------B-|--12-------12----15-12----------17-15-17-15-------------------------------G-|------14------14-------14-12\0--------------16-14-16-14--12^--------------D-|---------------------------------------------------------------14---------A-|--------------------------------------------------------------------------E-|---------------------------------------------------------------------------

E-|-----------------------|
B-|-----------------------|
G-|-------14-12^----------|
D-|----14--------14^-12\0-|
A-|-14--------------------|
E-|-----------------------|

I have a bird

Ok, 2nd verse is the same, except Robert


is talking about a bird or something.
Jimmy varies a little, and I've tried to
tab that out.

won't do nothin'

AAAAAHHH

(Lets see him do that now)

E-|-----------------------------------------22^-22^-22^-22^-22^-22--19-------B-|------------------15--12--------------------------------------------22----G-|-14-14^-14-14^-14--------14--12\0-----------------------------------------D-|--------------------------------------------------------------------------A-|--------------------------------------------------------------------------E-|---------------------------------------------------------------------------

Buy a diamond ring yeah!


E-|-19--------------------------------------------------------19-|
B-|----22-19^-----------22-20-22-22-20^-----------------20-22----|
G-|-----------21-----21-----------------21-19-21-19--21----------|
D-|---------------21---------------------------------------------|
A-|--------------------------------------------------------------|
E-|--------------------------------------------------------------|

Ok, now we have an organ solo, harmonica solo, and a guitar solo.
Here are the basic chords played during all three. This is not
entirely accurate, but it's good enough for me. Sorry I couldn't
tab out the guitar solo, it's too fast for me to tab, but I can
fake it on a good day...
E-|--------------------------------------------------------------------------B-|--------------------------------------------------------------------------G-|--------------------------------------------------------------------------D-|--2-7-5-2-2-2-2-2-2-7-5-2-2-2-2-2-2-7-5-2-2-2-2-2-2-2-7-5-2-2-2-2-2-2-2-2-A-|--2-7-5-2-2-4-4-2-2-5-5-2-2-4-4-2-2-5-5-2-2-2-4-4-2-2-5-5-2-2-2-4-4-2-2-2-E-|--0-5-3-0-0-0-0-0-0-5-3-0-0-0-0-0-0-5-3-0-0-0-0-0-0-0-5-3-0-0-0-0-0-0-0-0--

E-|--------------------------------------------------------------------------B-|--------------------------------------------------------------------------G-|--------------------------------------------------------------------------D-|-5-5-5-5-5-5-5-5-5-5-5-5-5-5-5-5-5-5-2-2-2-2-2-2-7-5-2-2-2-2-2-2-2-2-3-7-9A-|-7-5-7-7-9-9-7-7-5-7-3-7-9-9-7-3-7-3-2-2-2-4-4-2-5-5-2-2-2-4-4-2-2-2-3-7-9E-|-7-3-7-7-7-7-7-7-3-7-3-7-7-7-7-3-7-3-0-0-0-0-0-0-5-3-0-0-0-0-0-0-0-0-5-5-7-

Tablature.host.sk

Pagina 180 di 182

A few of these, then


E-|-7------------------------------------------------------------------------B-|-7------------------------------------------------------------------------G-|-8------------------------------------------------------------------------D-|-9---------------------7---------5-5---------7-7-5-5-4-4-2-2--------------A-|-9---------------------7-----5-7-----7-5-7-7-7-7-5-5-4-4-2-2--------------E-|-7---------------------5--5-7----------------5-5-3-3-2-2-0-0---------------

3rd
You

verse, more of the same, here's the variations...


shook

me

soo

hard

baby

E-|-------------------------------------------15^-15-15^-12------------------B-|---------------------------------15^-12-15--------------------------------G-|--14^-14-12-14-12-14-12-14^-----------------------------------------------D-|--------------------------------------------------------------------------A-|--------------------------------------------------------------------------E-|---------------------------------------------------------------------------

Babe....

Ah Ahh...

Ah Ahhhh...

E-|---------------15^-15^-----------------15^-15^15----------15^-15-12--12---B-|-------------------------------------------------------------------15--15-G-|--------------------------------------------------------------------------D-|--------------------------------------------------------------------------A-|--------------------------------------------------------------------------E-|---------------------------------------------------------------------------

Ah Ahhhhh...

Ah Ahhhh...

Ah Ahhh...

E-|--------15^-15-12--12-------------17^-12-12-------17^v^-12-12-------------B-|-----------------15--15---------------------------------------------------G-|--------------------------------------------------------------------------D-|--------------------------------------------------------------------------A-|--------------------------------------------------------------------------E-|---------------------------------------------------------------------------

Coda:
You shook me all night long...
E-|-----------------------------------------------------12-15-15^v^v^v^------B-|-----------------------------------------------12-15----------------------G-|---14^v^v^----------------------------------------------------------------D-|--------------------------------------------------------------------------A-|--------------------------------------------------------------------------E-|---------------------------------------------------------------------------

E-|-15-12----12\0------------------------------------------------------------B-|-------15-----------------------------------------------------------------G-|--------------------------------------------------------------------------D-|------------------2/7\2---------------------------------------------------A-|------------------2/7\2---------------------------------------------------E-|------------------0/5\0----------------------------------------------------

Tablature.host.sk

Pagina 181 di 182

Here's Led Zeppelin's "Your Time Is Gonna Come".


Most of it is just this arpeggiated pattern...:
|--------2----3---0|-----3---0--------|
|------3-----3---3-|----3---3----3--3-|o
|----2------0---0--|---0---0----------|
|--0---------------|------------03-03-|
|----------3---3---|----------03------|o
|------------------|--3---3-----------|
1 . 2 . 3 . 4 .
1 . 2 . 3 . 4 .
changing to this:
|--------5----7---5|-----3---3---5---3|
|------7-----5---5-|----5---5---3---3-|
|----7------6---6--|---5---5---4---4--|
|--0-------0---0---|--0---0---0---0---|
|------------------|------------------|
|------------------|------------------|
1 . 2 . 3 . 4 .
1 . 2 . 3 . 4 .

Tablature.host.sk

G
"Your time is gonna come."

Pagina 182 di 182