You are on page 1of 5

25/12/2014

JasonMraz93MillionMiles|CifraClub

93MillionMiles
JasonMraz
Tom: D#
Capotraste na 1 casa

Intro:

D5

G7M

Em

D5

Primeira Parte:
D5

93 million miles from the sun

People get ready, get ready


G7M
Cause here it comes
It's a light a beautiful light
Em
Over the horizon into our eyes
D5
Oh my my how beautiful
Oh my beautiful mother
G7M
She told me, son in life you're gonna go far
Em
If you do it right
A
A4
You'll love where you are
Primeiro Refro:
A
Just

G7M
Em
know, wherever you go

A
D5 G7M
You can always come home

Em

Segunda Parte:
D5

240 thousand miles from the moon

We've come a long way to belong here


G7M
To share this view of the night a glorious night
Em
Over the horizon is another bright sky
D5
Oh my my how beautiful
Oh my irrefutable father
G7M
He told me, son sometimes it may seem dark
Em
But the absence of the light
A
A4
Is a necessary part
Segundo Refro:
A
Just

G7M
Em
know, you're never alone

A
D5
You can always come back home
G7M
Em
Home, Home
A
Bm11 A G7M
You can always come ba____________ck

http://www.cifraclub.com.br/jasonmraz/93millionmiles/imprimir.html

1/5

25/12/2014

JasonMraz93MillionMiles|CifraClub

Terceira Parte:
F#m7
G7M

Every road is a slippery slope

But there is always a hand

F#m7
That you can hold on to
Looking deeper through the telescope
G7M

You can see that your

G#m7(5-)
A7
Home's inside of you

A#

Terceiro Refro:
G7M
Em
Just know, that wherever you go
G7M
No you're never alone
A
D5
You will always get back home
G7M
Em
D5
Home, Home, Home
G7M
Em
D5
Ooohhh... Ooohhh... Ooohhh...
Primeira Parte Final:
D5

93 million miles from the sun

People get ready, get ready


G7M
Cause here it comes
It's a light a beautiful light
Em
D5
Over the horizon into our eyes
Intro:
Parte 1
D
E|-----------------------------------------|
B|-----------------------------------------|
G|-------2-------2-------------------------|
D|---4-------4-------4---4---2---0---------|
A|-----0---0---0---0---0---0---0-----------|
E|-0---0---0---0---0---0---0---0-----------|
Parte 2
D5
E|-----------------------3---2-------------|
B|-------3-------3-------3---3---0---------|
G|-------2-------2-------2---2---0---------|
D|---0-------0-------0-----------0---------|
A|-0---0---0---0---0---0---0---0-----------|
E|-0---0---0---0---0---0---0---0-----------|
Parte 3
E|-------------------3---2-----------------|
E|-------------------3---2-----------------|
B|-------------------0---0---0-------------|
G|---0-------0-------0---0---0-------------|
D|---4---4-------4-----------0-------------|
A|---5-5---5---5---5---5---5---------------|
E|-5-5-5---5---5---5---5---5---------------|

http://www.cifraclub.com.br/jasonmraz/93millionmiles/imprimir.html

2/5

25/12/2014

JasonMraz93MillionMiles|CifraClub

Parte 4
Em
E|-----------2-0---------------------------|
B|-----------0---3-2/3-3-------------------|
G|---0---0---------------0-----------------|
D|---2---2-----------------0---------------|
A|---2-2-2-2-------------------------------|
E|-2-2-2---2-------------------------------|
Parte 5
D5
E|-----------------------------------------|
B|---3-------3-----------------------------|
G|---2-------2-----------------------------|
D|---0---0-------0---4---2---0-------------|
A|-0-0-0---0---0---0---0---0---------------|
E|-0-0-0---0---0---0---0---0---------------|
Parte 6
E|-----------------------------------------|
E|-----------------------------------------|
B|-----------------------------------------|
G|---2-------2-------2-----2-0-------------|
D|---0---0-------0-------0-0---------------|
A|-0-0-0---0---0---0---0---0---------------|
E|-0-0-0---0---0---0---0---0---------------|
Primeira Parte:
Parte 1
D5
E|-----------------------------------------|
B|---3-------3-------3-------3-------------|
G|---2-------2-------2-------2-------------|
D|---0---0-------0-------0-----------------|
A|-0-0-0---0---0---0---0---0---------------|
E|-0-0-0---0---0---0---0---0---------------|
Parte 2
D5
E|-----------------------------------------|
B|-------3-------3-------3-------3---------|
G|-------2-------2-------2-------2---------|
D|---0-------0-------0-------0-------------|
A|-0---0---0---0---0---0---0---0-----------|
E|-0---0---0---0---0---0---0---0-----------|
Parte 3
G7M
E|-----------------------------------------|
B|-----------------------------------------|
G|---0-------0-------0-------0-------------|
D|---4---4-------4-------4-----------------|
A|---5-5---5---5---5---5---5---------------|
E|-5-5-5---5---5---5---5---5---------------|
Parte 4
Em

http://www.cifraclub.com.br/jasonmraz/93millionmiles/imprimir.html

3/5

25/12/2014

JasonMraz93MillionMiles|CifraClub

E|-----------------------------------------|
B|-----------------------------------------|
G|---0-------0-------0-------0-------------|
D|---2---2-------2-------2-----------------|
A|---2-2---2---2---2---2---2---------------|
E|-2-2-2---2---2---2---2---2---------------|
Preparao refro:
A

A4

E|-----------------------------------------|
B|---2-------3-------2---------------------|
G|---2-------------------------------------|
D|---2---2-2-----2-2-----2-2-2-------------|
A|-0-0-0---0---0---0---0---0---------------|
E|-----------------------------------------|
Refro:
Parte 1
G7M
E|-----------------------------------------|
B|-----------------------------------------|
G|---0-------0-------0-------0-------------|
D|---4---4-------4-------4-----------------|
A|---5-5---5---5---5---5---5---------------|
E|-5-5-5---5---5---5---5---5---------------|
Parte 2
Em

E|-----------------------------------------|
B|-----------------------------------------|
G|---0-------0---2-------2-----------------|
D|---2---2-------2---2---2-----------------|
A|---2-2---2---0-0-0---0-------------------|
E|-2-2-2---2-------------------------------|
Variao Introduo:
Parte 1
E|-------------------3---2-----------------|
E|-------------------3---2-----------------|
B|---3-------3-------3---3---0-------------|
G|---2-------2-------2---2---0-------------|
D|---0---0-------0-----------0-------------|
A|---0-0---0---0---0---0---0---------------|
E|-0-0-0---0---0---0---0---0---------------|
Parte 2
G7M
E|-------------------3---2-----------------|
B|-------------------0---0---0-------------|
G|---0-------0-------0---0---0-------------|
D|---4---4-------4-----------0-------------|
A|---5-5---5---5---5---5---5---------------|
E|-5-5-5---5---5---5---5---5---------------|
Parte 3
Em

http://www.cifraclub.com.br/jasonmraz/93millionmiles/imprimir.html

4/5

25/12/2014

JasonMraz93MillionMiles|CifraClub

E|-----------------------------------------|
B|-----------------------------------------|
G|---0-------0-------0-------0-------------|
D|---2---2-------2-------2-----------------|
A|---2-2---2---2---2---2---2---------------|
E|-2-2-2---2---2---2---2---2---------------|
Segundo Refro:
Parte 1
E|-----------------------------------------|
E|-----------------------------------------|
B|-----------------------------------------|
G|---0-------0-------0-------0-------------|
D|---4---4-------4-------4-----------------|
A|---5-5---5---5---5---5---5---------------|
E|-5-5-5---5---5---5---5---5---------------|
Parte 2
Em

E|-----------------------------------------|
B|-----------------------------------------|
G|---0-------0---2-------2-----------------|
D|---2---2-------2---2---2-----------------|
A|---2-2---2---0-0-0---0-------------------|
E|-2-2-2---2-------------------------------|
Parte 3 (2x)
D5
E|-----------------------------------------|
B|---3-------3-------3-------3-------------|
G|---2-------2-------2-------2-------------|
D|---0---0-------0-------0-----------------|
A|-0-0-0---0---0---0---0---0---------------|
E|-0-0-0---0---0---0---0---0---------------|

A#

A4

A7

Bm11

*Bbcomforma
deA

*Bcomforma
deA#

*Bb4comforma
deA4

*Bb7comforma
deA7

*Bbcomforma
deA

*Cm11com
formadeBm11

D5

Em

F#m7

G#m7(5)

G7M

*Ebcomforma
deD

*Eb5comforma
deD5

*Fmcomforma
deEm

*Gm7com
formadeF#m7

*Am7(5)com
formade
G#m7(5)

*Ab7Mcom
formadeG7M

http://www.cifraclub.com.br/jasonmraz/93millionmiles/imprimir.html

5/5