You are on page 1of 211

Report No.

430

MIGRATION
IN
INDIA
(JANUARY(JANUARY-JUNE 1993)

NSS 49TH ROUND

National Sample Survey Organisation


Department of Statistics
Government of India
OCTOBER, 1998

PREFACE

The National Sample Survey Organisation (NSSO) in its 49th round (January to June 1993) carried-out a
nationwide comprehensive survey on `Migration to measure the different dimensions of migration in its
various facets. Earlier, comprehensive data on migration were collected in NSS 38th round (Jan - Dec,
1983) and 43rd round (July 1987 - June 1988) as a part of the enquiry on Employment & Unemployment
surveys.
The present report contains the results based on the Central Sample data collected in the 49th round on
several aspects of migration, during the reference period, such as rate & reasons of migration by sex and
of households in different social categories of the population, return migration, out-migration and
occupational status of migrants as well as the type of structure of their residence before & after
migration. This report has been divided into seven chapters under three major sections and begins with
Highlights of the survey. Section I provides information of general nature viz. Introduction, Concepts &
Definitions and Sample Design & Estimation Procedure in chapters I to III respectively. Section II
summarises the findings of the survey in four chapters entitled Migrant Households, Migrants, Outmigrants & Return migrants in chapters IV to VII respectively. Section III presents detailed tables under the
title Appendix.
The field work of the survey was conducted by the Field Operations Division. Data Processing and
tabulation were handled by the Data Processing Division and Computer Centre respectively. The Survey
Design and Research Division was responsible for the designing of the survey and preparing the report. I
am grateful to the members of the Governing Council, Heads of various Divisions of NSSO, Executive
Director, Computer Centre and their colleagues for their sincere efforts in bringing-out the report in its
final form. It is hoped that this report would serve as a reference document to the users of the NSS data.

New Delhi
Dated :October ,98

Dr. N.S.Sastry
Director General & Chief Executive Officer
National Sample Survey Organisation

CONTENTS
PAGE(S)
Highlights
SECTION

H(i)-H(ii)

GENERAL INFORMATION

CHAPTER

Introduction

1 - 2

CHAPTER

II

Concepts and Definitions

3 - 4

CHAPTER III

Sample Design and Estimation


procedure

5 - 8

SECTION

II

: SUMMARY FINDINGS

CHAPTER IV

: Migrant Households

CHAPTER

: Migrants

14 - 21

: Out-Migrants

22 - 35

CHAPTER VI
CHAPTER

VII : Return-Migrants

SECTION III

9 - 13

36 - 43

: APPENDIX

: LIST OF APPENDIX TABLES


: APPENDIX TABLES

A(i)-A(ii)
A1 - A161

HIGHLIGHTS

H.1 General
The coverage of migration in the present round
is much wider. Detailed information on
migration has been collected to provide
infirmation on different facets of migration.
For this reason we find separate migration data
for males & females, migrant households,
return-migrants, the structure of the residence
of the migrants' households before & after
migration, status of the migrants before and
after migration and other details on migration.
It is to be noted that comprehensive data on
out-migrants & return-migrants have been
collected for the first time in the 49th round.
H.2 Migrant households
H.2.1 Only 1.1% of rural households and 2.2%
of urban households are classified as migrant
households , which have moved to their
current place of residence during the year
preceding the date of survey.
H.2.2 The rate of migration for ST households
is higher than the rate for other groups in both
the sectors. The difference is more pronounced
in rural India than urban India.
H.2.3 The rate of migration of households in
Higher MPCE group is higher than the
corresponding rate in the Lower MPCE \
Middle MPCE groups in both the sectors.
H.2.4 At All India level, movements within
state account for 77.5% of total migrant
households in urban India & 85.5% in rural
India.
H.2.5 The rate of migration of households
from rural India is less than the corresponding
rate for urban India.
H.2.6 Movement of households is mainly
guided by the employment angle. It accounts
for 67.5% of the household migration to rural
India & 60.2% of the household migration to
urban India. Another important reason of
migration of households is Study which

accounts for 10.6% of the household migration


to rural India and 24.6% of the household
migration to urban India.
H.2.7 There is an inverse relationship between
the land possessed and migration of the
household.
H.2.8 In both the sectors, residential status of
migrant households has improved considerably
after migration in the sense that larger number
of migrant households have shifted to higher
categories (no structure to others, katcha to
semi-pucca/pucca or semi-pucca to pucca)
than to the lower categories (pucca to others,
semi-pucca to katcha/no structure or katcha to
no structure). Regarding migrant households
having no structure before migration, it is
observed that the proportion of such migrant
households has reduced considerably in both
the sectors after migration as the proportion in
rural India has gone down from 2.0% to 0.7%
and in urban India from 0.6% to 0.3% after
migration.
H.2.9 At All India level migrant households
reporting temporary movement account for
45.2% of the total migrant households in urban
India, whereas the corresponding figure for the
rural India is 48.7%.
H.3 Migrants
H.3.1 At all India level migrants account for
24.68% of the population. In case of rural
population the share of migrants is 22.74%
where as the corresponding share in urban
population is 30.65%..
H.3.2 The break up of estimated number of
migrants in the country by sex and sector is as
follows: females (77.35%), males (22.65%);
in rural India (69.64%), in urban India
(30.36%); from rural India (81.26%), from
urban India (17.71%)
and
from other
countries (1.03%).
H.3.3 Among migrants in rural India, male
migrants constitute 14.60% and female migrants
H(i)

85.40%, whereas in urban India, male migrants


constitute
41.12% and female migrants
58.88%.H.3.4 The tendency to migrate to urban
India is stronger than the tendency to migrate to
the rural India in all social group.

from rural India (85.48%) and from urban


India (14.52%). The share of male outmigrants in out-migrants from rural India is
90.44%, whereas the corresponding figure
for urban India is 86.55%.

H.3.5 In both the sectors, the rate of migration


for ST' is higher than the rate for other groups
and the difference is more pronounced in rural
sector.

H.4.2 The average number of out-migrants


per household reporting out-migration from
rural India is 1.14 persons and 1.17 persons
for urban India.

H.3.6 A majority of male migrants are from


Employed' category and female migrants are
from Not in Labour Force' category in both the
sectors. The situation after migration has also
been the same in both sectors.

H.4.3 The rate of out-migration for rural


India is higher than that of urban India for
males, females and combined population. It
is also clear that this rate for male population
is much higher than the corresponding rate
for female population.

H.3.7 The proportion of labour force in the


migrant population has increased after migration
in comparison to the position before migration
and consequently category Not in Labour
Force has shrunk in all the cases.

H.4.4 In both the sectors, the prominent


reason for out-migration in case of males is
search
for
employment
or
better
employment, whereas for female outmigration it is movement of parents /
earning members

H.3.8 In almost all cases of occupation, majority


of migrants of both sexes and sectors has
remained in the same occupation category.

H.4.5 we observed that most of the employed


male out-migrants have made remittances.
The percentage making remittance varies
from about 90% in the case of male outmigrants within country from rural sector (to
any sector ) to about 72% in case of male
emigrants from urban sector.

H.3.9 In case of male migrants, movements in


both the sectors are mainly guided by
employement angle. In case of female migrants,
they are mainly due to the reasons movement
of parents/earning members' and marriage'. It is
also important to note that the percentage of
movements because of marriage has a declining
trend over time in both the sectors for female
migration.

H.5 Return-migrants
H.5.1 The rate of return migration to rural
India is higher than the corresponding rate
for urban India.

H.3.10 Migration to a state is mainly from the


state itself. At all India level, out of 1000
migrants in rural India, 744 come from the same
district, 191 from the other districts of same
state, 55 from the other states of the country and
9 from other countries (NR=2). The
corresponding figures in urban India are 417,
344 , 224 and 13 respectively (NR=2).

H.5.2 At All India level, number of female


return-migrants is more than their male
counterpart . This is basically because of
very high percentage of female migrants
(77.35%) in the total migrants
H.5.3 In case of male return migrants, the
data confirm the high share of return
migrants from abroad for Goa, Kerala and
Punjab despite the small number of return
migrants in the sample.

H.4 Out-migrants
H.4.1 The break up of out-migrants are as
follows: males (89.87%), females (10.13%);
H(ii)

CHAPTER ONE
1. INTRODUCTION

the usual members of the sample households


were also collected.

1.1 Data on migration apart from forming an


important component of inter-census
estimation of regional population, provide
ample opportunity to study the cause-andeffect relationships between migration and
its perceived determinants.

1.7 In the 38th round the collection of


migration data was integrated with the
regular quinquennial surveys on employment
& unemployment. The same approach was
followed during the 43rd round also. The
results based on the 38th & the 43rd rounds
have been released in the Sarvekshana Issue
42, VoL.XIII ,No.3 and Issue 51, Vol.XV, No.4
respectively.

1.2 Human mobility ( migration ) is supposed


to be governed by a set of social, economic,
political, cultural and personal factors and as
such it is of interest from more than one
angle. However, as the changes in economic
factors are faster and wider than the changes
in other factors, migration has mainly been
studied by the scholars from an economic
perspective .Here attempts have been made
to provide data on all facets of migration.

1.8 Present Round : It was felt that a


comprehensive study on migration was
necessary and thus, for the first time an
integrated
Schedule
1.2
providing
comprehensive
coverage
of
housing
condition & Migration was designed for the
49th round. Listing Schedule 0.0 was used to
net adequate migrant households for
detailed enquiry through Schedule 1.2.

1.3 Past studies have shown that urbanisation


results in movement of people from rural
areas to urban areas. More the economic
inequality between the two places, higher is
the migration. The case of labour migration
to Punjab from Bihar and other places has
widely been quoted as an example. This
factor alone necessitates the need for
periodic data on migration.

1.9 The present study is different from the


earlier study in the sense that the coverage in
the present round has been much wider.
Provisions for collecting detailed information
on migration have been made with a view to
throw data on different facets of migration.
For this reason we find separate migration
data for males & females, migrant
households, return migrants, the structure of
the residence of the migrants' households
before & after migration, status of the
migrants before and after migration and
other details on migration. It is to be noted
that comprehensive data on out-migrants &
return-migrants have been collected for the
first time in the 49th round.
1.10 The report is based on the data collected
during the 49th round of NSSO [JANUARY
1993 - JUNE 1993] through Schedule 1.2. The
schedule was canvassed

1.4 In recent past, the economic scene in


India has under gone a sea-change because of
globalisation & liberalisation process initiated
in 1990-91. The present data has been
collected during Jan-June 1993, i.e, after the
initial phases of the
globalisation /
liberalisation .
1.5 Data on migration was first collected by
NSSO in its 9th Round as part of its enquiries
on employment and unemployment followed
by the 11th & the 12th rounds. In these
rounds of surveys, migration particulars were
collected for the labour force population
only. From the 13th round onwards, more
detailed information on internal migration
has been collected. In the 18th round, survey
on internal migration was conducted on a
much larger scale with a view to provide
estimates comparable to the Census data on
internal migration.

throughout India excluding (a) Ladakh and


Kargil districts of Jammu & Kashmir, (b) All
the villages of Nagaland located beyond 5
kms. of a bus route and (c) 172 inaccessible
villages of Andaman & Nicobar Islands.

1.6 In the NSS 28th round Survey on birth,


death & disability, migration particulars of
1

1.11 In the case of Central Sample, 4822


villages in rural sector & 2791 blocks in urban
sector were surveyed. The various terms used
in the survey have been explained in Chapter
II: "CONCEPTS & DEFINITIONS" to facilitate
proper interpretation & comparison. A note
on survey design & estimation procedure has
been given in Chapter III.

1.12 The present report is based on selected


tables obtained from the data of the 49th
round. It has not been possible to include all
the tables in the report. Tables 3-11, 13, &
15-22 have been given for All-India only.
1.13 The present report has been divided into
three sections as mentioned in the contents
page. Section II: "SUMMARY FINDINGS" has
been divided into four chapters , each dealing
with different dimensions of migration.
1.14 At places proportion per thousand has
been referred as rate
for comparison
purpose only ignoring the common factor
Time.

*****

CHAPTER TWO
CONCEPTS & DEFINITIONS

person depending on the period of stay at


the place of enumeration.

2.1 House : Every structure ,tent, shelter,


etc. is a house irrespective of its use. It may
be used for residential purpose or nonresidential purpose or both or even may be
vacant.

2.5 Migrant household : A household


which has moved to the place of
enumeration during the last 365 days
before the date of survey has been
classified as a migrant household.

2.2 Household : A group of persons


normally living together and taking food
from a common kitchen constitutes a
household. The word "normally" means that
temporary visitors are excluded but
temporary stay-aways are included. Thus, a
son or daughter residing in a hostel for
studies is excluded from the household of
his/her parents, but a resident employee or
resident domestic servant or paying guest
(but not just a tenant in the house) is
included in the employer/host's household.
"Living together" is usually given more
importance than "sharing food from a
common kitchen" in drawing the
boundaries of a household, in case the two
criteria are in conflict; however, in the
special case of a person taking food with his
family, but sleeping elsewhere (say in a
shop or a different house) due to space
shortage, the household formed by such a
person's family members is taken to include
the person also. Each inmate of a mess,
hotel, boarding and lodging house, hostel,
etc. is considered as a single-member
household except that a family living in a
hotel (say) is considered as one household
only; the same applies to residential staff of
such establishments.

2.6 Out-migrant : Any former member of a


household who left the household for stay
outside the state during the last 5 years
before the date of survey has been
considered as out-migrant provided he/she
was alive and residing outside the state on
the date of enquiry.
2.7 Migrant : A person, whose last usual
place of residence was different from the
present place of enumeration on the date
of enquiry has been considered as migrant.
2.8 Return-migrant : A migrant whose
place of enumeration was his/her UPR
anytime before his/her last UPR has been
considered as a return-migrant.
2.9 Pucca structure : A pucca structure is
one whose walls and roofs (at least) are
made of pucca materials such as cement,
concrete, over burnt bricks, stone, stone
blocks, jack boards (cement plastered
reeds), iron and other metal sheets, timber,
tiles, slate, corrugated iron, zinc or other
metal sheets, asbestos cement sheet, etc.
2.10 Katcha structure : A structure which
has walls and roof made of non-pucca
materials is regarded as a katcha structure.
Non-pucca materials include unburnt bricks,
bamboo, mud, grass, leaves, reeds and/or
other thatch. Katcha structures can be of
the following two types :
(a) Unserviceable katcha: This includes all
structures with thatch walls and thatch roof
i.e. walls made of grass, leaves reeds etc.
and roof of a similar material and

2.3 Household size : The number of


normally resident members of a household
is its size.
2.4 Usual place of residence (UPR): In this
survey usual place of residence(UPR) has
been defined as a place (village/town)
where the person has stayed continuously
for a period of six months or more. Here, it
may be noted that the place of
enumeration may or may not be UPR of a

2.13 Self-employed : Persons, who work in


their own farm or non-farm enterprises are
defined as self-employed, the term used to
designate their activity status. There are
different kinds of self-employed, some may
operate their enterprises without hiring any
labour, some other may occasionally hire a
few labourers. There is also a third category
who, by and large, regularly run their
enterprise by hiring labourers. The first two
categories of self-employed are ownaccount workers' and the third the
employer'. Self-employed persons who are
mainly engaged in agriculture and related
activities (industry section 0) are selfemployed in agriculture. Unpaid family
workers who work for the family firms
without receiving any payment and helpers,
i.e, those household members who have no
share in the family enterprises but receive
only shelter, food and clothing etc. and no
wages are also to be considered as selfemployed.

(b) Serviceable katcha: This includes all


katcha structures other than unserviceable
katcha structures.
2.11 Semi-pucca structure : A structure
which cannot be classified as a pucca or a
katcha structure as per definition, is a semipucca structure. Such a structure will have
either the walls or the roof but not both,
made of pucca materials. Walls/roof made
partially of pucca materials are regarded as
katcha walls/roof.
2.12 Gainful activity : Activity pursued by
persons for pay, profit, gain or in other
words, the activity which adds value to the
national product'. Normally, it is an activity
which results in production of goods and
services' for exchange. However, the
activities in agriculture' (i.e. all activities
relating to industry section 0) in which a
part or whole of the agricultural production
is used for own consumption and does not
go for sale are also considered gainful'.
Execution of household chores or social
commitments, etc. however, are not
considered gainful activities. The activities,
such as prostitution, begging etc. which may
result in earnings, are also by convention
not considered gainful'.

2.14 Rural labour : A rural labour is one


who is engaged in manual labour (jobs
essentially involving physical labour),
residing in rural areas and working in
agricultural or non-agricultural occupation
in return for wages paid either in cash or
kind (excluding exchange labour).
2.15 Casual labour : Persons engaged in
others farm or non-farm enterprise (both
household and non-household) and getting
in return wages according to terms of the
daily wage or periodic word contract are
treated as casual labourers.
*****

CHAPTER THREE

SAMPLE DESIGN AND ESTIMATION PROCEDURE

3.3 Stratification for rural sector : States have


been divided into NSS regions by grouping
contiguous districts similar in respect of
population density and crop pattern. In
Gujarat, however, some districts have been
split for the purpose of region formation,
considering the location of dry areas and
distribution of tribal population in the state. In
the rural sector, each district with 1981 / 1991
census rural population less than, 1.8 million/2
million formed a separate stratum. Districts
with larger population were divided into two or
more strata, by grouping contiguous tehsils.

3.1 A two-stage stratified design was adopted


for the 49th round survey. The first-stage
units(fsu) were census villages in the rural
sector and U.F.S. (Urban Frame Survey) blocks
in the urban sector.(However, for some of the
newly declared towns of 1991 census for which
UFS frames were not available, census EBs
were first-stage units). The second-stage units
were households in both the sectors. In the
central sample altogether 5112 sample villages
and 2928 urban sample blocks at all-India level
were selected. Sixteen households were
selected per sample village/block in each of
which the schedule of enquiry was canvassed.
The number of sample households actually
surveyed for the enquiry was 119403.

3.4 Stratification for urban sector : In the


urban sector, strata were formed, within the
NSS region, according to census population size
classes of towns. Each city with population 10
lakhs or more formed a separate stratum.
Further, within each region, the different
towns were grouped to form three different
strata on the basis of their respective census
population as follows : all towns with
population less than 50,000 as stratum 1, those
with population 50,000 to 1,99,999 as stratum2 and those with population 2,00,000 to
9,99,999 as stratum-3.

3.2 Sample frame for fsus : Mostly the 1981


census lists of villages constituted the sampling
frame for rural sector. For Nagaland, the
villages located within 5 kms. of a bus route
constituted the sampling frame. For Andaman
and Nicobar Islands, the list of accessible
villages was used as the sampling frame. For
the Urban sector, the lists of NSS Urban Frame
Survey (UFS) blocks have been considered as
the sampling frame in most cases. However,
1991 house listing EBs (Enumeration blocks)
were considered as the sampling frame for
some of the new towns of 1991 census, for
which UFS frames were not available.

3.5 Sample size for fsu's : The central sample


comprised 5112 villages and 2928 blocks. The
state/u.t. wise sample sizes for the central
sample are given in Table (1).

Table-1 :

Number of villages and urban blocks allotted and surveyed and no. of sample
households surveyed for each state/u.t. in rural and urban sector
----------------------------------------------------------------rural
urban
state/u.t.
----------------------------------------------no.of sample
no.of
no.of sample
no.of
villages
sample
blocks
sample
households.
households.
allotted surveyed
allotted surveyed
----------------------------------------------------------------(1)
(2)
(3)
(4)
(5)
(6)
(7)
----------------------------------------------------------------Andhra Pradesh
356
354
5474
212
211
3365
Arunachal Pradesh*120
101
1290
16
16
256
Assam
224
206
3280
72
71
1136
Bihar
472
443
6858
132
124
1980
Goa
20
20
233
12
12
181
Gujarat
160
160
2558
144
144
2287
Haryana
72
72
1136
40
40
636
Himachal Pradesh 132
129
1959
28
28
448
Jammu & Kashmir
184
64
1009
92
27
430
Karnataka
184
184
2914
156
156
2488
Kerala
204
190
2895
92
88
1408
Madhya Pradesh
376
374
5782
192
192
3049
Maharashtra
328
321
5033
344
323
5143
Manipur
68
68
1071
44
44
688
Meghalaya
72
69
1104
32
30
480
Mizoram
64
64
987
28
28
448
Nagaland
36
36
526
20
20
320
Orissa
224
201
3187
68
63
1005
Punjab
152
119
1893
124
118
1852
Rajasthan
208
208
3285
116
116
1837
Sikkim
28
28
448
12
12
192
Tamil Nadu
268
268
4244
264
264
4152
Tripura
124
107
1616
32
32
512
Uttar Pradesh
620
620
9763
276
275
4365
West Bengal
300
300
4718
216
216
3447
A & N Is.
44
44
701
24
24
384
Chandigarh
8
8
128
16
16
241
D & N Haveli
20
20
320
4
4
64
Daman & Diu
8
8
128
12
12
192
Delhi
8
8
92
84
61
957
Lakshadweep
8
8
80
12
12
192
Pondicherry
20
20
304
12
12
192
----------------------------------------------------------------All-India
5112
4822
75036
2928
2791 44367
----------------------------------------------------------------* 20 nucleus villages.
3.6 Selection of first stage units : The sample villages have been selected with probability proportional to
population with replacement and the sample blocks by simple random sampling without replacement.
Selection was done in both the sectors in the form of two independent sub-samples.

Estimation Procedure
Notation :
s = subscript for s-th stratum.
t = subscript for t-th sub-stratum ( for urban only ),t=1,2.
i = subscript for i-th sample village/block (fsu).
j = subscript for j-th second-stage stratum of a sample
village/block (j = 1,2).
k = subscript for k-th sample household.
l = subscript for l-th slum in a fsu.
D = total number of hamlet-groups/sub-blocks formed in the
sample village/block (D=1, 4, 5, 6, etc.)
C = adjustment factor, in case, a revenue village is surveyed instead of census village due to
some practical
difficulty. In fact, C = number of census villages in the surveyed
revenue village, whenever a revenue village is bigger than the census village; otherwise
C will be taken as 1.
N = total number of blocks in the frame of an urban sub-stratum or total number of villages
in a rural stratum of Arunachal Pradesh.
p = population of village as per the frame used for sampling.

zs

= total population of s-th stratum as per frame (for rural sector of all the states/u.t.'s
except Arunachal Pradesh).

n = number of villages/blocks surveyed (including uninhabited and zero cases but


excluding casualty & other not received cases)
0 & 1 = Subscripts for h.g /s.b numbers 0 & 1 respectively.
H = total number of households listed .
h = number of households surveyed and used for tabulation.
x & y = values of characters x & y .
^
Y = estimate of population total of the character y .
^
Estimates of aggregates : The formulae for
stratum, are given below.

Ys, the estimate of aggregate of any character y for s-th

Schedule 1.2: Rural ( other than Arunachal Pradesh )

Z 1 H
$
Y =

y
n C P h
ns

h sioj

si 0 j

j =1

i =1

si

k =1

si

D
(
+

si

si 0 jk

1) H
y
h

hsi 1 j

si 1 j

k =1

si 0 j

si 1 j

Schedule 1.2 : Urban (All States and U.Ts )

2
N
Y$s = st
t =1
nst

Hsti 0 j

i =1 j =1
hsti 0 j
nst

hsti 0 j

( Dsti 1) Hstilj h

stilj

sti 0 jk

k =1

hstilj

y
k =1

Schedule 1.2 : Rural (Arunachal Pradesh )

H
N
Y =
y
n
h
ns

hsij

sij

i =1 j =1

k =1

sij

sijk

*****

stiljk

si 1 jk

CHAPTER FOUR
MIGRANT HOUSEHOLDS

4.0 Sometimes instead of selected members


of a household, the household itself may
migrate from one place(village/town) to
another place(village/town) either in one go or
in a phased manner. As the reference period to
determine migrant households is one year
before the date of survey, the households all
whose members moved in a phased manner
but started and completed their journeys to
the place during the reference period have
also been considered as migrant households.
Here, it need be mentioned that
the
households migrating to the place of
enumeration before one year from the date of
survey have been clubbed with non-migrant
households. In this report, Tables 2 to 7 of
Appendix provide detailed picture on different
aspects of migrant households.

Dadar & Nagar Haveli and Himachal Pradesh


(1.1% each) .
In urban India, in case of following states /
union territories the proportion is at par or
more than All India average (2.2%):
A & N Island (9.2%) , Sikkim (8.7%) , Manipur
and Nagaland(4.9% each), Meghalaya (4.7%) ,
Himachal Pradesh and Jammu & Kashmir (4.5%
each), Laksha Dweep (3.6%) Tamil Nadu
(3.5%),Andhra Pradesh (3.3%), Gujarat (3.0%),
Karnataka (2.9%), Kerala and Assam (2.6%
each), Arunachal Pradesh and Madhya Pradesh
(2.5% each) and Harayana (2.2%).

4.1.2 Social dimension


Tables 2 & 3 of Appendix provide migration
status of different social groups. In case of
S.T(Schedule Tribe ) households, 2.7% of rural
households and 2.9% of urban households are
classified as migrant households. In case of
S.C(Schedule Cast) households, 2.1% of urban
households and 0.9% of rural households are
classified as migrant households. In case of
households belonging
to other category,
0.89% of rural households & 2.31% of urban
households belong to migrant category.
Clearly, the rate of migration for ST households
is higher than the rate for other groups in both
the sectors. Moreover, the difference is more
pronounced in rural India than urban India.

4.1 Migrant households :


Different perspectives
4.1.1
General:
Table-2 of Appendix
provides per thousand distribution of
households by migration status and social
group for each state and union territory for
each sector (rural & urban) separately. This
table reveals that at All India level in rural
India, 1.1% households belong to migrant
category, whereas corresponding figure for
urban India is 2.2%. The proportion of migrant
households in the states / union territories
varies from 9.2% in A & N Island to 0.1% in
Pondichery for urban India and from 9.8% in
Chandigarh to 0.1% each in Nagaland and
Daman & Diu for rural India.

4.1.3 Household Migration &


Possession of Land

In rural India, in case of following states / union


territories the proportion is at par or more
than All India average (1.1%):
Chandigarh (9.8%), A & N Island (7.6%),
Gujarat (5.3%), Lakshadweep (3.7%), Arunachal
Pradesh (2.7%), Manipur (2.3%), Jammu &
Kashmir (2.2%), Sikkim (1.4%), Kerala,
Maharastra and Uttar Pradesh (1.3% each),

Land is an important economic indicator in


rural India and a sign of affluence. Moreover,
as land is an immovable property, it may not
be easy for a landed household to move
permanently to other place. Households with
little land may find it easier to move to other
places. Table-3 of Appendix provides per
thousand distribution of households by land

possessed class for each social group and


households migration status for rural sector.

former account for 46.2% of the migrant


households & the latter for 0.9%, whereas in
the total rural population they account for 23%
& 1.9% respectively. The above trend is
present not only at the aggregate level but in
different social groups also. This indicates the
possibility of a relationship (negative) between
the land possessed and migration of the
household. The following chart shows the
relationship :

This table reveals that in rural India, from land


possessed point of view, the proportion of
migrant households belonging to the land
possessed class "LESS THAN 0.01 HECTARES" is
significantly high, whereas the proportion of
migrant households belonging to the land
possessed class "8.01 HECTARES AND ABOVE"
is significantly low . In percentage terms, the

MIGRATION AND POSSESSION OF LAND


2.5

RURAL INDIA
2

1.5

NUMBER OF
MIGRANT
HOUSEHOLDS
PER 100
HOUSEHOLDS

0.5

0
LESS
THAN
0.01

0.01 0.20

0.21 0.41 1.01 2.01 0.40


1.0
2.0
3.0
LAND POSSESSED CLASS
(HECTARES)

10

3.01 4.0

4.01 6.0

6.01 8.0

8.01 &
ABOVE

4.1.4 Migrant households and


MPCE Classes

Lower MPCE group / Middle MPCE group.


Moreover for each MPCE group the rate of
households migration to urban India is higher
than the corresponding rate of households
migration to rural India. This simply shows that
the tendency to migrate to urban India is
stronger than the tendency to migrate to the
rural India in all MPCE group.

Table-4 of Appendix provides proportion of


migrant households belonging to different MPCE
classes. Because of the small sample sizes, from
MPCE angle, no definite conclusion can be
drawn. However, by clubbing MPCE classes into
three MPCE groups, viz., Lower MPCE group
comprising of MPCE classes up to MPCE < Rs
385 in urban area and < Rs 215 in rural area,
Middle MPCE group comprising of MPCE classes
from Rs 385 to Rs 700 in urban area & Rs 215 to
Rs 385 in rural area and Higher MPCE group
comprising of remaining MPCE class, some
comparative statements / conclusions can be
made.

4.1.5 Migration of households Location of last residence


Table-5 of Appendix provides per thousand
distribution of migrant households by nature of
movement for each location of last residence. At
All India level, it is observed that within district
movement accounts for 40.9% of the total
migrant households in the urban India and
50.6% in the rural India. Movement from other
districts of the state accounts for 36.6% of the
total migrant households in urban India & 34.9%
in rural India. Therefore, at All India level, within
state movements account for 77.5% of total
migrant households in urban India & 85.5% in
rural India. Movement from another country is
negligible, and the remaining migrant
households
have
reported
inter-state
movement.

In urban India 41.7% of the migrant households


belong to Lower MPCE group where as 34.3%
migrant households belong to the Middle MPCE
group and the remaining
24% migrant
households belong to the Higher MPCE group. In
rural India 48.9% migrant households belong to
Lower MPCE group, 27.6% to Middle MPCE
group & 23.5% to Higher MPCE group. The
proportion of migrant households per 1000
households for different MPCE classes and
sectors is as follows :

MPCE CLASS

It is also observed that 51.32% of the migrant


households in urban India come from rural India
and 47.12% from other parts of urban India. In
rural India, the share of other parts of rural India
is 60.42% and that of urban India is 37.68%. The
share of rural India among total migrant
households is 56.89% (Rural to Rural + Rural to
Urban) and the remaining 30%(Urban to Urban +
Urban to Rural) comes from urban India. As the
proportion of rural India and urban India in total
households is 73.83% and 26.17% (refer Table-1
of Appendix), it can be concluded that the rate
of migration of households from rural India ( to
any area, i.e., rural or urban ) is significantly less
than the corresponding rate of migration of
households from urban India. The following
diagram shows the distribution.

No. of migrant households


per 1000 households.
Rural
Urban

Lower

9.46

15.74

Middle

9.33

25.88

Upper

35.99

48.79

It is observed that in both the sectors


rate(proportion) of migrant households
Higher MPCE group is higher than
corresponding
rates
for

the
for
the
the

11

FROM RURAL TO URBAN

FROM OTHER COUNTRIES


TO URBAN

FROM URBAN
TO URBAN

FROM RURAL TO
RURAL
FROM
OTHER
COUNTRIES
TO RURAL
FROM URBAN TO
RURAL

DISTRIBUTION OF MIGRANT HOUSEHOLDS BY ORIGIN

4.2 Why do households migrate ?

45.2% of the total migrant households in


urban India, whereas the corresponding
figure for the rural India is 48.7%. Migrant
households reporting permanent movement
account for 53.8% of the total migrant
households in urban India, whereas the
corresponding figure for rural India is 50%
(NR=1.3 FOR RURAL INDIA AND 1.00 FOR URBAN) . Some
temporary movements are seasonal in
nature. From this angle, it is seen that
seasonal temporary movements account for
13.4% of urban migrant households and
13.9% of rural migrant households.
Moreover, in both the sectors, non-seasonal
temporary movement accounts for more
migrant households than the seasonal
temporary movement.

Table-4 of Appendix throws light on the


reasons behind the migration of different
households.
Reasons
for
movement
(migration) of
households have been
categorised into 11 classes, 10 specific and 1
residual. Out of these 11 classes, 5 classes are
directly linked to employment. They are: (1)
in search of employment, (2) in search of
better employment, (3) to take up
employment / better employment, (4)
transfer of service / contract & (5) proximity
to place of work and they account for 67.5%
of the household migration to rural India &
60.2% of the household migration to urban
India. Another important reason of migration
of households is Study which accounts for
10.6% of the household migration to rural
India and 24.6% of the household migration
to urban India. The share of other reasons is
comparatively low and can be seen from
Table-4.

4.4 Residential structure of the


households before and after
migration

4.3 Nature of migration

Table-7 of Appendix gives the distribution of


migrant households by residential structure
before and after migration. From this table,
at All India level, it is observed that in rural
India/urban India, the proportion of
households before & after migration by
different types of structures is as follows

Table-5 of Appendix provides per thousand


distribution of migrant households by nature
of movement for each location of last
residence. From this table, it is observed that
at All India level migrant households
reporting temporary movement account for

12

PERCENTAGE DISTRIBUTION OF HOUSEHOLDS BEFORE AND AFTER MIGRATION BY


TYPE OF STRUCTURE

STRUCTURE
TYPE

RURAL
Before
Migration

Pucca
Semi-pucca
Katcha
No Structure

URBAN

After
Migration

31.8
28.0
36.6
2.0

49.2
19.4
30.5
0.7

From the above tables, it can be concluded


that in both the sectors residential status of
the migrant households has improved
considerably after migration in the sense that
larger number of migrant households have
shifted to higher categories (no structure to
others or katcha to semi-pucca/pucca or semipucca to pucca) than the lower categories
(pucca to others or semi-pucca to katcha/no
structure or katcha to no structure). Regarding
migrant households having no structure before
migration, it is observed that the proportion of
such migrant households has reduced
considerably in both the sectors after
migration as the proportion in rural India has
gone down from 2.0% to 0.7% and in urban
India from 0.6% to 0.3% after migration.

Before
Migration
64.0
23.7
10.5
0.6

After
Migration
84.7
11.4
3.7
0.3

Although , that is the general trend, fate of


some can be different. From Table-7 of
Appendix, we also observe that in rural India
only 82.5% of the households residing in pucca
houses before migration could occupy pucca
structure even after migration and the
remaining 17.5% occupied other types (lower
categories).
Similarly,
11.7%
migrant
households belonging to semi-pucca category
before migration have shifted to katcha
structure or no structure category(lower
categories). In urban India, similar situation
prevailed but with less intensity as 3.6% of
migrant households with pucca and 4.4% with
semi-pucca structures before migration
occupied lower quality structures after
migration.

*****

13

CHAPTER FIVE
MIGRANTS

5.0 People do migrate for different


reasons and the pattern of migration in
terms of volume, rate, composition, etc.
may change over time. It is important to
study the migration scenario in the above
context. Tables 13 to 21 of Appendix
throw light on these aspects of migration.

5.1 Migration
perspective

in rural India and 22.06% in urban India.


This shows that male migrants in urban
India have
out-numbered their rural counterparts,
whereas in the case of female migrants
the trend is opposite. The above

Different
FEM ALE(URBAN)
MALE(URBAN)

5.1.1 General : At all India level


migrants account for 24.68% of the
population. In case of rural population the
share of migrants is 22.74% where as the
corresponding share in urban population
is 30.65%.. Table-13 of Appendix provides
estimated number of migrants by state of
origin and period since migrated for each
state and union territory separately for
each sex (male, female and person) and
sector (rural and urban). It is observed
that the break up of estimated number
of migrants in the country by sex and
sector is as follows: females(77.35%),
males(22.65%); in rural India (69.64%), in
urban India (30.36%); from rural India
(81.26%), from urban India (17.71%) and
from other countries (1.03%).

MALE(RURAL)

FEMALE(RURAL)

DISTRIBUTION OF MIGRANTS

picture depicts the position :


[The estimates obtained from Table-13 of
Appendix marginally differ from those
obtained from Table-14 because of
exclusion of N.R cases for the period
elapsed since migration' from Table-13,
but their inclusion in Table-14].

Among migrants in rural India, male


migrants constitute 14.60% and female
migrants 85.40%, whereas in urban India,
male migrants constitute 41.12% and
female migrants 58.88%. Clearly, female
migrants have out-numbered their male
counterparts in both the sectors. Their
dominance is more pronounced in rural
India than in urban India.
Among male migrants in the country,
44.90% are in rural India and 55.10% in
urban India, whereas the corresponding
distribution for female migrants is 77.94%

14

The following table provides comparative


position for different rounds :

sector). The highest MPCE class (Rs. 385 &


ABOVE in rural India and Rs. 700 & ABOVE
in urban India) has the maximum rate, the
next highest MPCE class (Rs. 520 - 700) in
urban India has the next maximum rate in
all cases of sex, sector & period. The third
highest MPCE class has third highest rate
in almost all cases.

% OF MIGRANT IN THE POPULATION


Round
38th
(Jan`83 to
Dec`83)
43th (Jul`87
to Jun`88)
49th
(Jan`93 to
Jun`93)

Male

Rural
Female

Urban
Male Female

7.23

35.08

27.02

36.59

5.1.4 Occupation,
Migration

7.40

39.80

26.80

39.60

6.45

40.07

23.91

38.17

Table-21 of Appendix gives per thousand


distribution of migrants by occupation
after migration for each occupation before
migration for each sex and sector
separately. From Statement (A) derived
from
Table-21, the distribution of
migrants ( in percentage term ) before as
well as after migration as per status
(employed, unemployed, not in labour
force) can be seen. Here for both the
sexes and sectors the proportion of labour
force in the migrant population has
increased after migration in comparison to
the position before migration and
consequently category Not in Labour
Force has shrunk in all the cases. The
expansion in the labour force has been
shared by the categories Employed and
Unemployed (cf. Statement (A)).

5.1.2 Social dimension :

From Table18 of Appendix, some aspects of social


dimension of migration can be observed.
The following table shows the proportion
of migrants per 1000 persons in different
social groups & sectors :
PROPORTION OF MIGRANT
Social Group

Sector
Rural

Urban

ST

155

201

SC

177

189

OTHER

161

192

TOTAL

164

191

&

It is also observed that the usual activity


status
of
migrants
of
different
categories(sex/sector) is different. The
difference is more pronounced in the case
of sex and less pronounced in the case of
sector. In both the sectors majority of
male migrants is from Employed' category
and female migrants from Not in Labour
Force' category. The situation after migration is also the same in both sectors. It is
interesting to note that the female
migrants to rural India are economically
more active than the female migrants to
urban India in the sense that the
percentage in Labour Force' as well as
Employed' is higher for the female
migrant to rural India than the female
migrant to urban India.. No such trend is
visible in case of male migrants.

For
comparison
purpose
these
proportions can be taken as rates as time
is a common factor. It is observed that for
each social group the rate of migration is
higher for urban population than the rural
proportion. This simply shows that the
tendency to migrate to urban India is
stronger than the tendency to migrate to
the rural India in all social group.

5.1.3
Classes

Status

Migration and MPCE

Table-16 of Appendix shows per thousand


distribution of migrants by location of last
residence for each households MPCE
class. This table reflects that at All India
level, not only majority of migrants belong
to upper half of MPCE groups but also the
rate of migration (col.12) is in general
higher for this section in all cases (sex,

The change in status and the occupation


after migration is not simple but complex.

15

In case of male migrants to rural India


16.2% of migrants employed before
migration have become unemployed and
7.6% have gone to Not in Labour Force'
after migration. The corresponding figures
for male migrants to urban India, female
migrants to rural India and female
migrants to urban India are (20.1%, 7.9%),
(3.4% ,
21.1%) and (8.2%,40.3%)
respectively. Similarly, in the case of male

migrants to rural India 2.8% of


unemployed before migration
have
shifted to Not in Labour Force' category
after migration. The corresponding figures
for male migrants to urban India, female
migrants to rural India and female
migrants to urban India are 4.2%, 33.6%,
and 45.2%, respectively.

STATEMENT(A): Percentage distribution of migrants by occupation before and after migration


Status

Occupation

(1)

(2)

Employed

all

Unemploye
d
L.F
Not
L.F

in

Total
Estimated number of
migrants

Males
before after
migra- migrtion ation
(3)

(4)
RURAL

Migrants
Females
befor after
e migrmigra ation
-tion
(5)
(6)

Persons
befor
after
e
migrmigra
ation
-tion
(7)
(8)

54.2

59.3

24.6

34.1

28.9

37.8

2.7

11.3

0.2

1.3

0.6

2.8

56.9

70.6

24.8

35.4

29.5

40.6

43.1

29.4

75.2

64.6

70.5

59.4

100.0

100.0

100.0

100.0

100.0

100.0

194629

1138046

1332675

URBAN
Employed

all

Unemploye
d
L.F
Not
L.F.

in

Total
Estimated number of
migrants

45.7

55.7

9.3

12.2

24.2

30.1

9.3

16.0

0.5

2.1

4.1

7.8

55.0

71.7

9.8

14.3

28.3

37.9

45.0

28.3

90.2

85.7

71.7

62.1

100.0

100.0

100.0

100.0

100.0

100.0

238885

342040

It is also observed that for both the sexes


and sectors, maximum number of employed
migrants is from the occupation category
Service Workers'. This varies from 34% in
case of urban males to 90.3% in case of rural
females. This lead is visible even after
migration in all cases except in urban males,
where the lead after migration has been
taken over by the occupation category sales

580925

workers. In almost all cases of occupation,


majority of migrants of both sexes and
sectors has remained in the same occupation
category. This lead has been lost in those
cases when the majority has shifted to other
status groups (cf. Statement (A-1) Further
details on the above issue are contained in
Tables 19 & 20 of Appendix.

16

STATEMENT(A-1): Percentage distribution of migrants by occupation before and after


migration

Rural

Status

(1)
Employed

Occupation

(2)

Males
before after
migra- migrtion ation
(3)

(4)

Migrants
Females
befor after
e migrmigra ation
-tion
(5)
(6)

Persons
befor
after
e
migrmigra
ation
-tion
(7)
(8)

all

54.2

59.3

24.6

34.1

28.9

37.8

0-1

5.9

5.2

0.7

0.8

1.5

1.4

0.5

1.0

0.0

0.1

0.1

0.2

2.4

3.0

0.0

0.1

0.4

0.5

3.0

4.8

0.1

0.5

0.5

1.1

2.9

3.3

0.3

0.7

0.6

1.1

25.5

31.4

22.2

30.7

22.7

30.8

7 - 9

14.0

4.7

1.3

1.0

3.1

1.6

5.9

0.2

1.1

X
Occupation Divisions (Codes):
0-1:
2 :
3 :
4 :
5 :
6 :
7-9:
X

Professional, technical and related workers


Administrative, executive and managerial workers
Clerical and related workers
Sates workers
Farmers, fishermen, hunters, loggers and related workers
Service workers
Production and related workers, transport equipment
operators and labourers
: Workers not classified by occupations

17

STATEMENT(A-1): Percentage distribution of migrants by occupation before and after


migration
Urban
Status

(1)
Employed

Occupation

(2)

Males
befor after
e
migrmigra ation
-tion
(3)
(4)

Migrants
Females
befor after
e
migrmigra ation
-tion
(5)
(6)

Persons
before after
migra- migrtion
ation
(7)

(8)

all

45.7

55.7

9.3

12.2

24.2

30.1

0-1

6.8

7.4

1.7

2.5

3.8

4.5

1.8

4.1

0.1

0.2

0.8

1.8

5.0

9.2

0.4

1.0

2.3

4.4

4.0

10.1

0.2

0.9

1.7

4.7

2.7

7.8

0.3

2.1

1.3

4.4

15.5

3.2

5.4

3.0

9.5

3.1

7-9

9.9

6.2

1.2

2.3

4.8

3.9

7.7

0.2

3.3

Occupation Divisions (Codes):


0-1:
2 :
3 :
4 :
5 :
6 :
7-9:
X

Professional, technical and related workers


Administrative, executive and managerial workers
Clerical and related workers
Sates workers
Farmers, fishermen, hunters, loggers and related workers
Service workers
Production and related workers, transport equipment
operators and labourers
: Workers not classified by occupations

18

STATEMENT (B): ESTIMATED NUMBER OF MIGRANTS (%) BY STATE OF ORIGIN


STATE/U.T

URBAN

RURAL

origin
SAME STATE\U.T
(2)
99.96
89.78
91.14
100.00
99.69
99.54
85.70
99.85
99.31
99.24
99.97
97.41
98.97
98.39
98.64
95.31
57.75
95.64
95.25
98.64
100.00.
99.87
100.00
97.82
83.45
85.40
31.75
100.00
100.00
6.79
100.00
100.00

(1)
ANDHRA PRADESH
ARUNANCHAL PRADESH
ASSAM
BIHAR
GOA
GUJRAT
HARAYANA
HIMACHAL PRADESH
JAMMU & KASHMIR
KARNATAKA
KERALA
MADHYA PRADESH
MAHARASHTRA
MANIPUR
MEGHALAYA
MIZORAM
NAGALAND
ORISSA
PUNJAB
RAJASTHAN
SIKKIM
TAMIL NADU
TRIPURA
UTTAR PRADESH
WEST BENGAL
A & N ISLAND
CHANDIGARH
DADRA & NAGAR HAVELI
DAMAN & DIU
DELHI
LAKSHA DWEEP
PONDICHERY

19

OTHER STATE\U.T
(3)
0.04
10.22
8.86
0.00
0.31
0.46
14.30
0.15
0.79
0.76
0.03
2.59
1.03
1.61
34.62
4.69
42.25
4.36
4.75
1.36
0.00
0.13
0.00
2.18
16.55
14.60
68.25
0.00
0.00
93.21
0.00
0.00

origin
SAME STATE\U.T
(4)
100.00
93.54
99.27
100.00
100.00
99.25
98.87
99.63
100.00
99.97
100.00
99.99
99.63
100.00
100.00
100.00
93.94
99.72
99.43
99.85
94.44
99.95
99.66
99.10
97.28
92.92
89.89
100.00
100.00
2.99
100.00
100.00

OTHER STATE\U.T
(5)
0.00
6.46
0.73
0.00
0.00
0.75
1.13
0.37
0.00
0.03
0.00
0.01
0.10
0.00
0.00
0.00
0.01
0.10
0.00
0.00
5.56
0.05
0.34
0.90
2.72
7.08
10.11
0.00
0.00
97.01
0.00
0.00

5.2 From where do the migrants


come ?

It has already been pointed out that at All India


level, 81.26% migrants come from rural India,
17.71% from urban India and remaining 1.03%
from foreign countries.

Col.12, in Table-13 of Appendix, gives estimated


number of migrants by origin of state for each
sector and sex. Statement (B), derived from the
table, provides state-wise details of migrants by
their origin(same state/other states; rural/urban)
for each sector. It is observed that in almost all
cases migration to a state is mainly from the state
itself. Table-16 of Appendix provides further
details on the above aspect. It reveals that at All
India level, out of 1000 migrants in rural India, 744
come from the same district, 191 from the other
districts of same state, 55 from the other states of
the country and 9 from other countries (NR=2).

In rural India, 90.05% migrants come from rural


India and only 9.05% from urban India, whereas in
urban India the contribution from rural India is
61.11% and that of urban India is 37.58%. The
remaining part in both the sectors are from
foreign countries.
The above figures on
comparison with the population figures of rural
India and urban India reveal the true dimension of
inter-sector movements. From above figures, it is
also seen that the rate of migration from sector x'
to sector y' measured in terms of number of
migrants from x' to y' per thousand persons at x,
(time factor being a common factor for
comparison is ignored) is highest from urban to
urban and lowest from rural to rural. In fact, at
All India level, difference between the rates for
rural to rural, rural to urban and urban to rural
movements are not significant. Moreover, the
rate of urban to urban movement is almost
double the rate for any other inter-sector rate
(say, rural to rural).

Out of 1000 migrants in urban India ,417 come


from the same district, 344 from the other
districts of same state, 224 from the other states
of the country and 13 from other countries
(NR=2).

OTHER STATES

OTHER
DISTRICTS
OF THE
SAME
STATE

OTHER
COUNTRIES

SAME DISTRICT

DISTRIBUTION OF RURAL MIGRANTS BY ORIGIN

OTHER STATES

OTHER
COUNTRIES

SAME DISTRICT
OTHER
DISTRICTS
OF THE
STATE

DISTRIBUTION OF URBAN MIGRANTS BY ORIGIN

20

5.3 Why do people migrate ?


Tables 15, 17 and 20 of Appendix throws light
on the reasons behind the migration of
different persons. Reasons for movement
(migration) of persons have been categorised
into 13 classes, 12 specific and 1 residual. Out
of these 13 classes, 5 classes are directly linked
to employment. They are: (1) in search if
employment, (2) in search of better
employment, (3) to take up employment /
better employment, (4) transfer of service /
contract & (5) proximity to place of work. From
Tables 15 and 17, it is seen that the leading
reason for migration of male migrants is
movement of parents/earning members' in
both the sectors. The percentage movement by
this reason varies from 24.0% in case of urban
males for the period 10 years & above' to
32.8% for rural males for the period 5 - 9'
years.
On the average, the next most
important
reason is search of better
employment' in both the sectors. In rural
India, 15.1% of movements are accounted by
this reason, 8.9% by to take up employment /
better employment, 6.7% by transfer of
service/contract', 5.5% by search of
employment', 4.5% by study, etc. In urban
India, 16.3% movements are accounted by
search of better employment, 14.8% by
search of employment, 10.0% by transfer of
service / contract, 8.3% by to take up
employment / better employment, 9.2% by
study etc.

Reason for
migration

Round
No.

(1)

(2)
38
43
49
38
43
49
38

Last one year


Rural
Urban
Male
Female
Male
Female
(3)
(4)
(5)
(6)
12.48
2.04
17.63
3.17
9.50
1.60
1570
2.40
5.20
0.50
8.60
1.30
13.45
1.92
12.89
2.45
13.40
1.50
13.40
1.70
12.30
1.30
12.90
1.40
N.A.
N.A.
N.A.
N.A.

43
49
38
43
49
38
43
49
38
43
49
38
43
49
38
43
49
38
43
49
38
43
49
38
43
49
38
43
49

N.A.
20.50
9.67
9.60
8.10
N.A.
N.A.
1.60
8.51
9.10
4.10
N.A.
N.A.
2.60
N.A.
N.A.
2.60
3.68
4.00
3.40
N.A.
N.A.
0.40
2.51
4.80
2.30
27.23
24.10
28.80

N.A.
5.10
0.77
0.50
1.30
N.A.
N.A.
0.10
1.20
0.90
1.10
N.A.
N.A.
0.90
N.A.
N.A.
0.60
1.58
1.40
1.00
N.A.
N.A.
0.30
58.22
63.80
61.60
23.84
20.00
23.70

N.A.
6.10
15.77
16.70
12.20
N.A.
N.A.
1.70
14.99
12.40
18.00
N.A.
N.A.
3.10
N.A.
N.A.
2.20
1.59
1.70
0.70
N.A.
N.A.
1.10
0.71
1.10
0.90
26.22
26.10
28.30

N.A.
1.20
2.51
2.40
0.60
N.A.
N.A.
0.40
4.27
5.10
7.00
N.A.
N.A.
1.20
N.A.
N.A.
0.90
1.314
1.50
0.70
N.A.
N.A.
0.30
26.15
29.30
31.70
51.95
47.70
49.50

38
43
49

20.23
25.00
8.10

9.65
10.00
2.50

9.98
12.80
4.20

8.03
9.70
3.80

1.In search of
employment
2.In search of
better
employment
3.To take up
employment or
better
employment
4.Transfer of
service/contract
5.Proximity to
place of work
6.Studies

7.Acquisition of
house/flat
8.Housing
problems
9.Social/
political
problem
10.Health

In case of female migrants, movements in both


the sectors are mainly due to the reasons
movement of parents/earning members and
marriage. In rural India, the latter has
considerable lead over the former, whereas in
urban India there is close contest between the
two reasons. More precisely, in the past, i.e.,
before five years, movement because of
marriage' has lead over movement because of
movements of parents/earning members', in
urban India also, but in recent times (less than
5 years period) the latter has taken lead over
the former. It is also important to note that
the percentage of reporting movement
because of marriage has been declining trend
over time in both the sectors.

11.Marriage

12. Movement
of parents/
earning
member
19. Others

* no. before reason indicates codes.


[ Codes in different rounds are not uniform. Codes
given in col. (1) pertains to the 49th rounds are not
comparable. Moreover the code natural calamity
used in the 38th & the 43rd round has not been
given in the table as the same has not been used
in the 49th round. Codes 9 & 12 are roughly
equivalent to similar codes of the 38th & the 43rd
round].

Table-15 provides reflection on relationship


between usual activity before migration' and
reason for migration. Table-20 of Appendix
gives reflection on reason for movement of
employed migrants. These tables may be seen
for further details. Following table provides
comparative data for different rounds. further
details are available from Table-17.

*****

21

CHAPTER SIX
OUT - MIGRANTS
6.0 The choice of a place for migration depends
not only on the socio-economic condition of the
place but also on the background, contact and
personal preference of the migrant. Based on the
information collected for the persons migrating to
other states or countries during the last five years
before the date of survey, the important results
are presented in the following paragraphs. In this
report, Tables 8 to 12 of Appendix throw light on
different characteristics of out-migrants. Here the
term out-migrants has been used in a broader
sense and includes emigrants as well as migrants
to other states/union territories. However, the
cases of out-migration of entire household has
been excluded because of operational limitations

of out-migrants is as follows : males (89.87%),


females (10.13%); from rural India (85.48%) and
from urban India (14.52%). The share of male
out-migrants in out-migrants from rural India is
90.44%, whereas the corresponding figure for
urban India is 86.55%. Clearly, male out-migrants
have out-numbered female out-migrants considerably in both the sectors, while the population is
males (51.82%) and females (48.18%).
It is also interesting to note that in contrast to the
above, female migrants have outnumbered male
migrants in both the sectors.
This contrasting position is basically because of
predominance of different sets of reasons in
different cases. [Pl. see T-17 & T-10 of Appendix]

6.1 GENERAL DISTRIBUTION

The following picture depicts the distribution of


out-migrants from rural/urban and sex angles:

6.1.1 Table-9 of Appendix displays that at All India


level, the break-up of estimated number

RURAL FEMALE

RURAL MALE

URBAN MALE

URBAN FEMALE

DISTRIBUTION OF OUT-MIGRANTS
BY SEX AND PLACE OF ORIGIN

22

STATEMENT (C) : PER THOUSAND DISTRIBUTION OF OUT- MIGRANTS BY REASON FOR MIGRATION FOR EACH STATE AND U.Ts.
PERSON
STATE/U.T
(1)
ANDHRA PRADESH
ARUNANCHAL PRADESH
ASSAM
BIHAR
GOA
GUJRAT
HARAYANA
HIMACHAL PRADESH
JAMMU & KASHMIR
KARNATAKA
KERALA
MADHYA PRADESH
MAHARASHTRA
MANIPUR
MEGHALAYA
MIZORAM
NAGALAND
ORISSA
PUNJAB
RAJASTHAN
SIKKIM
TAMIL NADU
TRIPURA
UTTAR PRADESH
WEST BENGAL
A & N ISLAND
CHANDIGARH
DADRA & NAGAR HAVELI
DAMAN & DIU
DELHI
LAKSHA DWEEP
PONDICHERY
ALL INDIA

1
(2)
437
92
84
350
116
274
105
181
71
105
589
192
179
150
81
99
44
303
353
669
41
523
285
414
494
24
209
698
272
51
199
372

23

2
(3)
184
23
289
128
51
391
258
285
330
101
225
300
197
133
58
146
36
372
260
145
61
208
83
251
200
161
50
497
107
54
170
195

3
(4)
273
358
250
286
86
264
442
226
413
98
159
193
217
542
254
690
881
228
224
92
837
155
525
203
148
241
580
302
183
616
788
573
210

REASON FOR MIGRATION


4
5
(5)
(6)
22
71
277
32
35
156
681
65
11
50
18
92
47
225
66
74
25
7
8
6
54
29
11
329
34
45
66
20
38
88
20
115
46
44
20
18
51
23
42
45
56
63
52
131
35
25
7
20
174
77
42
59
36
81

9
(7)
12
250
344
44
10
85
36
45
665
13
232
68
96
541
46
9
28
5
41
45
42
31
43
408
130
28
26
7
59
106

ALL
(8)
1000
1000
1000
1000
1000
1000
1000
1000
1000
1000
1000
1000
1000
1000
1000
1000
1000
1000
1000
1000
1000
1000
1000
1000
1000
1000
1000
1000
1000
1000
1000
1000
1000

URBAN
OUT-MIGRANTS
ESTD. SAMPLE
(9)
(10)
57076
131
336
35
5645
72
97475
404
8661
22
13707
62
24796
73
6115
69
5522
89
100007
167
136755
492
20110
82
91534
118
1992
93
841
26
532
26
703
62
14886
45
28562
230
67262
238
352
34
76641
207
1181
65
121778
487
60494
143
1646
35
10090
28
29
2
563
50
15657
21
456
43
9043
46
980446
3697

STATEMENT (C): PER THOUSAND DISTRIBUTION OF OUT- MIGRANTS BY REASON FOR MIGRATION FOR EACH STATE AND U.Ts.

STATE/U.T
(1)
ANDHRA PRADESH
ARUNANCHAL PRADESH
ASSAM
BIHAR
GOA
GUJRAT
HARAYANA
HIMACHAL PRADESH
JAMMU & KASHMIR
KARNATAKA
KERALA
MADHYA PRADESH
MAHARASHTRA
MANIPUR
MEGHALAYA
MIZORAM
NAGALAND
ORISSA
PUNJAB
RAJASTHAN
SIKKIM
TAMIL NADU
TRIPURA
UTTAR PRADESH
WEST BENGAL
A & N ISLAND
CHANDIGARH
DADRA & NAGAR HAVELI
DAMAN & DIU
DELHI
LAKSHA DWEEP
PONDICHERY

1
(2)
495
123
485
693
473
440
188
308
324
461
574
490
496
44
163
18
302
564
655
526
232
642
177
562
664
2
543
70
976
8
143

2
(3)
203
234
225
169
354
96
413
389
431
188
236
124
248
163
323
43
4
100
208
310
93
179
293
289
199
138
166
244
8
8
229
284

3
(4)
251
588
160
78
137
207
233
258
109
109
130
76
167
652
514
469
433
267
68
98
626
112
100
75
87
526
639
4
492
675
376

4
(5)
10
90
6
11
1
115
27
14
59
13
8
10
2
9
2
1
93
9
9
148
492
141

ALL INDIA

578

227

109

11

24

REASON FOR MIGRATION


5
9
(6)
(7)
24
17
54
2
38
42
12
35
87
169
141
14
12
32
11
11
204
11
9
37
223
29
36
39
1
133
71
389
237
24
49
20
47
12
45
19
50
50
17
32
104
50
15
21
21
55
132
291
8
38
12
8
88
55
52

23

ALL
(8)
1000
1000
1000
1000
1000
1000
1000
1000
1000
1000
1000
1000
1000
1000
1000
1000
1000
1000
1000
1000
1000
1000
1000
1000
1000
1000
1000
1000
1000
1000
1000
1000
1000

PERSON
RURAL
OUT-MIGRANTS
ESTD.
SAMPLE
(9)
(10)
128448
285
727
25
74182
255
1420802
2237
3666
55
127734
205
130583
250
65986
393
27144
238
180500
351
703426
1444
174050
509
62459
98
12342
196
960
13
2259
106
1554
71
144310
304
118937
448
372614
766
1310
47
304351
529
9507
174
1441206
2802
252819
468
2082
42
326
7
500
28
755
47
3919
6
290
17
889
33
5770636

12449

STATEMENT (D) :

PER THOUSAND DISTRIBUTION OF OUT-MIGRANTS BY PERIOD SINCE MIGRATED FOR EACH STATE/U.T.
MALE

RURAL

ALL

OUT-MIGRANTS
ESTIMATED

(2)

(3)

(4)

(5)

(6)

(7)

(8)

(9)

ANDHRA PRADESH
ARUNANCHAL PRADESH
ASSAM
BIHAR
GOA

234
96
196
275
24

136
251
120
214
189

298
41
346
252
344

240
64
203
123
288

93
172
135
136
155

1000
1000
1000
1000
1000

110798
618
60202
1340492
3212

252
20
241
2115
48

GUJRAT
HARAYANA
HIMACHAL PRADESH
JAMMU & KASHMIR
KARNATAKA

278
332
171
253
263

244
131
139
157
141

119
175
232
275
306

105
130
183
160
137

254
233
276
155
152

1000
1000
1000
1000
1000

103967
104266
61069
26223
130651

172
213
365
229
258

KERALA
MADHYA PRADESH
MAHARASHTRA
MANIPUR
MEGHALAYA

207
309
398
26
54

187
193
228
388
54

218
243
119
313
509

178
129
90
229
231

209
126
165
43
151

1000
1000
1000
1000
1000

616253
118275
55900
10632
960

1289
356
82
163
13

MIZORAM
NAGALAND
ORISSA
PUNJAB
RAJASTHAN

159
8
214
209
112

184
218
203
190
169

360
625
225
205
254

243
52
163
169
201

55
97
194
228
265

1000
1000
1000
1000
1000

1629
1437
127556
113530
353140

73
64
280
425
714

SIKKIM
TAMIL NADU
TRIPURA
UTTAR PRADESH
WEST BENGAL

6
298
98
178
356

279
229
67
151
145

463
241
377
225
197

158
131
121
219
129

94
102
338
228
173

1000
1000
1000
1000
1000

1175
275112
8458
1345663
242152

40
461
149
2561
438

A & N ISLAND
CHANDIGARH
DADRA & NAGAR HAVELI
DAMAN & DIU
DELHI
LAKSHA DWEEP
PONDICHERY

245
164
50
135
984
81
30

153
301
237
8
9
192

66
301
668
354
148
254

258
253
135
542
247

277
235
30
139
8
220
277

1000
1000
1000
1000
1000
1000
1000

1199
231
500
711
1959
277
705

24
5
28
44
3
16
28

ALL INDIA

232

181

234

167

186

1000

5218952

11169

STATE/U.T.
(1)

PERIOD (IN YEARS ) SINCE MIGRATED


0
1
2

25

SAMPLE

STATEMENT (D) :

PER THOUSAND DISTRIBUTION OF OUT-MIGRANTS BY PERIOD SINCE MIGRATED FOR EACH STATE/U.T.
FEMALE
PERIOD (IN YEARS ) SINCE MIGRATED

STATE/U.T.

RURAL
OUT-MIGRANTS

(2)

(3)

(4)

(5)

(6)

(7)

(8)

(9)

355

158

67

294

125

1000

17650

33

639

181

181

1000

109

ASSAM

483

500

13

1000

13980

14

BIHAR

122

(1)
ANDHRA PRADESH
ARUNANCHAL PRADESH

ALL ESTIMATED

SAMPLE

134

426

105

169

165

1000

80309

GOA

85

547

368

1000

454

GUJRAT

17

60

200

49

673

1000

23767

33

414

222

110

166

88

1000

26317

37

68

144

215

137

436

1000

4917

28

JAMMU & KASHMIR

186

123

475

216

1000

922

KARNATAKA

316

136

226

140

182

1000

49849

93

KERALA

267

209

273

195

56

1000

87174

155

MADHYA PRADESH

300

222

195

164

119

1000

55775

153

MAHARASHTRA

464

215

200

121

1000

6559

16

27

460

206

282

25

1000

1710

33

232

138

510

59

61

1000

630

33

HARAYANA
HIMACHAL PRADESH

MANIPUR
MEGHALAYA
MIZORAM
NAGALAND

268

514

218

1000

117

ORISSA

92

180

304

281

143

1000

16754

24

PUNJAB

117

75

317

183

307

1000

5407

23

84

147

342

155

273

1000

19474

52

170

734

96

1000

136

115

279

170

350

86

1000

29240

68

RAJASTHAN
SIKKIM
TAMIL NADU
TRIPURA

77

64

398

457

1000

1050

25

UTTAR PRADESH

154

198

327

131

190

1000

95509

240

WEST BENGAL

393

410

25

164

1000

10667

30

A & N ISLAND

575

73

73

140

139

1000

882

18

CHANDIGARH

1000

1000

95

799

201

1000

43

DADRA & NAGAR HAVELI


DAMAN & DIU
DELHI

16

984

1000

1959

LAKSHA DWEEP

1000

1000

13

PONDICHERY

183

817

1000

185

220

221

225

170

164

1000

551651

1279

ALL INDIA

26

STATEMENT (D) :

PER THOUSAND DISTRIBUTION OF OUT-MIGRANTS BY PERIOD SINCE MIGRATED FOR EACH STATE/U.T.
PERSONS
PERIOD (IN YEARS ) SINCE MIGRATED
STATE/U.T.
(1)

ANDHRA PRADESH
ARUNANCHAL PRADESH

RURAL
OUT-MIGRANTS

ALL

(2)

(3)

(4)

(5)

(6)

(7)

ESTIMATED
(8)

SAMPLE
(9)

250

139

266

247

98

1000

128448

285

82

309

382

54

173

1000

727

25

ASSAM

250

98

375

164

112

1000

74182

255

BIHAR

267

226

244

125

137

1000

1420802

2237

31

233

347

253

136

1000

3666

55

GUJRAT

229

210

134

94

332

1000

127734

205

HARAYANA

348

149

162

137

203

1000

130583

250

HIMACHAL PRADESH

163

139

231

179

288

1000

65986

393

JAMMU & KASHMIR

251

156

265

170

158

1000

27144

238

KARNATAKA

278

140

284

138

160

1000

180500

351

KERALA

215

190

225

180

190

1000

703426

1444

MADHYA PRADESH

306

203

227

140

124

1000

174050

509

MAHARASHTRA

405

204

129

102

160

1000

62459

98

26

398

298

237

40

1000

12342

196

GOA

MANIPUR
MEGHALAYA
MIZORAM
NAGALAND

54

54

509

231

551

1000

960

13

179

171

402

192

57

1000

2259

106

222

617

65

90

1000

1554

71

ORISSA

200

200

235

177

188

1000

144310

304

PUNJAB

205

184

210

170

231

1000

118937

448

RAJASTHAN

110

168

259

198

265

1000

372614

766

267

491

152

85

1000

1310

47

280

234

234

152

100

1000

304351

529

SIKKIM
TAMIL NADU
TRIPURA

95

66

379

108

351

1000

9507

174

UTTAR PRADESH

176

154

232

213

226

1000

1441206

2802

WEST BENGAL

358

157

189

124

172

1000

252819

468

A & N ISLAND

385

119

69

208

219

1000

2082

42

CHANDIGARH

407

213

213

166

1000

326

50

668

253

30

1000

500

28

DAMAN & DIU

173

223

345

128

131

1000

755

47

DELHI

500

492

1000

3919

77

185

518

211

1000

290

17

24

190

371

196

220

1000

889

33

231

185

234

167

184

1000

5770636

12449

DADRA & NAGAR HAVELI

LAKSHA DWEEP
PONDICHERY
ALL INDIA

27

STATEMENT (D) :

PER THOUSAND DISTRIBUTION OF OUT-MIGRANTS BY PERIOD SINCE MIGRATED FOR EACH STATE/U.T.
MALE
PERIOD ( IN YEARS ) MIGRATED

STATE/U.T.
(1)
ANDHRA PRADESH

URBAN
OUT-MIGRANTS

ALL

ESTIMATED

(2)

(3)

(4)

(5)

(6)

(7)

(8)

SAMPLE
(9)

233

170

366

93

138

1000

51228

119

ARUNANCHAL PRADESH

44

246

456

210

44

1000

176

24

ASSAM

44

146

284

117

408

1000

5007

67

BIHAR

153

231

325

126

166

1000

77148

339

GOA

188

364

169

209

70

1000

1476

16

GUJRAT

271

127

284

216

103

1000

11311

56

HARAYANA

273

142

145

65

375

1000

21124

56

HIMACHAL PRADESH

144

184

313

135

224

1000

4120

58

JAMMU & KASHMIR

182

242

215

180

181

1000

4750

79

KARNATAKA

310

304

255

96

35

1000

98106

152

KERALA

238

215

197

148

202

1000

119230

455

MADHYA PRADESH

169

158

346

228

100

1000

16900

73

MAHARASHTRA

206

79

534

98

82

1000

69798

90

17

112

368

326

177

1000

1689

78

399

75

38

293

194

1000

494

17

MIZORAM

56

317

459

109

58

1000

422

21

NAGALAND

13

262

410

183

133

1000

676

59

ORISSA

147

117

330

234

171

1000

11457

37

PUNJAB

106

165

297

202

230

1000

24873

193

RAJASTHAN

166

299

278

144

113

1000

65238

225

91

456

283

85

85

1000

253

27

274

150

210

186

180

1000

68941

185

75

213

292

254

167

1000

960

50

162

199

240

143

256

1000

109649

434

MANIPUR
MEGHALAYA

SIKKIM
TAMIL NADU
TRIPURA
UTTAR PRADESH
WEST BENGAL

69

65

278

187

402

1000

56627

129

A & N ISLAND

153

293

231

98

225

1000

928

17

CHANDIGARH

88

205

144

189

374

1000

6614

21

302

698

1000

29

DAMAN & DIU

317

166

104

60

352

1000

524

46

DELHI

529

151

92

228

1000

10558

13

LAKSHA DWEEP

187

260

256

109

187

1000

299

32

PONDICHERY

331

170

335

75

90

1000

7996

41

ALL INDIA

207

193

281

139

180

1000

848604

3221

DADRA & NAGAR HAVELI

28

STATEMENT (D) :

PER THOUSAND DISTRIBUTION OF OUT-MIGRANTS BY PERIOD SINCE MIGRATED FOR EACH STATE/U.T.
FEMALE
PERIOD ( IN YEARS ) MIGRATED

STATE/U.T.

URBAN
OUT-MIGRANTS

ALL

ESTIMATED

SAMPLE

(2)

(3)

(4)

(5)

(6)

(7)

(8)

(9)

146

487

96

271

1000

5847

12

ARUNANCHAL PRADESH

96

807

96

1000

160

11

ASSAM

11

52

937

1000

638

99

102

644

13

142

1000

20327

65

GOA

106

28

866

1000

7184

GUJRAT

360

582

58

1000

2396

HARAYANA

150

233

300

161

156

1000

3672

17

HIMACHAL PRADESH

(1)
ANDHRA PRADESH

BIHAR

688

52

61

199

1000

1995

11

JAMMU & KASHMIR

74

510

80

138

198

1000

772

10

KARNATAKA

63

285

223

377

52

1000

1900

15

426

190

241

65

79

1000

17525

37

71

54

414

461

1000

3210

221

156

553

25

46

1000

21736

28

KERALA
MADHYA PRADESH
MAHARASHTRA
MANIPUR

336

222

125

317

1000

303

15

839

81

81

1000

347

MIZORAM

438

562

1000

110

NAGALAND

415

585

1000

27

ORISSA

38

28

699

151

84

1000

3429

PUNJAB

115

64

359

113

349

1000

3689

37

RAJASTHAN

343

350

301

1000

2024

13

268

145

587

1000

99

275

171

200

207

146

1000

7700

22

MEGHALAYA

SIKKIM
TAMIL NADU
TRIPURA

207

258

234

301

1000

221

15

69

438

227

71

196

1000

12129

53

WEST BENGAL

122

102

31

462

283

1000

3867

14

A & N ISLAND

231

96

214

233

226

1000

717

18

CHANDIGARH

59

288

653

1000

3477

DADRA & NAGAR HAVELI

DAMAN & DIU

300

111

589

1000

39

DELHI

267

170

562

1000

5099

LAKSHA DWEEP

140

325

179

356

1000

157

11

282

491

227

1000

1048

183

183

360

158

116

1000

131842

486

UTTAR PRADESH

PONDICHERY
ALL INDIA

29

STATEMENT (D) :

PER THOUSAND DISTRIBUTION OF OUT-MIGRANTS BY PERIOD SINCE MIGRATED FOR EACH STATE/U.T.
PERSONS
PERIOD ( IN YEARS ) MIGRATED

STATE/U.T.
(1)
ANDHRA PRADESH
ARUNANCHAL PRADESH
ASSAM
BIHAR
GOA

URBAN
OUT-MIGRANTS

ALL

ESTIMATED

(2)

(3)

(4)

(5)

(6)

(7)

(8)

SAMPLE
(9)

224

202

339

111

124

1000

57076

131

23

175

623

156

23

1000

336

35

39
142

131
204

252
391

110
102

468
161

1000
1000

5645
97475

72
404

32

150

52

754

12

1000

8651

22

GUJRAT

223

104

297

280

95

1000

13707

62

HARAYANA
HIMACHAL PRADESH

255
321

156
141

168
211

79
111

343
216

1000
1000

24796
6115

73
69

JAMMU & KASHMIR

167

279

196

174

184

1000

5522

89

KARNATAKA

305

303

255

101

35

1000

100007

167

KERALA

262

212

203

137

186

1000

136755

492

MADHYA PRADESH
MAHARASHTRA

153
210

141
97

357
539

191
81

158
73

1000
1000

20110
91534

82
118

MANIPUR
MEGHALAYA
MIZORAM
NAGALAND

15

146

346

295

198

1000

1992

93

581

44

22

206

147

1000

841

26

45
13

342
267

480
416

87
176

46
128

1000
1000

532
703

26
62

ORISSA

122

97

415

215

151

1000

14886

45

PUNJAB
RAJASTHAN

107
171

152
300

305
279

190
140

246
110

1000
1000

28562
67261

230
238

SIKKIM
TAMIL NADU

65
274

403
152

244
209

226
188

61
177

1000
1000

352
76641

34
207

TRIPURA

61

212

285

250

192

1000

1181

65

UTTAR PRADESH
WEST BENGAL

153
72

223
67

238
262

136
204

250
394

1000
1000

121778
60494

487
143

A & N ISLAND

187

207

224

157

225

1000

1646

35

CHANDIGARH

78

134

194

349

245

1000

10090

28

DADRA & NAGAR HAVELI


DAMAN & DIU

295

175

105

302
56

698
369

1000
1000

29
563

2
50

DELHI

444

157

245

154

1000

15657

21

LAKSHA DWEEP
PONDICHERY

171
293

282
183

230
353

194
92

123
80

1000
1000

456
9043

43
46

ALL INDIA

204

192

291

141

172

1000

980446

3697

30

sectors for each sex. This group is followed by


the age group 25-34 years. In case of females,
this is true only in urban sector. This is obvious
because these two groups together constitute
the economically most mobile group and
majority of marriages are in this combined
group only.

6.1.2 The average number of out-migrants per


household reporting out-migration from rural
India is 1.14 persons and 1.17 persons for urban
India.
6.1.3 The share of different states/union
territories in out-migrants can be seen from
Table-12 of Appendix.

6.4 Out-migration & MPCE classes


6.2 Rate of Out-migrations
(a) General : In tables 8 & 10 of Appendix,
certain information on out-migration is
presented by MPCE class wise. In Table-8, cols
(2), & (3) provide distribution of All
Households and distribution of Households
Reporting Out-migration over different MPCE
classes. On comparison of these two columns,
it is observed that these two distributions over
MPCE classes are not alike. This is basically
because of differential rate of out-migration for
different MPCE classes. Col. (4) of Table-8 0f
Appendix provides this proportion for different
MPCE classes. This is especially true for the
lowest as well as highest MPCE classes in both
the sectors as the changes over these classes
are more visible. The reason behind these
differences can easily be traced from col.(4) of
Table-8 which shows that the No. of households
reporting out-migration per 1000 households is
significantly high for these MPCE classes in both
the sectors. In rural India, the proportion of
household reporting out-migration is highest
for the lowest MPCE class [78 per 1000]
followed by the corresponding proportion for
the highest MPCE class [60 per 1000]. In urban
India, the rate of migration is highest for the
MPCE class Rs 700 & above [53 per 1000]
followed by the proportion for the lowest MPCE
class [27 per 1000]. The proportion for rural
sector is 44 per 1000 and for urban sector is 20
per 1000. In spite of these differences in the
proportion of household reporting outmigration, out-migrants are mainly from the
MPCE group - Rs. 140 & Above' in the rural
India and Rs. 185 & Above' in urban India.

Col (2) of Table-12 indicates the proportion of


out-migrants per 1000 population for each
state, sector & sex. The proportion of outmigrants per 1000 population from rural India is
17 for males, 2 for females and 10 for the
combined population. For urban India, the
same is 8 for males, 1 for females and 5 for the
combined population. For comparison purpose
these proportions can be taken as rates as time
is a common factor. Clearly the rate of outmigration from rural India is higher than that
from urban India for males, females and
combined population. It is also clear that this
rate for male population is much higher than
the corresponding rate for female population.
Table-12 of Appendix provides state-specific
proportion of out-migrants also. In rural India,
the proportion is maximum for Kerala (38),
followed by Bihar (25), Laksha Dweep (19) etc.
This is minimum
in case of Meghalaya,
Maharashtra and Arunachal Pradesh (1 each).
In case of urban India, the rate is maximum for
Goa (23), followed by Kerala and Daman & Diu
(22 each) etc.

6.3 Out-migration & Age :


Table -9 of Appendix provides information in
this regard. Col-10 of the table provides per
thousand distribution of out-migrants by
different age - groups. Here, it is seen that
highest percentage of out-migrants belongs to
the age group 15-24 years in both the

31

(b) Emigration & MPCE


Table-8 of Appendix also reflects the
comparison between migrants abroad and outmigrants within the country. The ratio of these
two figures is different for different MPCE
groups and no trend is visible in either sector.
In rural India, the highest ratio [303:697] is
assigned to the highest MPCE class- Rs. 385 &
ABOVE.

This ratio is lowest [52 : 948] for the lowest


MPCE class - Less than Rs. 65'. In urban India,
both the highest and the lowest pertain to
MPCE classes with small sample and hence
need no attention. The following diagram
depicts the distribution of emigrants:

RURAL MALE

RURAL FEMALE

URBAN
FEMALE

URBAN MALE

DISTRIBUTION OF EMIGRANTS

6.5 Why do people out migrate ?


employment or better employment, whereas for
female out-migration it is movement of parents /
earning members. State-wise details on above
aspect may be seen from the Statement (C) for
persons. The following picture depicts reason
wise distribution for different population groups.

The reasons for out-migration have been


categorised into 6 classes, 5 specific and 1
residual, which light on the above issue. In both
the sectors, the prominent reason for outmigration in case of males is search for

32

MARRIAGE

- OTHERS

MOVEMENT OF PARENTS /
EARNING MEMBERS

URBAN FEMALE

TRANSFER OF SERVICE OR
CONTRACT OR TO TAKE UP EMPLOYMENT
URBAN MALE

RURAL FEMALE

STUDIES

- IN SEARCH OF EMPLOYMENT
OR BETTER EMPLOYMENT
RURAL MALE

10
20
30
40
50
60
70
DISTRIBUTION OF OUT- MIGRANTS BY REASON OF OUT-MIGRATION

33

6.6 Do people of different age-groups


out migrate for different reasons ?

marriage. On the contrary, the relative value of


the reason transfer of service/contract or to take
up employment' has gone down with time. In case
of study' in the first half there is increasing
tendency and in the second half decreasing one.
This trend for the reason study is confirmed in all
other cases also. In case of urban males, the
relative values for the reasons search of
employment/better employment' and transfer of
service/ contract or to take-up employment have
been fluctuating over time. State-wise details on
the above aspect may be observed from the
statement (D).

As important reasons behind out-migration are


employment, study and marriage, all of which are
age specific, it is natural to expect variations in the
pattern of migration for different age-groups.
Table-9 of Appendix throws light on this aspect for
each sex & sector. The table reveals that, the
behaviour of the age-group 0 - 14' years is different
from other age-groups. In this age group, the
dominant reasons for out-migration are outmigration of parents/earning members and study
as expected, since this group is dependent on
parents /earning members. The age-group 15 years
& ABOVE being economically active, the dominant
reason for out-migration in the case of males is
employment in both the sectors. However, the
degree of dominance is more in rural sector(i.e.
from rural India) than in the urban sector.

6.8 Migrants abroad


The proportion of migrants abroad measured in
terms of number of migrants abroad per 1000 outmigrants reflects the relative position of migrants
abroad. For out-migrants from rural India, the share
of migrants abroad is 12.6% and from urban India it
is 27.5%., Male emigrants from rural India account
for 13.5% of out-migrants and the corresponding
figure for females is 4.9%. Male emigrants from
urban India account for 28.3% of male outmigrants and the corresponding figure for females
is 22.8%. The proportion of male emigrants is
higher than the female emigrants. Similarly, the
proportion for urban sector is much higher than the
proportion for the rural sector.

For females in India in the age-group 15 YEARS


AND ABOVE, the dominant reasons for migration
are
employment'
and
out-migration
of
parents/earning members'. In urban India, outmigration of parents/earning members takes lead
over employment, whereas in rural India it is
opposite. For the age-group 15 - 24 years, study
is an equally dominant reason for out-migration for
all groups except for rural males.

6.7 Out-migration over time

Table-9 of Appendix provides proportion of outmigrants abroad for different age-groups. Excluding
the cases of sample migrants less than 20, it is seen
that in rural India, the proportion is highest for the
age-group 35 - 59' years, followed by the agegroup 25 - 34' years for both males & females. The
above trend is true in the case of urban males also.
But, in case of urban females, the age-group 25 34' years has the highest proportion of outmigrants abroad, followed by the age-group 35 59' years.

It has already been pointed out that the data for


out-migration has been collected for the last five
years before the date of survey. From Table-11 of
Appendix , it is seen that estimated number of
out-migrants
has some sort of fluctuating
tendency over time (period) in all the cases of sex &
sector. Moreover, at all India level, maximum
number of out-migrants belong to the period 2 -3
years, followed by the period LESS THAN ONE
YEAR from the date of survey in all cases. Statewise details may be seen from the statement (D)
which provides per thousand distribution of outmigrants by period since migrated for each
state/u.t.

In terms of estimated numbers, in all cases


maximum number of out-migrants are from the
age-group 25 -34' years, followed by the age-group
35 - 59' years. It is interesting to recall that
maximum number of out-migrants are from the
age-group 15 - 24' years. Table-10 of Appendix
provides information on out-migrants abroad for
each MPCE class in detail

The changes in the relative values of different


reasons for out-migration over period can also be
studied from Table-11 of Appendix. Though five
years period is relatively small for such study, in
the fast changing economic world, the table
provides some interesting results. In case of rural
males, not only the reason search for
employment/better employment has been leading
for all the five years, its relative value has also gone
up with time. Similar is the case for the reason

6.9 Out-migration & Remittance :


It has already been observed that the male
migration is mainly guided by employment related
reasons and as such it is important to study out-

34

making remittance is less than the percentage of


out-migrants within country making remittance.
Similarly, in case of emigrants as well as outmigrants within country the percentage making
remittance to rural sector is more than the
percentage making remittance to urban sector.
State specific data can be seen from the Table 12 of
the Appendix.

migration from remittance angle. From Table 12 of


Appendix we observed that most of the employed
male out-migrants have made remittances. The
percentage making remittance varies from about
90% in the case if male if out- any sector ) to about
72% in case of male emigrants from urban sector.
In both the sector the percentage of the emigrants

*****

35

CHAPTER SEVEN
RETURN MIGRANTS
7.0 Some of the migrants often return to their
earlier usual place of residence for various reasons.
It is important to study the volume of returnmigration , magnitude of changes in the volume
over time by sex both in rural and urban India, etc.
In this report, Table-22 of Appendix provides per
thousand distribution of return-migrants by
location of last residence as well as number of
return migrants per thousand migrants for each
period since migrated for each sex and sector
separately.

7.1 General Distribution


7.1.1 The following chart shows the distribution of
return migrants by sex and sector (place of return).

URBAN MALE

URBAN FEMALE

7.2 Proportion of return migration


The proportion of return migrants per thousand
migrants provides comparative data for different
states, sex, sector, etc. Col. (11) of Table-22 of
Appendix provides this proportion of return
migrants for each sex, sector & period. Statement
E provides similar information in respect of
different states/u.ts.
Statement (E) shows per thousand distribution of
return migrants by location type for each state &
u.t also. From this statement, we observe that the
proportion of return migrants in rural India is 66
per thousand and the corresponding proportion in
urban India is 54 per thousand. In case of following
states/uts the proportion of return migrants to
rural Sector is higher than the corresponding All
India proportion (66):
Rural Sector: Meghalaya (888), Manipur(438),
Mizoram(422), Gujarat (209),Laksha Dweep (162),
Kerala (142), Haryana (141), Arunachal Pradesh
(111), Tamil Nadu (99), Chandigarh (82),Bihar (77),
Maharashtra (70).
In case of following states/uts the proportion of
return migrants to urban sector is higher than the
corresponding All India rate (54):

RURAL FEMALE
RURAL
MALE
DISTRIBUTION OF RETURN MIGRANTS BY SEX
AND SECTOR

Statement E provides similar information in


respect of different states/u.ts.

Urban Sector: Manipur (458), Laksha Dweep (393),


Mizoram (332), Nagaland (187), Haryana (144),
Meghalaya (138), Andaman
& Nicobar
Islands(123), Goa(113), Jammu & Kashmir (109),
Kerala (77), Uttar Pradesh (70), Rajasthan(60),
Andhra Pradesh (60), Punjab (58), Assam (57).
In case of rural male, this proportion is very high
(197 per 1000) in comparison to the corresponding
proportion among rural female (43 per 1000),
urban male (61 per 1000) and urban female (49
per 1000). The same trend is visible in case of all
major states. Similarly in case of all major states
the proportion of return migrants among females
in both the sector is invariably less than the
corresponding
proportion
among
males.

36

STATEMENT (E) : PER THOUSAND DISTRIBUTION OF RETURN- MIGRANTS BY LOCATION OF LAST RESIDENCE FOR EACH STATE AND U.T.
MALE
NO. OF
LOCATION OF LAST RESIDENCE
RETURN
STATE/U.T
MIGRANTS
OTHER DIST OF
OTHER
OTHER
NR
ALL
SAME
PER 1000
DISTRICT
SAME STATE
STATE
COUNTRY
MIGRANTS RURAL URBAN RURAL
URBAN
RURAL URBAN
1
2
3
4
5
6
7
8
9
10
11
ANDHRA PRADESH
87
634
157
103
39
19
48
1000
ARUNANCHAL PRADESH
221
871
20
50
20
11
28
1000
ASSAM
167
630
52
44
89
113
72
1000
BIHAR
695
26
15
13
92
54
787
13
1000
GOA
68
416
489
95
1000
GUJARAT
595
61
3
47
870
15
4
1000
HARAYANA
477
73
36
337
176
87
269
22
1000
HIMACHAL PRADESH
208
233
22
28
71
36
590
21
1000
JAMMU & KASHMIR
46
536
257
113
94
1000
KARNATAKA
86
265
198
281
138
35
82
1000
KERALA
214
397
36
76
78
40
168
206
1000
MADHYA PRADESH
107
360
186
62
129
37
203
24
1000
MAHARASHTRA
182
257
92
239
311
6
87
8
1
1000
MANIPUR
586
186
478
123
81
29
64
40
1000
MEGHALAYA
785
903
87
10
1000
MIZORAM
426
283
630
38
17
29
3
1000
NAGALAND
ORISSA
196
364
16
136
133
10
341
1000
PUNJAB
69
149
61
20
89
130
551
1000
RAJASTHAN
210
351
74
55
182
15
322
1
1000
SIKKIM
16
373
627
1000
TAMIL NADU
202
244
111
93
290
71
153
38
1000
TRIPURA
34
139
31
233
44
121
368
65
1000
UTTAR PRADESH
128
124
82
55
251
52
431
4
1000
WEST BENGAL
97
604
58
103
165
6
27
37
1000
A & N ISLAND
59
638
208
28
21
96
8
1000
CHANDIGARH
108
31
960
9
1000
DADRA & NAGAR HAVELI
91
367
525
107
1000
DAMAN & DIU
83
1000
1000
DELHI
119
34
966
1000
LAKSHA DWEEP
196
47
601
352
1000
PONDICHERY
ALL INDIA
197
234
63
96
325
30
223
28
1
1000

37

RURAL
RETURN
MIGRANTS

ESTD.
SAMPLE
12
13
2011937
213
3238
56
47966
107
449334
250
641
9
824066
178
119543
77
41127
85
3731
17
85438
119
297591
258
134619
196
455958
384
3728
55
5104
10
2880
163
93753
100
17647
37
171872
155
21
2
333063
290
2954
47
335120
291
200132
180
3035
68
2839
12
233
3
26
3
4293
5
210
11
3842097
3381

STATEMENT (E) : PER THOUSAND DISTRIBUTION OF RETURN- MIGRANTS BY LOCATION OF LAST RESIDENCE FOR EACH STATE AND U.T.

FEMALE
NO. OF
STATE/U.T

RETURN
MIGRANTS
PER 1000

GUJARAT
HARAYANA
HIMACHAL PRADESH
JAMMU $ KASHMIR
KARNATAKA
KERALA
MADHYA PRADESH
MAHARASHTRA
MANIPUR
MEGHALAYA
MIZORAM
NAGALAND
ORISSA
PUNJAB
RAJASTHAN
SIKKIM
TAMIL NADU
TRIPURA
UTTAR PRADESH
WEST BENGAL
A & N ISLAND
CHANDIGARH
DADRA & NAGAR HAVELI
DAMAN & DIU
DELHI
LAKSHA DWEEP
PONDICHERY
ALL INDIA

SAME

OTHER DIST OF

DISTRICT

MIGRANTS
ANDHRA PRADESH
ARUNANCHAL PRADESH
ASSAM
BIHAR
GOA

RURAL

LOCATION OF LAST RESIDENCE

RURAL

SAME STATE

URBAN

RURAL

URBAN

OTHER

OTHER

STATE

COUNTRY

RURAL

NR

RETURN
MIGRANTS

ALL

ESTD.

SAMPLE

URBAN

10

11

12

13

47
36
26
13
27

712
751
661
829
166

82
251
-

119
169
14
94
477

25
29
9
-

48
1
55
-

15
45
343

12
15

80
-

1000
1000
1000
1000
1000

366745
759
34935
77937
1780

361
15
47
83
7

123
108
13
49
54

311
207
676
895
639

2
14
8
116

57
572
73
192

625
17
7
26

181
100
32
23

5
9
209
3

1000
1000
1000
1000
1000

763797
271970
14219
19329
273359

238
185
25
34
198

112
32
47
234
1000

643
755
452
397
979

26
76
45
54
21

213
38
237
239
-

54
32
203
-

13
23
17
40
-

24
70
42
47
-

28
3
-

6
224
-

1000
1000
1000
1000
1000

372763
377381
578825
1073
5920

273
299
409
23
13

416
3
14
10
12

243
1000
654
320
484

611
3
29
48

49
98
488
11

9
78
265

6
21
92

85
161
122
99

3
20
-

1000
1000
1000
1000
1000

1735
10
65622
23755
94159

98
1
80
33
74

30
70
44
27
45

522
664
597
860

60
37
42
12

1000
89
270
289
70

128
5
31
36

89
9
23
15

113
14
16
6

2
-

1000
1000
1000
1000
1000

22
413221
6062
633275
489348

1
310
39
411
336

66
41
11
33
113
77

732
132
528
183
55

160
868
963
153
-

24
-

6
15

32
391
930

46
80
37
1000
664
-

1000
1000
1000
1000
1000
1000
1000

2944
661
312
234
16
83
983

66
4
4
2
1
4
5

43

563

42

166

157

35

33

1000

4893237

3679

38

STATEMENT (E) : PER THOUSAND DISTRIBUTION OF RETURN- MIGRANTS BY LOCATION OF LAST RESIDENCE FOR EACH STATE AND U.T.

PERSONS
NO. OF
STATE/U.T

RETURN
MIGRANTS
PER 1000

RURAL

LOCATION TYPE
RETURN
SAME

OTHER DIST OF

DISTRICT

MIGRANTS RURAL

SAME STATE

URBAN

RURAL

OTHER

OTHER

STATE

URBAN

RURAL

NR

ALL
MIGRANTS
ESTD.

COUNTRY

SAMPLE

URBAN

ANDHRA PRADESH
ARUNANCHAL PRADESH
ASSAM
BIHAR
GOA

57
111
50
77
32

684
849
643
145
232

109
16
136
13
-

113
73
31
25
351

30
16
63
80
-

38
66
54
-

26
9
60
671
381

13
36

38
-

1000
1000
1000
1000
1000

568683
3997
82901
527271
2421

574
71
154
333
16

GUJARAT
HARAYANA
HIMACHAL PRADESH
JAMMU & KASHMIR
KARNATAKA

209
141
42
49
61

181
166
347
837
550

2
20
18
135

57
500
21
102
213

752
66
54
18
53

152
52
27
26

11
89
492
15
22

2
7
16
-

1000
1000
1000
1000
1000

1587864
391513
55346
23060
358797

416
262
110
51
317

KERALA
MADHYA PRADESH
MAHARASHTRA
MANIPUR
MEGHALAYA

142
39
70
438
888

534
651
366
233
944

30
105
66
383
51

152
44
238
149
-

64
57
251
63
-

25
27
12
31
5

88
105
62
60
-

107
5
-

11
81
-

1000
1000
1000
1000
1000

670354
511999
1034782
4801
11023

531
495
793
78
23

MIZORAM
NAGALAND
ORISSA
PUNJAB
RAJASTHAN

422
2
30
16
30

268
1000
484
247
398

623
11
16
65

42
121
306
39

14
110
8
211

8
50
43

50
267
125
243

1
246
1

2
-

1000
1000
1000
1000
1000

4615
10
159375
41403
266032

261
1
180
70
229

21
99
40
37
54

398
492
433
786

182
82
35
56
26

513
91
258
208
80

200
18
107
74

306
81
46
33
12

131
130
159
12

17
21
3
11

1000
1000
1000
1000
1000

43
746284
9016
968395
689480

3
600
86
702
516

62
82
18
35
49
162
53

685
50
303
85
55

184
943
866
474
-

26
-

14
157
15

16
449
34
930

72
7
92
134
966
441
-

4
-

1000
1000
1000
1000
1000
1000
1000

5979
3499
545
260
4308
293
983

134
16
7
5
6
15
5

66

418

51

135

231

33

117

14

1000

8735334

7060

SIKKIM
TAMIL NADU
TRIPURA
UTTAR PRADESH
WEST BENGAL
A & N ISLAND
CHANDIGARH
DADRA & NAGAR HAVELI
DAMAN & DIU
DELHI
LAKSHA DWEEP
PONDICHERY
ALL INDIA

39

STATEMENT (E) : PER THOUSAND DISTRIBUTION OF RETURN-MIGRANTS BY LOCATION OF LAST RESIDENCE FOR EACH STATE AND U.T.

MALE
NO. OF
STATE/U.T

RETURN
MIGRANTS
PER 1000
MIGRANTS

URBAN

LOCATION OF LAST RESIDENCE


SAME

OTHER DIST OF
SAME STATE

DISTRICT
RURAL URBAN

RURAL

OTHER
STATE

URBAN

RURAL

OTHER
COUNTRY

NR

RETURN
MIGRANTS
ESTD.
SAMPLE

ALL

URBAN

10

11

12

13

ANDHRA PRADESH
ARUNANCHAL PRADESH
ASSAM
BIHAR
GOA

71
22
72
89
152

143
492
383
64

133

196

260
292
134
8
707

117
159
48

19
108
18
8
96

27

51
35
12

218
108
244
727

13

41

1000
1000
1000
1000
1000

151133
228
14722
16344
5914

202
15
52
33
20

GUJRAT
HARAYANA
HIMACHAL PRADESH
JAMMU & KASHMIR
KARNATAKA

42
149
56
121
87

74
210
166
104
132

90
102
14
91
371

439
13
292
168
140

330
290
245
249
113

10
168
14

58
134
270
388
73

1000
1000
1000
1000
1000

46683
96059
3561
4779
97402

129
96
20
55
142

KERALA
MADHYA PRADESH
MAHARASHTRA
MANIPUR
MEGHALAYA

103
42
47
582
155

103
159
176
37

348
141
123
16

31
252
174
593
165

157
366
177
272
439

94
13
148

19
23

324

146
46
124
82
73

1000
1000
1000
1000
1000

73087
65639
236657
2351
1008

87
115
261
49
14

MIZORAM
NAGALAND
ORISSA
PUNJAB
RAJASTHAN

333
233
40
95
106

198
103
411
117
223

753

11
671
65
302
3

8
145
198
29
210

13

4
151
126
61

16
77
39
185
324

58
24

1000
1000
1000
1000
1000

1511
2247
21432
48340
100271

96
42
47
104
149

24
52
51
67
43

144
622
327
295

140

1000
179
39
99
178

424
305
310
133

19
11
2
259

82
11
65
96

11
11
9
6

1000
1000
1000
1000
1000

21
138556
1081
147821
102757

3
221
20
232
154

151

11

114
135

208
854

1000
1000

3562
6207

70
16

876
384
44

559
162

107

150

SIKKIM
TAMIL NADU
TRIPURA
UTTAR PRADESH
WEST BENGAL
A & N ISLAND
CHANDIGARH
DADRA & NAGAR HAVELI
DAMAN & DIU
DELHI
LAKSHA DWEEP
PONDICHERY
ALL INDIA

135
41

136
181
155

187
32

520

42
48
408

207

586

61

181

147

141

235

40

168

138
83

3
102
78

124
48

10

1000
1000
1000

35
72539
710

3
53
46

35

1000

1462657

2546

STATEMENT (E) : PER THOUSAND DISTRIBUTION OF RETURN- MIGRANTS BY LOCATION OF LAST RESIDENCE FOR EACH STATE AND U.T.
FEMALE
NO. OF
STATE/U.T

RETURN
MIGRANTS
SAME
PER 1000 DISTRICT
MIGRANTS

1
ANDHRA PRADESH
ARUNANCHAL PRADESH
ASSAM
BIHAR
GOA

OTHER DIST OF
SAME STATE

RURAL

URBAN

RURAL

312
375
552
179

151

126

128
64

63
134

GUJRAT
HARAYANA
HIMACHAL PRADESH
JAMMU & KASHMIR
KARNATAKA

35
140
13
104
72

72
122
148
66
235

238
242
38
325
439

KERALA
MADHYA PRADESH
MAHARASHTRA
MANIPUR
MEGHALAYA

59
28
36
262
100

574
215
284
-

181
194
129
22
-

MIZORAM
NAGALAND
ORISSA
PUNJAB
RAJASTHAN

330
118
23
40
38

304
89
675
69
247

623

19
43
36
72
45

147
795
276
373

153

A & N ISLAND
CHANDIGARH
DADRA & NAGAR HAVELI
DAMAN & DIU
DELHI
LAKSHA DWEEP
PONDICHERY
ALL INDIA

93
182
283

259
72

105
22 -16 41
375

391

259

590

49

252

201

URBAN

RURAL

163
196
208
529

18

249
69
335
276
107

311
223

5
106

123
118

74

70
114
172
561
-

72 364
172
383
750

113
160
305
66

61
113
60
280
251

1000
104
12
205
249

481
193
186
99

47 -

153

49
6

NR

10

11

12

13

210
179

14

5
250

1000
1000
1000
1000
1000

137749
196
8333
17644
2615

188
13
31
33
10

1000
1000
1000
1000
1000

57683
118573
1296
9708
120329

125
102
6
37
143

1000
1000
1000
1000
1000

64178
82087
210526
672
295

77
99
256
8
4

1000
1000
1000
1000
1000

1040
762
16006
41443
72986

64
12
31
72
118

1000
1000
1000
1000
1000

14
141150
1061
364397
136520

2
208
12
359
131

1000
1000

1990
2907

49
9

108
217
479
210
26
82
94
76
35

17
21

2
21
46

250

141
20

12
194
11
23
133

35

73

11
126

55
57

6
23

328
35

133
917 124 743
151

490

876
257

59

RETURN
MIGRANTS
ESTD.
SAMPLE

ALL

88
1000

19
119

208

OTHER
COUNTRY

URBAN

148
-

41

OTHER
STATE

51
27
41
36
71

SIKKIM
TAMIL NADU
TRIPURA
UTTAR PRADESH
WEST BENGAL

URBAN

LOCATION OF LAST RESIDENCE

113

13

1000
1000
1000
1000
1000

35
47947
553

3
37
32

1660696

2271

STATEMENT (E) : PER THOUSAND DISTRIBUTION OF RETURN- MIGRANTS BY LOCATION OF LAST RESIDENCE FOR EACH STATE AND U.T.
PERSONS
NO. OF
STATE/U.T

RETURN
MIGRANTS
PER 1000

SAME

OTHER DIST OF

DISTRICT

MIGRANTS RURAL
1

URBAN

LOCATION OF LAST RESIDENCE

SAME STATE

URBAN

RURAL

URBAN

OTHER

OTHER

NR

STATE

COUNTRY

RETURN
MIGRANTS

ALL

RURAL URBAN

ESTD.

SAMPLE

10

11

12

13

ANDHRA PRADESH
ARUNANCHAL PRADESH
ASSAM
BIHAR
GOA

60
24
57
51
113

224
438
444
124
-

142
79
50
8

163
97
146
33

192
149
231
624
-

18
58
29
7
66

236
240
85
49
797

21
8
95

4
116
26
-

1000
1000
1000
1000
1000

288882
424
23055
33988
8529

390
28
83
66
30

GUJRAT
HARAYANA
HIMACHAL PRADESH
JAMMU & KASHMIR
KARNATAKA

38
144
30
109
78

73
161
161
79
189

172
179
20
247
408

334
44
303
241
121

319
253
180
165
116

7
134
10
116

86
180
326
269
47

9
49
2

1000
1000
1000
1000
1000

104366
214632
4858
14487
217731

254
198
26
92
285

KERALA
MADHYA PRADESH
MAHARASHTRA
MANIPUR
MEGHALAYA

77
33
41
458
138

323
190
227
29
-

270
171
126
17
-

49
176
173
586
127

117
364
175
297
509

50
16
134
307

116
72
101
71
57

54
63
-

20
10
-

1000
1000
1000
1000
1000

137264
147726
447183
3023
1303

164
214
517
57
18

MIZORAM
NAGALAND
ORISSA
PUNJAB
RAJASTHAN

332
187
31
58
60

242
99
524
95
233

700
118
182
209

32
155
209
63

34
86
48
229
293

7
625
37
228
10

10
158
118
26
178

31
14

8
1
-

1000
1000
1000
1000
1000

2551
3009
37437
89783
173257

160
54
78
176
267

21
47
42
70
44

146
708
291
340

147
239
55

1000
141
25
175
219

453
250
222
113

27
6
9
183

78
6
58
74

8
6
7
16

1
-

1000
1000
1000
1000
1000

36
279707
2142
512218
239277

5
429
32
591
285

123
32
24
45
393
54

474
230
219

23
588
176

150
147

5
221

190
103
876
333
25
82

181
874
62
632
157
130

62
29
23

6
2

1000
1000
1000
1000
1000
1000

5552
9114
70
120486
1263
3123353

119
25
6
90
78
4817

SIKKIM
TAMIL NADU
TRIPURA
UTTAR PRADESH
WEST BENGAL
A & N ISLAND
CHANDIGARH
DADRA & NAGAR HAVELI
DAMAN & DIU
DELHI
LAKSHA DWEEP
PONDICHERY
ALL INDIA

42

A detailed study of the reasons for migration for the


above four population categories may throw some
light on the difference. (Pl. see Table-22 of the
Appendix).

7.3 Return-migration: Location of


last residence
7.3.1
Return migration may be viewed form
location angle also. From statement (E), we have
observed the differences between the magnitude
and pattern of return-migration to rural and to
urban areas. We have also observed that the
proportion of return-migration in rural India is
66/1000 whereas the proportion of returnmigrants in urban India is 54/1000.
From statement (E) we get the following summary
chart for to and fro return movement:
DISTRIBUTION CHART FOR RETURN MIGRANTS:
RETURN
FROM

TO
RURAL

URBAN

It is seen from statement (E) that in rural India out


of 1000 return-migrants 469 come from the same
district, 835 from the same state, 150 from other
states and 14 from other countries (NR=2). In urban
India out of 1000 return-migrants, 395 comes from
the same district, 763 from the same state, 212 from
other states and 23 from other countries (NR=2).
Thus, in rural India, 83.5% return-migrants are from
the same state and in urban India the corresponding
figure is 76.3%. Like migrants, return-migrants are
also mainly from the same state. Statement (E) gives
state-wise variations on this subject for each sex
and sector separately. In case of male return
migrants, the data confirm the high share of return
migrants from abroad for Goa, Kerala and Punjab
despite the small number of return migrants in the
sample.
Return migration from rural to urban and from
urban to rural can also be viewed from statement (E)
at All India level and at state level separately for
each sex and combined population. At All India
level, rural to urban return-migrants account for
44.8% of urban return-migrants, whereas 39.9% of
rural return-migrants are accounted by urban to
rural return migration.

ALL

7.4 Return-migration over time


RURAL

43.21

11.82

55.03

URBAN

29.42

13.91

43.33

1.03

0.61

1.64

73.66

26.34

100.00

OTHER
COUNTRIES
TOTAL

Table-22 of Appendix provides per thousand


distribution of return-migrants by location of last
residence for each period since migration for each
sex & sector separately. From this table variation
over period can be observed for each case
separately.

*****

43

LIST

OF

TABLE NO.

APPENDIX

TABLES :
TITLE\DESCRIPTION

PAGE NO.

TABLE-1 :

ESTIMATES (000) OF HOUSEHOLDS AND POPULATION


FOR EACH STATE AND UNION TERRITORY

A - 1

TABLE-2:

PER THOUSAND DISTRIBUTION OF HOUSEHOLDS BY


MIGRATION STATUS AND SOCIAL GROUP FOR EACH
STATE AND U.T.

A - 3

TABLE-3:

PER 1000 DISTRIBUTION OF HOUSEHOLDS BY LAND


POSSESSED CLASS FOR EACH SOCIAL GROUP AND
HOUSEHOLD MIGRATION STATUS

A - 5

TABLE-4:

PER THOUSAND DISTRIBUTION OF MIGRANT


HOUSEHOLDS BY REASON FOR MOVEMENT FOR EACH M P
C E CLASS

A - 6

TABLE-5:

PER THOUSAND DISTRIBUTION OF MIGRANT


HOUSEHOLDS BY NATURE OF MOVEMENT FOR EACH
LOCATION OF LAST RESIDENCE

A - 7

TABLE-6:

PER THOUSAND DISTRIBUTION OF MIGRANT


HOUSEHOLDS BY LOCATION OF LAST RESIDENCE FOR
EACH NATURE OF MOVEMENT

A - 8

TABLE-7 :

PER THOUSAND DISTRIBUTION OF MIGRANT


HOUSEHOLDS BY TYPE OF STRUCTURE CURRENTLY
LIVING IN FOR EACH TYPE OF STRUCTURE WHERE
LIVED BEFORE MIGRATION

A - 9

TABLE-8:

PER THOUSAND DISTRIBUTION OF ALL HOUSEHOLDS


AND HOUSEHOLDS REPORTING OUT-MIGRATION BY
M.P.C.E CLASS

A - 10

TABLE-9:

PER THOUSAND DISTRIBUTION OF OUT MIGRANTS BY


REASON FOR MIGRATION FOR EACH AGE GROUP

A - 11

TABLE-10:

PER THOUSAND DISTRIBUTION OF OUT MIGRANTS BY


REASON FOR MIGRATION FOR EACH MPCE CLASS

A - 14

A(i)

TABLE NO.

TITLE\DESCRIPTION

PAGE NO.

TABLE-12:

PER THOUSAND DISTRIBUTION OF OUT MIGRANTS BY


EMPLOYMENT AND REMITTANCE STATUS FOR EACH
STATE AND U.T.

A - 20

TABLE-13:

ESTIMATED NUMBER OF MIGRANTS (00) BY STATE OF


ORIGIN AND PERIOD SINCE MIGRATED

A - 26

TABLE-14:

PER THOUSAND
DISTRIBUTION OF POPULATION BY
MIGRATION STATUS AND PERIOD SINCE MIGRATED
FOR EACH STATE AND

A - 44

TABLE-15:

PER THOUSAND DISTRIBUTION OF MIGRANTS BY


REASON FOR LEAVING LAST USUAL PLACE OF
RESIDENCE(UPR) FOR EACH USUAL ACTIVITY
CATEGORY BEFORE MIGRATION

A - 50

TABLE-16:

PER THOUSAND DISTRIBUTION OF MIGRANTS BY


LOCATION OF LAST RESIDENCE FOR EACH HOUSEHOLD
M P C E CLASS

A - 74

TABLE-17:

PER THOUSAND DISTRIBUTION OF MIGRANTS BY


REASON FOR LEAVING LAST USUAL PLACE OF
RESIDENCE(UPR) FOR EACH LOCATION OF LAST
RESIDENCE

A - 98

TABLE-18:

PER THOUSAND DISTRIBUTION OF MIGRANTS BY


LOCATION OF LAST RESIDENCE FOR EACH SOCIAL
GROUP

A - 110

TABLE-19:

PER THOUSAND DISTRIBUTION OF MIGRANTS BY


USUAL ACTIVITY CATEGORY AFTER MIGRATION FOR
EACH USUAL ACTIVITY CATEGORY BEFORE MIGRATION

A - 122

TABLE-20:

PER THOUSAND DISTRIBUTION OF EMPLOYED


MIGRANTS BY REASON FOR LEAVING LAST USUAL
PLACE OF RESIDENCE (UPR) FOR EACH PRINCIPAL
USUAL STATUS AND OCCUPATION

A - 146

TABLE-21:

PER THOUSAND DISTRIBUTION OF MIGRANTS BY


OCCUPATION AFTER MIGRATION FOR EACH
OCCUPATION BEFORE MIGRATION

A - 152

TABLE-22:

PER THOUSAND DISTRIBUTION OF RETURN MIGRANTS


BY LOCATION OF LAST RESIDENCE FOR EACH PERIOD
SINCE MIGRATED

A - 158

TABLE-23

CODE LIST

A - 161

A(ii)

TABLE-1 : ESTIMATES (000) OF HOUSEHOLDS AND POPULATION FOR EACH STATE AND UNION TERRITORY

SECTOR:RURAL

-----------------------------------------------------------------------------------------------------------------------------POPULATION (000)
STATE/U.T.

AVE-

----------------------------------------------------------------------------------- RAGE
HOUSEHOLDS
(000)

ALL AGES

5 YEARS AND ABOVE

15 YEARS AND ABOVE

15-59 YRS.

SEX
RATIO

HH.SIZE

-------------------- -------------------- -------------------- -------------------- (0.0)


MALE FEMALE

TOTAL

MALE FEMALE

TOTAL

MALE FEMALE

TOTAL

MALE FEMALE

TOTAL

-----------------------------------------------------------------------------------------------------------------------------(1)

(2)

(3)

(4)

(5)

(6)

(7)

(8)

(9)

(10)

(11)

(12)

(13)

(14)

(15)

(16)

-----------------------------------------------------------------------------------------------------------------------------ANDHRA PRADESH

10609

23499

23481

46980

20918

20671

41589

15045

14978

30023

13613

13500

27112

4.4

999

98

254

246

500

226

215

440

153

151

304

139

141

280

5.1

969

ASSAM

3481

9433

8009

17442

8354

7154

15508

6025

5373

11398

5647

5071

10718

5.0

849

BIHAR

10968

30038

26669

56707

26188

22903

49090

17306

16372

33678

15575

14968

30543

5.2

888

96

226

252

478

208

233

441

162

165

327

155

146

301

5.0

1117

GUJARAT

5897

15904

14747

30652

14409

13222

27631

10335

9798

20132

9223

8992

18215

5.2

927

HARYANA

1980

6033

5333

11367

5304

4545

9849

3615

3189

6804

3052

2751

5803

5.7

884

932

2284

2351

4636

1979

2100

4079

1471

1547

3018

1238

1340

2578

5.0

1029
1014

ARUNACHAL PRADESH

GOA

HIMACHAL PRADESH
JAMMU & KASHMIR

429

1222

1240

2462

1087

1078

2165

756

789

1544

632

699

1331

5.7

KARNATAKA

5727

15032

14822

29854

13349

13007

26356

9589

9291

18881

8659

8320

16979

5.2

986

KERALA

3877

9084

9595

18680

8162

8832

16994

6334

6997

13332

5566

6093

11659

4.8

1056

MADHYA PRADESH

9069

25266

23198

48464

21970

19959

41928

15091

14041

29132

13517

12412

25928

5.3

918

MAHARASTRA

9916

24230

24270

48500

21217

21028

42244

15052

15221

30273

13401

13295

26695

4.9

1002

MANIPUR

197

553

502

1055

493

452

946

338

333

671

302

306

608

5.3

909

MEGHALAYA

261

646

639

1284

577

563

1140

409

390

799

389

371

760

4.9

989

MIZORAM

74

211

189

400

187

167

354

128

119

247

120

112

232

5.4

899

NAGALAND

53

146

118

264

130

106

236

86

76

161

79

71

150

5.0

812

ORISSA

5582

13649

13918

27567

12227

12223

24450

9078

8867

17944

8032

7804

15836

4.9

1020

PUNJAB

2063

5891

5178

11069

5145

4618

9764

3768

3401

7170

3256

3002

6258

5.4

879

RAJASTHAN

5557

15734

15057

30791

13500

12952

26452

9010

8935

17945

8015

7841

15856

5.5

957

51

139

122

260

125

107

233

87

71

158

78

65

142

5.1

880

8502

17854

17339

35193

15998

15814

31812

11908

12068

23976

10544

10756

21299

4.1

971

387

991

875

1866

899

796

1696

643

559

1202

587

517

1104

4.8

883

19441

57572

51252 108824

49303

43319

92622

32948

30373

63321

28871

26629

55501

5.6

890

9633

25505

24116

49620

22442

21158

43600

15500

14966

30466

14112

13502

27614

5.2

946

ANDAMAN & NICOBAR

37

92

81

174

84

72

156

60

49

109

56

47

103

4.7

885

CHANDIGARH

17

43

26

69

38

21

59

29

15

44

27

15

41

4.1

594

DADER NAGAR-HAVELI

24

59

59

117

51

52

103

35

36

71

34

35

68

4.9

1006

DAMAN & DIU

11

34

29

62

30

26

57

22

20

43

21

19

39

5.6

855

DELHI

71

195

202

397

177

176

353

125

128

253

105

115

219

5.6

1036

SIKKIM
TAMIL NADU
TRIPURA
UTTAR PRADESH
WEST BENGAL

LAKSHADWEEP
PONDICHERY

15

13

10

5.4

1215

50

122

113

234

109

102

211

84

77

161

79

70

149

4.7

925

-----------------------------------------------------------------------------------------------------------------------------ALL-INDIA

115094 301947 284036 585983 264894 247678 512572 185193 178402 363595 165125 159007 324132

5.1

941

------------------------------------------------------------------------------------------------------------------------------

Source : National Sample Survey Organisation,49th Round,Schedule 1.2

A - 2

TABLE-1 : ESTIMATES (000) OF HOUSEHOLDS AND POPULATION FOR EACH STATE AND UNION TERRITORY

SECTOR:URBAN

------------------------------------------------------------------------------------------------------------------------------POPULATION (000)
STATE/U.T.

AVE-

----------------------------------------------------------------------------------- RAGE
HOUSEHOLDS
(000)

ALL AGES

5 YEARS AND ABOVE

15 YEARS AND ABOVE

15-59 YRS.

SEX
RATIO

HH.SIZE

-------------------- -------------------- -------------------- -------------------- (0.0)


MALE FEMALE

TOTAL

MALE FEMALE

TOTAL

MALE FEMALE

TOTAL

MALE FEMALE

TOTAL

------------------------------------------------------------------------------------------------------------------------------(1)

(2)

(3)

(4)

(5)

(6)

(7)

(8)

(9)

(10)

(11)

(12)

(13)

(14)

(15)

(16)

------------------------------------------------------------------------------------------------------------------------------ANDHRA PRADESH
ARUNACHAL PRADESH

3442

8001

7621

15623

7184

6853

14037

5231

5028

10259

4827

4592

9418

4.5

953

13

29

22

51

27

20

46

18

13

31

18

13

30

4.0

770

ASSAM

375

928

784

1712

855

719

1573

651

551

1201

602

509

1111

4.6

846

BIHAR

1762

4828

3793

8620

4348

3321

7669

3030

2319

5349

2866

2159

5024

4.9

786

GOA

92

223

150

373

190

140

330

143

114

257

138

109

246

4.1

672

GUJARAT

2322

6009

5411

11421

5406

4826

10232

3954

3590

7544

3638

3227

6865

4.9

901

HARYANA

765

2011

1719

3730

1730

1510

3241

1259

1058

2317

1131

943

2073

4.9

854

HIMACHAL PRADESH

104

210

188

397

191

167

358

150

134

283

137

122

259

3.8

894

JAMMU & KASHMIR

110

274

261

535

252

238

489

191

181

372

168

157

325

4.9

951

KARNATAKA

2555

6331

5900

12231

5473

5237

10710

4174

3883

8057

3911

3511

7422

4.8

932

KERALA

1354

3047

3111

6158

2780

2895

5675

2184

2331

4515

1924

1974

3898

4.6

1021

MADHYA PRADESH

2590

6956

6087

13043

6170

5317

11487

4389

3857

8246

4063

3509

7571

5.0

875

MAHARASTRA

5867

14378

12689

27067

12762

11270

24032

9538

8563

18101

8762

7717

16479

4.6

882

MANIPUR

57

163

160

323

149

147

296

105

107

212

94

96

190

5.7

981

MEGHALAYA

62

149

134

283

137

120

257

90

82

172

87

79

166

4.6

900

MIZORAM

40

104

102

206

93

95

188

66

66

132

62

61

124

5.2

986

NAGALAND

20

51

40

91

46

36

82

30

23

53

28

22

51

4.6

780

ORISSA

801

1926

1792

3719

1721

1567

3288

1272

1130

2402

1185

1053

2238

4.6

931

PUNJAB

1263

3055

2720

5775

2654

2431

5085

1961

1796

3757

1749

1563

3312

4.6

890

RAJASTHAN

1733

4502

3991

8492

4011

3508

7519

2795

2561

5356

2558

2310

4869

4.9

886

SIKKIM

17

23

40

15

21

37

11

13

24

11

13

23

4.5

1369

4729

9596

9497

19093

8673

8650

17324

6685

6679

13364

6030

6013

12043

4.0

990

56

124

121

245

112

113

225

86

84

169

78

74

152

4.4

980

UTTAR PRADESH

4820

13528

11733

25261

11747

10178

21926

8244

7103

15347

7424

6385

13809

5.2

867

WEST BENGAL

3710

8513

7409

15922

7864

6763

14627

6091

5126

11217

5566

4632

10198

4.3

870

21

44

36

81

39

32

71

31

23

54

30

22

52

3.9

821

122

284

222

506

252

201

453

186

160

345

172

148

320

4.2

782

4.2

833
1098

TAMIL NADU
TRIPURA

ANDAMAN & NICOBAR


CHANDIGARH
DADER NAGAR-HAVELI
DAMAN & DIU
DELHI
LAKSHADWEEP
PONDICHERY

12

13

26

11

12

23

10

19

17

4.7

1813

4175

3485

7660

3701

3088

6789

2790

2331

5121

2599

2187

4786

4.2

835

10

12

22

11

20

14

12

6.1

1170

178

429

385

814

403

350

752

323

282

606

295

246

541

4.6

899

------------------------------------------------------------------------------------------------------------------------------ALL-INDIA

40791

99910

89617 189527

89008

79841 168850

65695

59209 124904

60167

53462 113629

4.7

897

-------------------------------------------------------------------------------------------------------------------------------

Source : National Sample Survey Organisation,49th Round,Schedule 1.2

A - 3

TABLE-2 : PER THOUSAND DISTRIBUTION OF HOUSEHOLDS BY

MIGRATION STATUS AND SOCIAL

GROUP FOR EACH STATE AND U.T.

SECTOR:RURAL

----------------------------------------------------------------------------------------------------------------------------

STATE/U.T.

MIGRANT H.H.

NON-MIGRANT H.H.

----------------------

--------------------------

-------------------------

----------------

ST

ST

ST

ESTD(00)

SC

OTHERS

ALL

SC

OTHERS

ALL H.H.

ALL

SC

ALL HOUSEHOLDS

OTHERS

ALL

SAMPLE

--------------------------------------------------------------------------------------------------------------------------(1)

(2)

(3)

(4)

(5)

(6)

(7)

(8)

(9)

(10)

(11)

(12)

(13)

(14)

(15)

--------------------------------------------------------------------------------------------------------------------------ANDHRA PRADESH

79

212

698

989

80

214

707

1000

106091

5474

23

27

810

160

973

833

164

1000

979

1290

ASSAM

114

124

754

992

116

125

759

1000

34812

3283

BIHAR

93

207

698

997

93

207

699

1000

109683

6859

GOA

17

12

967

996

17

12

972

1000

957

234

43

53

159

162

625

946

202

164

633

1000

58969

2558

ARUNACHAL PRADESH

GUJARAT
HARYANA

300

694

997

300

697

1000

19799

1136

HIMACHAL PRADESH

11

21

264

704

989

21

269

711

1000

9317

1959

11

22

83

227

668

978

94

234

672

1000

4286

1009

KARNATAKA

67

176

750

993

67

176

756

1000

57273

2914

KERALA

12

13

14

127

846

987

14

129

857

1000

38767

2896

MADHYA PRADESH

315

179

500

993

316

180

503

1000

90688

5782

MAHARASTRA

10

13

131

168

688

987

133

169

698

1000

99159

5053

11

11

23

374

38

565

977

385

40

575

1000

1974

1072

MEGHALAYA

963

30

994

968

30

1000

2615

1104

MIZORAM

975

20

995

980

20

1000

739

988

NAGALAND

983

15

999

984

15

1000

528

526

ORISSA

301

168

525

994

304

170

527

1000

55815

3187

PUNJAB

412

576

992

416

580

1000

20628

1893

RAJASTHAN

10

176

199

613

989

181

200

620

1000

55573

3287

SIKKIM

12

14

299

60

627

986

301

61

638

1000

509

448

TAMIL NADU

10

29

275

686

990

29

275

695

1000

85024

4246

TRIPURA

194

232

570

997

195

233

572

1000

3872

1616

UTTAR PRADESH

13

10

256

721

987

11

259

730

1000

194412

9764

WEST BENGAL

10

76

327

588

990

77

329

593

1000

96331

4719

ANDAMAN & NICOBAR

13

53

76

235

37

652

924

244

50

705

1000

373

701

CHANDIGARH

62

36

98

138

755

902

200

791

1000

169

128

DADER NAGAR-HAVELI

11

919

61

989

925

14

61

1000

241

320

DAMAN & DIU

110

888

999

110

888

1000

112

128

DELHI

131

868

1000

131

868

1000

712

92

33

37

803

68

92

963

836

68

96

1000

29

80

326

667

995

326

672

1000

501

304

JAMMU & KASHMIR

MANIPUR

LAKSHADWEEP
PONDICHERY

--------------------------------------------------------------------------------------------------------------------------ALL-INDIA

11

107

218

663

988

111

220

669

1000 1150937

75050

---------------------------------------------------------------------------------------------------------------------------

Source : National Sample Survey Organisation,49th Round,Schedule 1.2

A - 4

TABLE-2 : PER THOUSAND DISTRIBUTION OF HOUSEHOLDS BY

MIGRATION STATUS AND SOCIAL

GROUP FOR EACH STATE AND U.T.

SECTOR:URBAN

-----------------------------------------------------------------------------------------------------------------------

STATE/U.T.

MIGRANT H.H.

NON-MIGRANT H.H.

---------------------

--------------------------

ST

ST

SC

OTHERS

ALL

SC

OTHERS

ALL H.H.

ALL

ALL HOUSEHOLDS

--------------------------- ---------------ST

SC

OTHERS

ALL

ESTD(00)

SAMPLE

----------------------------------------------------------------------------------------------------------------------(1)

(2)

(3)

(4)

(5)

(6)

(7)

(8)

(9)

(10)

(11)

(12)

(13)

(14)

(15)

----------------------------------------------------------------------------------------------------------------------ANDHRA PRADESH

23

33

26

102

839

967

28

109

863

1000

34415

13

12

25

306

661

975

319

673

1000

127

256

ASSAM

22

26

69

163

741

974

71

166

763

1000

3745

1136

BIHAR

10

12

52

122

814

988

52

123

824

1000

17617

1980

GOA

12

19

977

981

989

1000

918

181

GUJARAT

27

30

56

125

789

970

56

128

817

1000

23215

2287

HARYANA

20

22

35

161

782

978

35

163

802

1000

7652

637

HIMACHAL PRADESH

44

45

135

811

955

137

855

1000

1037

448

JAMMU & KASHMIR

41

45

136

815

955

139

856

1000

1095

430

KARNATAKA

27

29

29

131

810

970

29

133

838

1000

25551

2488

KERALA

26

26

16

65

893

974

16

65

919

1000

13537

1408

MADHYA PRADESH

19

25

100

156

719

975

104

157

738

1000

25904

3049

MAHARASTRA

15

21

34

125

820

979

35

130

835

1000

58671

5143

MANIPUR

12

37

49

150

800

951

162

837

1000

572

688

MEGHALAYA

32

15

47

574

68

311

953

606

68

326

1000

617

480

MIZORAM

21

21

947

30

979

968

30

1000

400

448

NAGALAND

16

33

49

625

14

310

949

643

14

343

1000

197

320

ORISSA

19

20

176

107

697

980

177

107

716

1000

8015

1006

PUNJAB

15

19

215

765

981

218

780

1000

12630

1852

RAJASTHAN

17

21

43

166

769

979

44

169

786

1000

17331

1837

29

59

87

203

53

658

913

231

53

716

1000

88

192

TAMIL NADU

35

35

143

815

965

144

850

1000

47293

4192

TRIPURA

12

12

132

176

681

988

132

176

692

1000

557

512

UTTAR PRADESH

10

12

162

822

987

164

833

1000

48198

4366

WEST BENGAL

10

12

14

167

807

988

14

169

817

1000

37097

3447

ANDAMAN & NICOBAR

83

92

71

28

810

908

78

30

892

1000

206

384

CHANDIGARH

15

15

21

138

825

985

21

138

840

1000

1217

241

DADER NAGAR-HAVELI

11

178

200

611

989

178

204

618

1000

21

64

DAMAN & DIU

113

26

856

995

113

28

859

1000

55

192

ARUNACHAL PRADESH

SIKKIM

DELHI

3366

215

769

992

215

778

1000

18125

957

LAKSHADWEEP

19

17

36

809

20

135

964

828

20

152

1000

36

192

PONDICHERY

13

984

999

13

985

1000

1776

192

----------------------------------------------------------------------------------------------------------------------ALL-INDIA

19

22

33

142

802

977

34

144

822

1000

407915

44371

-----------------------------------------------------------------------------------------------------------------------

Source : National Sample Survey Organisation,49th Round,Schedule 1.2

A - 5

TABLE-3 : PER 1000 DISTRIBUTION OF HOUSEHOLDS BY LAND POSSESSED CLASS FOR EACH SOCIAL GROUP AND HOUSEHOLD MIGRATION STATUS

ALL-INDIA

(RURAL ONLY)

---------------------------------------------------------------------------------------------------------------------------MIGRANT H.H.

NON-MIGRANT H.H.

ALL H.H.

ALL HOUSEHOLDS

LAND POSSESSED

--------------------------

--------------------------

-------------------------- ----------------

CLASS(HECTRES)

ST

ST

ST

SC

OTHERS

ALL

SC

OTHERS

ALL

SC

OTHERS

ALL ESTD(00)

SAMPLE

---------------------------------------------------------------------------------------------------------------------------(1)

(2)

(3)

(4)

(5)

(6)

(7)

(8)

(9)

(10)

(11)

(12)

(13)

(14)

(15)

---------------------------------------------------------------------------------------------------------------------------LESS THEN 0.01

239

668

518

462

216

337

193

228

217

340

196

230

264885

16129

0.01 - 0.20

18

168

126

102

139

278

201

211

135

277

200

210

241748

15135

0.20 - 0.40

16

47

94

65

99

108

110

108

97

107

110

108

123933

8097

0.41 - 1.0

145

61

86

99

167

133

169

161

167

132

168

160

184275

12254

1.01 - 2.0

362

20

74

147

182

79

147

136

187

79

146

136

156289

10858

2.01 - 3.0

189

36

18

69

92

32

74

67

95

32

73

67

76661

5300

3.01 - 4.0

16

10

44

12

37

32

43

11

37

32

36555

2534

4.01 - 6.0

30

11

32

27

29

11

32

27

30695

2103

6.01 - 8.0

14

12

11

14

12

11

12414

882

8.01 & ABOVE

16

15

24

19

15

24

19

21642

1588

25

35

27

1842

170

N.R.

--------------------------------------------------------------------------------------------------------------------------ALL CLASSES

1000

1000

1000

1000

1000

1000

1000

1000

1000

1000

1000

1000 1150937

75050

--------------------------------------------------------------------------------------------------------------------------ESDT. HHS(00)

3692

1972

7453

13117

123453

251167

762880 1137501

127216

253182

770540 1150937

--------------------------------------------------------------------------------------------------------------------------SAMPLE HHS.

318

293

1004

1615

11572

15702

46141

73415

11895

16000

47155

75050

---------------------------------------------------------------------------------------------------------------------------

Source : National Sample Survey Organisation,49th Round,Schedule 1.2

A - 6

TABLE-4 : PER THOUSAND DISTRIBUTION OF MIGRANT HOUSEHOLDS BY REASON FOR MOVEMENT FOR EACH M P C E CLASS

ALL-INDIA

SECTOR : RURAL

----------------------------------------------------------------------------------------------------------------------M P C E

NO. OF

CLASS

MIGRANT

REASON FOR MOVEMENT (codes)


-----------------------------------------------------------------

HHS PER

PER 1000

MIGRANT HHS.

DIST. OF

--------------

MIGRANT

ESTD.

1000 HHS

SAMPLE

HHS

IN EACH

01

02

03

04

05

06

07

08

09

10

19

ALL

MPCE CLASS
----------------------------------------------------------------------------------------------------------------------(1)

(2)

(3)

(4)

(5)

(6)

(7)

(8)

(9)

(10)

(11)

(12)

(13)

(14)

(15)

(16)

(17)

----------------------------------------------------------------------------------------------------------------------LESS THAN

152

35

433

25

59

294

1000

13

16623

65

80

65

152

461

127

123

137

1000

1537

31
7

80

95

336

590

27

37

1000

10

13031

27
30

95

- 110

277

125

291

42

176

89

1000

18

24209

110

- 125

10

55

278

270

40

161

148

39

1000

28

37291

62

125

- 140

18

21

75

723

47

36

51

43

1000

96

126100

79

140

- 160

15

49

80

471

37

91

160

50

53

1000

144

189032

113

160

- 180

85

202

402

36

69

38

85

28

52

1000

82

107304

113

180

- 215

150

242

80

75

22

132

25

99

175

1000

97

126836

219

215

- 280

111

250

60

97

51

47

28

40

85

227

1000

141

184428

260

280

- 385

11

92

171

143

211

41

61

40

65

40

134

1000

135

176621

266

& ABOVE

36

216

50

147

295

17

201

38

15

16

1000

235

308666

408

385

N.R.

----------------------------------------------------------------------------------------------------------------------ALL CLASSES

11

118

143

265

130

19

106

37

35

50

94

1000

1000

1311677

1615

-----------------------------------------------------------------------------------------------------------------------

TABLE-4 : PER THOUSAND DISTRIBUTION OF MIGRANT HOUSEHOLDS BY REASON FOR MOVEMENT FOR EACH M P C E CLASS

ALL-INDIA

SECTOR : URBAN

----------------------------------------------------------------------------------------------------------------------M P C E

NO. OF

REASON FOR MOVEMENT (CODES)

PER 1000

MIGRANT HHS.

CLASS

MIGRANT

--------------------------------------------------------------------

DIST. OF

--------------

HHS PER

MIGRANT

1000 HHS

HHS

IN EACH

01

02

03

04

05

06

07

08

09

10

19

ESTD.

SAMPLE

ALL

MPCE CLASS
----------------------------------------------------------------------------------------------------------------------(1)

(2)

(3)

(4)

(5)

(6)

(7)

(8)

(9)

(10)

(11)

(12)

(13)

(14)

(15)

(16)

(17)

----------------------------------------------------------------------------------------------------------------------LESS THAN 90

13

124

152

108

72

489

56

1000

8215

15

90

110

20

44

116

83

59

295

403

1000

8621

17

110

135

376

239

245

111

25

1000

6325

24

135

160

10

55

298

68

53

22

341

134

15

10

1000

15

13504

33

160

185

11

66

167

143

44

490

31

50

1000

23

21239

54

185

215

14

164

122

110

60

111

17

273

136

1000

72

65328

111

215

255

20

88

156

52

51

134

443

13

26

27

11

1000

101

91860

164

255

310

16

252

172

118

134

24

174

32

19

11

56

1000

98

89460

235

310

385

18

67

314

43

361

39

94

14

50

10

1000

84

76711

166

385

520

24

122

188

88

185

54

225

68

16

19

34

1000

227

207377

580

520

700

30

93

81

110

259

10

258

51

66

67

1000

116

105528

214

700

& ABOVE

49

61

112

139

285

282

43

13

11

48

1000

240

218672

383

N.R.

----------------------------------------------------------------------------------------------------------------------ALL CLASSES

22

111

159

101

197

34

246

39

41

21

49

1000

1000

912839

1996

-----------------------------------------------------------------------------------------------------------------------

Source : National Sample Survey Organisation,49th Round,Schedule 1.2

A - 7

TABLE-5 : PER THOUSAND DISTRIBUTION OF

MIGRANT HOUSEHOLDS BY NATURE OF MOVEMENT FOR EACH LOCATION OF LAST RESIDENCE

ALL-INDIA

SECTOR : RURAL

---------------------------------------------------------------------------------------------------------------------LOCATION OF
LAST RESIDENCE

NATURE OF MOVEMENT

MIGRANT HOUSEHOLDS

____________________________________________________________
TEMPORARY

PERMANENT

N.R.

ALL

--------------------ESTD.

SAMPLE

-----------------------SEASONAL

NON-SEASONAL

---------------------------------------------------------------------------------------------------------------------(1)

(2)

(3)

(4)

(5)

(6)

(7)

(8)

---------------------------------------------------------------------------------------------------------------------RURAL AREA OF SAME DIST.

143

208

649

1000

548307

736

URBAN AREA OF SAME DIST.

24

199

691

85

1000

115679

171

223

326

448

1000

163349

252

59

791

150

1000

293908

164

RURAL AREA OF ANOTHER STATE

430

105

465

1000

80881

104

URBAN AREA OF ANOTHER STATE

108

267

625

1000

84606

145

ANOTHER COUNTRY

278

132

591

1000

11977

41

24

371

563

1000

12969

34

RURAL AREA OF ANOTHER


DIST. OF SAME STATE
URBAN AREA OF ANOTHER
DIST. OF SAME STATE

N.R.

---------------------------------------------------------------------------------------------------------------------ALL

139

348

500

14

1000

1311677

1615

---------------------------------------------------------------------------------------------------------------------ESTD. MIGRANT HHS.

182534

455851

655568

17725

1311677

---------------------------------------------------------------------------------------------------------------------SAMPLE MIGRANT HHS.

315

385

885

30

1615

----------------------------------------------------------------------------------------------------------------------

TABLE-5 : PER THOUSAND DISTRIBUTION OF

MIGRANT HOUSEHOLDS BY NATURE OF MOVEMENT FOR EACH LOCATION OF LAST RESIDENCE

ALL-INDIA

SECTOR : URBAN

---------------------------------------------------------------------------------------------------------------------LOCATION OF
LAST RESIDENCE

NATURE OF MOVEMENT

MIGRANT HOUSEHOLDS

____________________________________________________________
TEMPORARY

PERMANENT

N.R.

ALL

------------------ESTD.

SAMPLE

-----------------------SEASONAL

NON-SEASONAL

---------------------------------------------------------------------------------------------------------------------(1)

(2)

(3)

(4)

(5)

(6)

(7)

(8)

---------------------------------------------------------------------------------------------------------------------RURAL AREA OF SAME DIST.

122

337

531

10

1000

244337

509

URBAN AREA OF SAME DIST.

40

334

612

14

1000

128862

263

145

250

604

1000

155631

311

217

298

485

1000

179355

386

RURAL AREA OF ANOTHER STATE

205

309

486

1000

68588

234

URBAN AREA OF ANOTHER STATE

94

418

488

1000

121899

258

218

61

722

1000

2811

10

46

587

366

1000

11356

25

RURAL AREA OF ANOTHER


DIST. OF SAME STATE
URBAN AREA OF ANOTHER
DIST. OF SAME STATE

ANOTHER COUNTRY
N.R.

---------------------------------------------------------------------------------------------------------------------ALL

134

318

538

1000

912839

1996

---------------------------------------------------------------------------------------------------------------------ESTD. MIGRANT HHS.

122625

290532

491019

8664

912839

---------------------------------------------------------------------------------------------------------------------SAMPLE MIGRANT HHS.

245

716

1017

18

1996

---------------------------------------------------------------------------------------------------------------------TABLE-6 : PER THOUSAND DISTRIBUTION OF

MIGRANT HOUSEHOLDS BY LOCATION OF LAST RESIDENCE FOR EACH NATURE OF MOVEMENT

ALL-INDIA

Source : National Sample Survey Organisation,49th Round,Schedule 1.2

SECTOR : RURAL

A - 8

---------------------------------------------------------------------------------------------------------------------LOCATION OF

NATURE OF MOVEMENT

LAST RESIDENCE

MIGRANT HOUSEHOLDS

____________________________________________________________
TEMPORARY

PERMANENT

N.R.

ALL

-----------------ESTD.

SAMPLE

-----------------------SEASONAL

NON-SEASONAL

---------------------------------------------------------------------------------------------------------------------(1)

(2)

(3)

(4)

(5)

(6)

(7)

(8)

---------------------------------------------------------------------------------------------------------------------RURAL AREA OF SAME DIST.

429

250

543

418

548307

URBAN AREA OF SAME DIST.

15

51

122

556

88

115679

171

199

117

112

27

125

163349

252

95

510

67

224

293908

164

RURAL AREA OF ANOTHER STATE

191

19

57

62

80881

104

URBAN AREA OF ANOTHER STATE

50

50

81

65

84606

145

ANOTHER COUNTRY

18

11

11977

412

10

12969

34

RURAL AREA OF ANOTHER

736

DIST. OF SAME STATE


URBAN AREA OF ANOTHER
DIST. OF SAME STATE

N.R.

---------------------------------------------------------------------------------------------------------------------ALL

1000

1000

1000

1000

1000

1311677

1615

---------------------------------------------------------------------------------------------------------------------ESTD. MIGRANT HHS.

182534

455851

655568

17725

1311677

---------------------------------------------------------------------------------------------------------------------SAMPLE MIGRANT HHS.

315

385

885

30

1615

----------------------------------------------------------------------------------------------------------------------

TABLE-6 : PER THOUSAND DISTRIBUTION OF

MIGRANT HOUSEHOLDS BY LOCATION OF LAST RESIDENCE FOR EACH NATURE OF MOVEMENT

ALL-INDIA

SECTOR : URBAN

---------------------------------------------------------------------------------------------------------------------LOCATION OF
LAST RESIDENCE

NATURE OF MOVEMENT

MIGRANT HOUSEHOLDS

____________________________________________________________
TEMPORARY

PERMANENT

N.R.

------------------

ALL

ESTD.

SAMPLE

-----------------------SEASONAL

NON-SEASONAL

---------------------------------------------------------------------------------------------------------------------(1)

(2)

(3)

(4)

(5)

(6)

(7)

(8)

---------------------------------------------------------------------------------------------------------------------RURAL AREA OF SAME DIST.

243

283

264

291

268

244337

URBAN AREA OF SAME DIST.

42

148

161

210

141

128862

263

184

134

191

19

170

155631

311

318

184

177

196

179355

386

RURAL AREA OF ANOTHER

509

DIST. OF SAME STATE


URBAN AREA OF ANOTHER
DIST. OF SAME STATE
RURAL AREA OF ANOTHER STATE

115

73

68

75

68588

234

URBAN AREA OF ANOTHER STATE

94

175

121

134

121899

258

ANOTHER COUNTRY

2811

10

N.R.

14

480

12

11356

25

---------------------------------------------------------------------------------------------------------------------ALL

1000

1000

1000

1000

1000

912839

1996

---------------------------------------------------------------------------------------------------------------------ESTD. MIGRANT HHS.

122625

290532

491019

8664

912839

---------------------------------------------------------------------------------------------------------------------SAMPLE MIGRANT HHS.

245

716

1017

18

1996

----------------------------------------------------------------------------------------------------------------------

Source : National Sample Survey Organisation,49th Round,Schedule 1.2

A - 9

TABLE-7 : PER THOUSAND DISTRIBUTION OF MIGRANT HOUSEHOLDS BY TYPE OF STRUCTURE CURRENTLY LIVING
IN FOR EACH TYPE OF STRUCTURE WHERE LIVED BEFORE MIGRATION
ALL-INDIA

SECTOR : RURAL

---------------------------------------------------------------------------------------------------------------------------TPYE OF STRUCTURE

PROPORTION

WHERE LIVED

OF MIGRANT ---------------------------------------------------------------------------------------------

TYPE OF STRUCTURE CURRENTLY LIVING IN

BEFORE

HOUSEHOLDS

PUCCA

MIGRATION

SEMI-

SERVIC_

UNSERV-

NO STR-

PUCCA

EABLE

ICEABLE

UCTURE

KATCHA

KATCHA

MIGRANT HOUSEHOLDS

N.R.

ALL

ESTD.

SAMPLE

---------------------------------------------------------------------------------------------------------------------------(1)

(2)

(3)

(4)

(5)

(6)

(7)

(8)

(9)

(10)

(11)

---------------------------------------------------------------------------------------------------------------------------PUCCA

318

825

129

37

1000

416743

554

SEMI-PUCCA

280

522

354

98

11

1000

367220

477

SERVICEABLE

175

266

190

503

42

1000

229729

419

191

123

42

722

87

26

1000

249935

112

KATCHA
UNSERVICEABLE
KATCHA
NO STRUCTURE

20

262

379

306

49

1000

25726

14

N.R.

17

521

304

139

37

1000

22324

39

---------------------------------------------------------------------------------------------------------------------------ALL

1000

492

194

273

32

1000

1311677

1615

---------------------------------------------------------------------------------------------------------------------------ESTD. MIGRANT HHS.

645576

254155

358195

41470

9695

2586

1311677

---------------------------------------------------------------------------------------------------------------------------SAMPLE MIGRANT HHS.

698

405

416

86

1615

----------------------------------------------------------------------------------------------------------------------------

TABLE(7) :

PER THOUSAND DISTRIBUTION OF MIGRANT HOUSEHOLDS BY TYPE OF STRUCTURE CURRENTLY LIVING


IN FOR EACH TYPE OF STRUCTURE WHERE LIVED BEFORE MIGRATION

ALL-INDIA

SECTOR : URBAN

---------------------------------------------------------------------------------------------------------------------------TPYE OF STRUCTURE

PROPORTION

WHERE LIVED

OF MIGRANT -----------------------------------------------------------------------

TYPE OF STRUCTURE CURRENTLY LIVING IN

------------------

BEFORE

HOUSEHOLDS

ESTD.

PUCCA

MIGRATION

SEMI-

SERVIC_

UNSERV-

NO STR-

PUCCA

EABLE

ICEABLE

UCTURE

KATCHA

KATCHA

MIGRANT HOUSEHOLDS

N.R.

ALL

SAMPLE

---------------------------------------------------------------------------------------------------------------------------(1)

(2)

(3)

(4)

(5)

(6)

(7)

(8)

(9)

(10)

(11)

---------------------------------------------------------------------------------------------------------------------------PUCCA

640

965

26

1000

584036

1080

SEMI-PUCCA

237

612

343

23

16

1000

215965

519

SERVICEABLE

88

677

128

157

17

18

1000

80512

311

17

804

123

52

20

1000

15918

57

279

81

641

1000

5892

12

12

800

176

24

1000

10516

17

KATCHA
UNSERVICEABLE
KATCHA
NO STRUCTURE
N.R.

---------------------------------------------------------------------------------------------------------------------------ALL

1000

847

114

28

1000

912839

1996

---------------------------------------------------------------------------------------------------------------------------ESTD. MIGRANT HHS.

772869

103953

25256

7903

2615

243

912839

---------------------------------------------------------------------------------------------------------------------------SAMPLE MIGRANT HHS.

1510

327

130

21

1996

----------------------------------------------------------------------------------------------------------------------------

Source : National Sample Survey Organisation,49th Round,Schedule 1.2

A - 10

TABLE-8 : PER THOUSAND DISTRIBUTION OF ALL HOUSEHOLDS AND HOUSEHOLDS REPORTING OUTMIGRATION BY M.P.C.E CLASS

ALL INDIA

SECTOR : RURAL

----------------------------------------------------------------------------------------------------------------------------PER 1000 DISTRIBUTION

NO. OF HHS.

NO. OF HHS.

---------------------------

REPORTING OUT

REPORTING OUT

ALL HHS.

HHS REPORTING

MIGRATION TO

MIGRATION

OUT MIGRATION

ANOTHER

ABROAD PER

TO ANOTHER

STATE/COUNTRY

1000 OUT

-------------------

STATE/COUNTRY

PER 1000 HHS.

MIGRANTS HHS.

ESTD

MPCE CLASS

HOUSEHOLDS REPORTING
HOUSEHOLDS

SAMPLE

OUT MIGRATION
--------------------ESTD

SAMPLE

---------------------------------------------------------------------------------------------------------------------------(1)

(2)

(3)

(4)

(5)

(6)

(7)

(8)

(9)

---------------------------------------------------------------------------------------------------------------------------LESS THAN

65

17

29

78

52

1901161

1580

148852

275

65

80

27

221

740107

503

19821

59

80

95

13

26

111

1483445

901

37825

84

95

110

33

22

30

104

3749851

2072

111825

226

110

125

32

28

38

72

3735862

2226

142235

259

125

140

63

53

38

69

7201273

4080

270254

539

140

160

109

125

50

47

12564638

7202

632285

1136

160

180

111

105

42

89

12754165

7310

530235

938

180

215

206

195

42

91

23702991

14251

986736

1922

215

280

191

184

42

161

22036570

14782

928489

2044

280

385

145

145

44

189

16646067

12246

731512

1784

75

102

60

303

8577619

7897

517802

1371

385 & ABOVE

---------------------------------------------------------------------------------------------------------------------------ALL

1000

1000

44

132

115093749

75050

5057871

10637

----------------------------------------------------------------------------------------------------------------------------

TABLE-8 : PER THOUSAND DISTRIBUTION OF ALL HOUSEHOLDS AND HOUSEHOLDS REPORTING OUTMIGRATION BY M.P.C.E CLASS

ALL INDIA

SECTOR : URBAN

----------------------------------------------------------------------------------------------------------------------------PER 1000 DISTRIBUTION

NO. OF HHS.

-------------------------

REPORTING OUT

REPORTING OUT

HHS REPORTING

MIGRATION TO

MIGRATION

OUT MIGRATION

ANOTHER

ABROAD PER

TO ANOTHER

STATE/COUNTRY

1000 OUT

-------------------

STATE/COUNTRY

PER 1000 HHS.

MIGRANTS HHS.

ESTD

ALL HHS.

MPCE CLASS

NO. OF HHS.

HOUSEHOLDS REPORTING
HOUSEHOLDS

OUT MIGRATION

SAMPLE

--------------------ESTD.

SAMPLE

----------------------------------------------------------------------------------------------------------------------------(1)

(2)

(3)

(4)

(5)

(6)

(7)

(8)

(9)

----------------------------------------------------------------------------------------------------------------------------LESS THAN

90

16

21

27

257

645001

750

17409

74

90

110

11

15

307

433633

468

6468

28

110

135

26

18

14

508

1058550

949

14967

49

135

160

34

25

15

157

1400002

1457

21221

83

160

185

46

32

14

191

1858678

1856

26319

99

185

215

115

74

13

213

4694099

4651

61943

260

215

255

111

77

14

323

4514012

4708

64715

284

255

310

134

93

14

309

5445795

6122

77898

410

310

385

102

92

18

321

4167005

4693

76921

355

385

520

210

187

18

239

8566773

9986

156016

740

520

700

86

88

21

267

3526012

3862

73693

294

ABOVE

110

285

53

280

4481927

4869

237623

523

700 &

----------------------------------------------------------------------------------------------------------------------------ALL

1000

1000

20

274

40791486

44371

835194

3199

-----------------------------------------------------------------------------------------------------------------------------

Source : National Sample Survey Organisation,49th Round,Schedule 1.2

A - 11

TABLE-9 : PER THOUSAND DISTRIBUTION OF OUT MIGRANTS BY REASON FOR MIGRATION FOR EACH AGE GROUP

ALL-INDIA

SEX OF OUT MIGRANT: MALE

SECTOR : RURAL

-----------------------------------------------------------------------------------------------------------------------------------PER 1000
DISTRIBUTPR0PORTION

REASON FOR MIGRATION (CODES)

ION OF OUT

ABROAD----------------------------------------------------------AGE GROUP

PER 1000

MIGRANTS
9

ALL

OUTMIGRANT

OUT MIGRANTS

-------------------BY AGE-

ESTD. SAMPLE

GROUP

-----------------------------------------------------------------------------------------------------------------------------------(1)

(2)

(3)

(4)

(5)

(6

(7)

(8)

(9)

(10)

(11)

(12)

-----------------------------------------------------------------------------------------------------------------------------------0

14

27

242

91

328

295

39

1000

68

353967

720

15

24

72

633

202

138

20

1000

418

2180299

4639

25

34

177

643

283

47

16

1000

338

1766054

3857

35

59

247

644

295

47

1000

171

893284

1902

77

555

365

13

66

1000

25347

51

60 & ABOVE
N. R.

-----------------------------------------------------------------------------------------------------------------------------------ALL AGES

135

612

238

104

23

17

1000

1000

5218952

11169

-----------------------------------------------------------------------------------------------------------------------------------ESTD. OUT MIGRANTS

3192052

1243171

543213

27048

122576

90891

5218952

-----------------------------------------------------------------------------------------------------------------------------------SAMPLE OUT MIGRANTS

6151

2905

1471

105

319

218

11169

------------------------------------------------------------------------------------------------------------------------------------

*
TABLE-9 : PER THOUSAND DISTRIBUTION OF OUT MIGRANTS BY REASON FOR MIGRATION FOR EACH AGE GROUP

ALL-INDIA

SEX OF OUT MIGRANT: FEMALE

SECTOR:RURAL

-----------------------------------------------------------------------------------------------------------------------------------PER 1000
DISTRIBUTPR0PORTION
ABROAD
AGE GROUP

REASON FOR MIGRATION (CODES)

ION OF OUT

--------------------------------------------------------------------

PER 1000

OUTMIGRANTS

ALL

OUT MIGRANTS

MIGRANTS

---------------

BY AGE-

ESTD.

SAMPLE

GROUP

-----------------------------------------------------------------------------------------------------------------------------------(1)

(2)

(3)

(4)

(5)

(6

(7)

(8)

(9)

(10)

(11)

(12)

-----------------------------------------------------------------------------------------------------------------------------------0

14

12

115

32

221

564

59

1000

269

148236

327

15

24

15

267

114

221

127

197

73

1000

427

235590

523

25

34

101

369

178

22

47

306

78

1000

213

117309

314

35

59

188

378

240

15

50

249

68

1000

90

49542

107

601

21

55

924

1000

974

60 & ABOVE
N. R.

-----------------------------------------------------------------------------------------------------------------------------------ALL AGES

49

258

117

160

71

323

72

1000

1000

551651

1279

-----------------------------------------------------------------------------------------------------------------------------------ESTD. OUT MIGRANTS

142100

64431

88266

39212

178183

39458

551651

-----------------------------------------------------------------------------------------------------------------------------------SAMPLE OUT MIGRANTS

294

127

232

70

431

125

1279

-----------------------------------------------------------------------------------------------------------------------------------* PROPORTION IN COL(2) ARE IN THOUSAND

Source : National Sample Survey Organisation,49th Round,Schedule 1.2

A - 12

TABLE-9 : PER THOUSAND DISTRIBUTION OF OUT MIGRANTS BY REASON FOR MIGRATION FOR EACH AGE GROUP

ALL-INDIA

SEX OF OUT MIGRANT: PERSONS

SECTOR : RURAL

-------------------------------------------------------------------------------------------------------------------------------PER 1000
DISTRIBUTPR0PORTION
ABROAD
AGE GROUP

REASON FOR MIGRATION (CODES)

ION OF OUT

--------------------------------------------------------------------

PER 1000

MIGRANTS

ALL

OUTMIGRANTS

BY AGE-

OUT MIGRANTS
-------------ESTD.

SAMPLE

GROUP

-------------------------------------------------------------------------------------------------------------------------------(1)

(2)

(3)

(4)

(5)

(6)

(7)

(8)

(9)

(10)

(11)

(12)

-------------------------------------------------------------------------------------------------------------------------------0

14

23

205

74

296

374

45

1000

87

502204

1047

15

24

66

598

193

146

15

22

26

1000

419

2415890

5162

25

34

173

626

276

46

24

20

1000

326

1883363

4171

35

59

244

630

292

46

12

14

1000

163

942859

2010

97

535

352

13

98

1000

26320

59

60 & ABOVE
N. R.

-------------------------------------------------------------------------------------------------------------------------------ALL AGES

126

578

227

109

11

52

23

1000

1000

5770636

12449

-------------------------------------------------------------------------------------------------------------------------------ESTD. OUT MIGRANTS

3334186

1307603

631479

66261

300759

130349

5770636

-------------------------------------------------------------------------------------------------------------------------------SAMPLE OUT MIGRANTS

6446

3032

1703

175

750

343

12449

-------------------------------------------------------------------------------------------------------------------------------*
TABLE-9 : PER THOUSAND DISTRIBUTION OF OUT MIGRANTS BY REASON FOR MIGRATION FOR EACH AGE GROUP

ALL-INDIA

SEX OF OUT MIGRANT: MALE

SECTOR:URBAN

----------------------------------------------------------------------------------------------------------------------------PER 1000
DISTRIBUTPR0PORTION
ABROAD
AGE GROUP

REASON FOR MIGRATION (CODES)

ION OF OUT

--------------------------------------------------------------

PER 1000

OUTMIGRANTS

ALL

OUT MIGRANTS

MIGRANTS

--------------

BY AGE-

ESTD.

SAMPLE

GROUP

----------------------------------------------------------------------------------------------------------------------------(1)

(2)

(3)

(4)

(5)

(6)

(7)

(8)

(9)

(10)

(11)

(12)

----------------------------------------------------------------------------------------------------------------------------0

14

329

65

33

363

44

444

51

1000

74

63056

220

15

24

129

315

108

295

13

16

252

1000

385

326873

1213

25

34

357

545

285

131

21

11

1000

345

293153

1110

35

59

432

478

358

77

56

10

21

1000

192

162683

653

697

691

201

66

42

1000

2839

15

60 & ABOVE
N. R.

----------------------------------------------------------------------------------------------------------------------------ALL AGES

283

408

212

201

26

44

109

1000

1000

848604

3211

----------------------------------------------------------------------------------------------------------------------------ESTD. OUT MIGRANTS

346438

179785

170332

22266

37239

92544

848604

----------------------------------------------------------------------------------------------------------------------------SAMPLE OUT MIGRANTS

1307

791

801

71

111

130

3211

-----------------------------------------------------------------------------------------------------------------------------

* PROPORTION IN COL(2) ARE IN THOUSAND

Source : National Sample Survey Organisation,49th Round,Schedule 1.2

A - 13

*
TABLE-9 : PER THOUSAND DISTRIBUTION OF OUT MIGRANTS BY REASON FOR MIGRATION FOR EACH AGE GROUP

ALL-INDIA

SEX OF OUT MIGRANT: FEMALE

SECTOR:URBAN

----------------------------------------------------------------------------------------------------------------------------PER 1000
DISTRIBUTPR0PORTION
ABROAD
AGE GROUP

REASON FOR MIGRATION (CODES)

ION OF OUT

----------------------------------------------------------------

PER 1000

OUTMIGRANTS

ALL

OUT MIGRANTS

MIGRANTS

---------------

BY AGE-

ESTD.

SAMPLE

GROUP

----------------------------------------------------------------------------------------------------------------------------(1)

(2)

(3)

(4)

(5)

(6)

(7)

(8)

(9)

(10)

(11)

(12)

----------------------------------------------------------------------------------------------------------------------------0

14

91

48

319

15

468

149

1000

198

26055

111

15

24

30

130

100

353

177

196

44

1000

408

53797

200

25

34

524

189

111

159

74

425

44

1000

306

40387

119

35

59

418

207

172

126

27

222

246

1000

86

11391

52

623

1000

1000

211

60 & ABOVE
N. R.

----------------------------------------------------------------------------------------------------------------------------ALL AGES

228

138

90

267

100

322

84

1000

1000

131842

486

----------------------------------------------------------------------------------------------------------------------------ESTD. OUT MIGRANTS

18225

11826

35170

13189

42422

11011

131842

----------------------------------------------------------------------------------------------------------------------------SAMPLE OUT MIGRANTS

51

37

163

33

136

66

486

-----------------------------------------------------------------------------------------------------------------------------

*
TABLE-9 : PER THOUSAND DISTRIBUTION OF OUT MIGRANTS BY REASON FOR MIGRATION FOR EACH AGE GROUP

ALL-INDIA

SEX OF OUT MIGRANT: PERSONS

SECTOR : URBAN

----------------------------------------------------------------------------------------------------------------------------PER 1000
DISTRIBUTPR0PORTION
ABROAD
AGE GROUP

REASON FOR MIGRATION (CODES)

ION OF OUT

---------------------------------------------------------------

PER1000

MIGRANTS

ALL

OUTMIGRANTS

BY AGE-

OUT MIGRANTS
--------------ESTD.

SAMPLE

GROUP

----------------------------------------------------------------------------------------------------------------------------(1)

(2)

(3)

(4)

(5)

(6)

(7)

(8)

(9)

(10)

(11)

(12)

----------------------------------------------------------------------------------------------------------------------------0

14

259

60

24

350

36

451

80

1000

91

89111

331

15

24

115

289

107

304

36

42

223

1000

388

380670

1413

25

34

377

502

263

134

28

58

15

1000

340

333540

1229

35

59

431

460

346

80

54

24

36

1000

178

174074

705

692

643

187

62

108

1000

3050

19

60 & ABOVE
N. R.

----------------------------------------------------------------------------------------------------------------------------ALL AGES

275

372

195

210

36

81

106

1000

1000

980446

3697

----------------------------------------------------------------------------------------------------------------------------ESTD. OUT MIGRANTS

364663

191611

205502

35454

79661

103555

980446

----------------------------------------------------------------------------------------------------------------------------SAMPLE OUT MIGRANTS

1358

828

964

104

247

196

3697

-----------------------------------------------------------------------------------------------------------------------------

* PROPORTION IN COL(2) ARE IN THOUSAND

Source : National Sample Survey Organisation,49th Round,Schedule 1.2

A - 14

TABLE-10 : PER THOUSAND DISTRIBUTION OF OUT MIGRANTS BY REASON FOR MIGRATION FOR EACH MPCE CLASS
ALL-INDIA

SEX OF OUT MIGRANT: MALE

SECTOR:RURAL

----------------------------------------------------------------------------------------------------------------------------PR0PORTION
MPCE CLASS

ABROAD

REASON FOR MIGRATION (CODES)

PER 1000

-------------------------------------------------------------

PER1000

ALL

OUTMIGRANTS

DISTRIBUTION OF
OUT

MIGRANTS

BY MPCE CLASS

UT

MIGRANTS

--------------

ESTD.

SAMPLE

----------------------------------------------------------------------------------------------------------------------------(1)

(2)

(3)

(4)

(5)

(6)

(7)

(8)

(9)

(10)

(11)

(12)

----------------------------------------------------------------------------------------------------------------------------LESS THAN

58

579

205

195

13

1000

25

131434

261

65

80

65

201

573

120

295

1000

20656

57

80

95

101

518

286

192

1000

41462

90

95

110

104

693

185

36

86

1000

23

121173

232

110

125

81

767

124

74

30

1000

27

142443

271

125

140

80

752

191

35

10

11

1000

54

282373

569

140

160

46

688

222

67

14

1000

122

635150

1214

160

180

94

718

191

65

13

1000

110

572972

1014

180

215

87

626

238

92

26

12

1000

201

1048628

2039

215

280

172

567

289

101

21

17

1000

183

956748

2178

280

385

190

508

254

160

32

39

1000

138

719763

1851

385

& ABOVE

302

483

270

166

14

31

35

1000

105

546151

1393

----------------------------------------------------------------------------------------------------------------------------ALL

135

612

238

104

23

17

1000

1000

5218952

11169

----------------------------------------------------------------------------------------------------------------------------ESTD. OUT MIGRANTS

3192052

1243171

543213

27048

122576

90891

5218952

----------------------------------------------------------------------------------------------------------------------------SAMPLE OUT MIGRANTS

6151

2905

1471

105

319

218

11169

-----------------------------------------------------------------------------------------------------------------------------

ALL-INDIA

SEX OF OUT MIGRANT: FEMALE

SECTOR : RURAL

----------------------------------------------------------------------------------------------------------------------------PR0PORTION
MPCE CLASS

REASON FOR MIGRATION (CODES)

PER 1000

ABROAD

-------------------------------------------------------------

DISTRIBUTION OF

PER1000

OUT

ALL

OUTMIGRANTS

MIGRANTS

BY MPCE CLASS

UT

MIGRANTS

--------------

ESTD.

SAMPLE

----------------------------------------------------------------------------------------------------------------------------(1)

(2)

(3)

(4)

(5)

(6)

(7)

(8)

(9)

(10)

(11)

(12)

----------------------------------------------------------------------------------------------------------------------------LESS THAN

812

59

124

1000

3464

65

80

65

321

47

321

596

36

1000

713

16
4

80

95

320

242

253

186

1000

14

7799

12

95

110

309

47

66

573

1000

29

15962

18

110

125

159

205

20

182

434

1000

26

14362

22

125

140

55

518

27

44

26

301

84

1000

33

17981

49

140

160

414

16

177

109

232

52

1000

110

60570

109

160

180

330

206

13

63

336

52

1000

91

50308

96

180

215

14

257

88

113

81

387

74

1000

186

102416

222

215

280

24

196

117

217

103

313

55

1000

169

93221

259

280

385

131

253

166

205

21

304

51

1000

211

116621

246

385

& ABOVE

101

107

115

222

65

301

191

1000

124

68233

226

----------------------------------------------------------------------------------------------------------------------------ALL

49

258

117

160

71

323

72

1000

1000

551651

1279

----------------------------------------------------------------------------------------------------------------------------ESTD. OUT MIGRANTS

142100

64431

88266

39212

178183

39458

551651

----------------------------------------------------------------------------------------------------------------------------SAMPLE OUT MIGRANTS

294

127

232

70

431

125

1279

-----------------------------------------------------------------------------------------------------------------------------

Source : National Sample Survey Organisation,49th Round,Schedule 1.2

A - 15

TABLE-10 : PER THOUSAND DISTRIBUTION OF OUT MIGRANTS BY REASON FOR MIGRATION FOR EACH MPCE CLASS
ALL-INDIA

SEX OF OUT MIGRANT: PERSONS

SECTOR:RURAL

----------------------------------------------------------------------------------------------------------------------------PR0PORTION
MPCE CLASS

OF OUT

REASON FOR MIGRATION (CODES)

PER 1000

-------------------------------------------------------------

MIGRANTS

DISTRIBUTION OF

ALL

OUT

ABROAD

MIGRANTS

UT

MIGRANTS

--------------

BY MPCE CLASS

ESTD.

SAMPLE

----------------------------------------------------------------------------------------------------------------------------(1)

(2)

(3)

(4)

(5)

(6)

(7)

(8)

(9)

(10)

(11)

(12)

----------------------------------------------------------------------------------------------------------------------------LESS THAN

57

565

199

210

15

1000

23

134899

65

80

65

205

555

116

296

22

10

1000

21369

277
61

80

95

85

487

279

202

29

1000

49261

102

95

110

92

648

169

31

143

1000

24

137135

250

110

125

73

712

131

69

17

67

1000

27

156805

293

125

140

78

738

181

36

28

15

1000

52

300354

618

140

160

42

664

204

76

10

33

12

1000

121

695719

1323

160

180

86

686

192

61

10

39

11

1000

108

623314

1111

180

215

80

593

225

94

12

59

17

1000

199

1151044

2261

215

280

159

534

274

111

13

47

20

1000

182

1049969

2437

280

385

181

473

242

166

70

40

1000

145

836384

2097

385

& ABOVE

280

441

253

172

20

61

53

1000

106

614383

1619

----------------------------------------------------------------------------------------------------------------------------ALL

126

578

227

109

11

52

23

1000

1000

5770636

12449

----------------------------------------------------------------------------------------------------------------------------ESTD. OUT MIGRANTS

3334186

1307603

631479

66261

300759

130349

5770636

----------------------------------------------------------------------------------------------------------------------------SAMPLE OUT MIGRANTS

6446

3032

1703

175

750

343

12449

-----------------------------------------------------------------------------------------------------------------------------

ALL-INDIA

SEX OF OUT MIGRANT: MALE

SECTOR : URBAN

----------------------------------------------------------------------------------------------------------------------------PR0PORTION
MPCE CLASS

OF OUT
MIGRANTS

REASON FOR MIGRATION (CODES)

PER 1000

------------------------------------------------------------1

DISTRIBUTION OF

ALL

ABROAD

OUT

MIGRANTS

BY MPCE CLASS

UT

MIGRANTS

-------------ESTD.

SAMPLE

----------------------------------------------------------------------------------------------------------------------------(1)

(2)

(3)

(4)

(5)

(6)

(7)

(8)

(9)

(10)

(11)

(12)

--------------------------------------------------------------------------------------------------------------------LESS THAN

90

186

432

146

380

33

10

1000

16

13690

70

90

110

238

852

23

99

26

1000

5350

25

110

135

341

465

324

188

13

10

1000

14

11518

46

135

160

144

757

159

64

12

1000

26

22444

80

160

185

182

774

111

82

20

13

1000

35

29339

102

185

215

205

618

225

115

15

12

14

1000

77

64925

273

215

255

328

538

239

143

19

57

1000

76

64259

295

255

310

309

504

299

106

26

35

30

1000

92

78328

422

310

385

305

567

183

154

27

35

34

1000

95

80900

381

385

520

245

388

284

243

34

33

18

1000

175

148094

714

520

700

318

362

212

274

61

48

43

1000

77

65366

287

700

& ABOVE

314

188

163

254

25

80

289

1000

312

264391

516

---------------------------------------------------------------------------------------------------------------------------ALL

283

408

212

201

26

44

109

1000

1000

848604

3211

---------------------------------------------------------------------------------------------------------------------------ESTD. OUT MIGRANTS

346438

179785

170332

22266

37239

92544

848604

---------------------------------------------------------------------------------------------------------------------------SAMPLE OUT MIGRANTS

1307

791

801

71

111

130

3211

---------------------------------------------------------------------------------------------------------------------------* PROPORTION IN COL(2) ARE IN THOUSAND

Source : National Sample Survey Organisation,49th Round,Schedule 1.2

A - 16

TABLE-10 : PER THOUSAND DISTRIBUTION OF OUT MIGRANTS BY REASON FOR MIGRATION FOR EACH MPCE CLASS
ALL-INDIA

SEX OF OUT MIGRANT: FEMALE

SECTOR : URBAN

----------------------------------------------------------------------------------------------------------------------------PR0PORTION
MPCE CLASS

OF OUT

REASON FOR MIGRATION (CODES)

PER 1000

-------------------------------------------------------------

MIGRANTS

DISTRIBUTION OF

ALL

OUT

ABROAD

MIGRANTS

UT

MIGRANTS

--------------

BY MPCE CLASS

ESTD.

SAMPLE

----------------------------------------------------------------------------------------------------------------------------(1)

(2)

(3)

(4)

(5)

(6)

(7)

(8)

(9)

(10)

(11)

(12)

----------------------------------------------------------------------------------------------------------------------------LESS THAN

90

514

486

1000

874

90

110

970

880

30

90

1000

698

110

135

736

755

206

32

1000

38

4986

135

160

995

542

453

1000

857

160

185

335

192

474

1000

608

185

215

102

232

141

177

32

414

1000

81

10722

36

215

255

74

91

291

15

522

76

1000

110

14480

41

255

310

171

238

96

247

44

281

94

1000

78

10258

58

310

385

45

59

303

207

35

260

135

1000

107

14124

62

385

520

120

112

75

375

34

259

145

1000

143

18844

100

520

700

68

15

18

252

467

188

61

1000

123

16151

49

700

& ABOVE

432

95

83

303

63

374

82

1000

298

39240

115

----------------------------------------------------------------------------------------------------------------------------ALL

228

138

90

267

100

322

84

1000

1000

131842

486

----------------------------------------------------------------------------------------------------------------------------ESTD. OUT MIGRANTS

18225

11826

35170

13189

42422

11011

131842

----------------------------------------------------------------------------------------------------------------------------SAMPLE OUT MIGRANTS

51

37

163

33

136

66

486

-----------------------------------------------------------------------------------------------------------------------------

ALL-INDIA

SEX OF OUT MIGRANT: PERSONS

SECTOR : URBAN

----------------------------------------------------------------------------------------------------------------------------PR0PORTION
MPCE CLASS

OF OUT
MIGRANTS

REASON FOR MIGRATION (CODES)

PER 1000

------------------------------------------------------------1

DISTRIBUTION OF

ALL

ABROAD

OUT

MIGRANTS

BY MPCE CLASS

UT

MIGRANTS

-------------ESTD.

SAMPLE

----------------------------------------------------------------------------------------------------------------------------(1)

(2)

(3)

(4)

(5)

(6)

(7)

(8)

(9)

(10)

(11)

(12)

----------------------------------------------------------------------------------------------------------------------------LESS THAN

90

175

406

137

388

31

29

1000

15

14564

73

90

110

322

855

20

91

33

1000

6048

30

110

135

460

553

228

131

62

19

1000

17

16504

53

135

160

175

749

153

62

29

1000

24

23300

86

160

185

178

765

109

84

20

10

13

1000

31

29947

106

185

215

190

563

213

124

18

69

13

1000

77

75647

309

215

255

281

456

195

170

111

60

1000

80

78739

336

255

310

293

474

275

122

28

64

38

1000

90

88587

480

310

385

267

492

201

162

28

69

49

1000

97

95025

443

385

520

231

357

260

258

34

59

32

1000

170

166938

814

520

700

268

293

173

270

142

76

46

1000

83

81517

336

700

& ABOVE

330

176

153

260

30

118

263

1000

310

303632

631

----------------------------------------------------------------------------------------------------------------------------ALL

275

372

195

210

36

81

106

1000

1000

980446

3697

----------------------------------------------------------------------------------------------------------------------------ESTD. OUT MIGRANTS

364663

191611

205502

35454

79661

103555

980446

----------------------------------------------------------------------------------------------------------------------------SAMPLE OUT MIGRANTS

1358

828

964

104

247

196

3697

----------------------------------------------------------------------------------------------------------------------------* PROPORTION IN COL(2) ARE IN THOUSAND

Source : National Sample Survey Organisation,49th Round,Schedule 1.2

A - 17

TABLE-11 : PER THOUSAND DISTRIBUTION OF OUT MIGRANTS BY PERIOD SINCE MIGRATED AND EXPECTED
DURATION OF STAY FOR EACH REASON FOR MIGRATION

ALL-INDIA

SEX OF OUT MIGRANT: MALE

SECTOR : RURAL

----------------------------------------------------------------------------------------------------------------------------PERIOD IN (YEARS) SINCE MIGRATED

OUT MIGRANTS

-----------------------------------------------------------------------------------------------------------------REASON FOR
MIGRATION
(CODES)

ALL

ESTD.

SAMPLE

------------------------EXPECTED DURATION OF STAY


---------------------LESS THAN

6 MONTHS

6 MONTHS

OR MORE

N.R.

COMBINED

----------------------------------------------------------------------------------------------------------------------------(1)

(2)

(3)

(4)

(5)

(6)

(7)

(8)

(9)

(10)

(11)

(12)

----------------------------------------------------------------------------------------------------------------------------1

98

170

10

278

187

217

152

165

1000

3192052

6151

56

93

158

143

250

192

257

1000

1243171

2905

27

79

31

137

202

289

207

166

1000

543213

1471

77

206

27

311

147

221

182

139

1000

27048

105

61

150

14

225

168

283

120

204

1000

122576

319

58

75

18

151

403

249

132

66

1000

90891

218

----------------------------------------------------------------------------------------------------------------------------ALL

79

140

13

232

181

234

167

186

1000

5218952

11169

----------------------------------------------------------------------------------------------------------------------------ESTD. OUT

412314

731626

65841

1209781

945036

1223583

869114

971437

5218952

693

1455

105

2253

2113

2760

1932

2111

11169

MIGRANTS
SAMPLE OUT
MIGRANTS
-----------------------------------------------------------------------------------------------------------------------------

ALL-INDIA

SEX OF OUT MIGRANT: FEMALE

SECTOR : RURAL

----------------------------------------------------------------------------------------------------------------------------PERIOD IN (YEARS) SINCE MIGRATED

OUT MIGRANTS

-------------------------------------------------------------------------------------------------- --------------REASON FOR


MIGRATION

ALL

ESTD.

SAMPLE

------------------------EXPECTED DURATION OF STAY


---------------------LESS THAN

6 MONTHS

6 MONTHS

OR MORE

N.R.

COMBINED

----------------------------------------------------------------------------------------------------------------------------(1)

(2)

(3)

(4)

(5)

(6)

(7)

(8)

(9)

(10)

(11)

(12)

----------------------------------------------------------------------------------------------------------------------------1

99

133

52

284

229

232

151

104

1000

142100

294

126

218

343

270

174

93

120

1000

64431

127

25

39

64

207

317

204

208

1000

88266

232

17

70

87

222

219

408

64

1000

39212

70

69

144

214

199

199

157

231

1000

178183

431

17

280

300

235

207

116

143

1000

39458

125

----------------------------------------------------------------------------------------------------------------------------ALL

69

137

14

220

221

225

170

164

1000

551651

1279

----------------------------------------------------------------------------------------------------------------------------ESTD. OUT

37915

75727

7871

121513

121654

124310

93977

90197

551651

93

196

298

267

335

187

192

1279

MIGRANTS
SAMPLE OUT
MIGRANTS
-----------------------------------------------------------------------------------------------------------------------------

Source : National Sample Survey Organisation,49th Round,Schedule 1.2

A - 18

TABLE-11 : PER THOUSAND DISTRIBUTION OF OUT MIGRANTS BY PERIOD SINCE MIGRATED AND EXPECTED
DURATION OF STAY FOR EACH REASON FOR MIGRATION

ALL-INDIA

SEX OF OUT MIGRANT: PERSONS

SECTOR : RURAL

----------------------------------------------------------------------------------------------------------------------------PERIOD IN (YEARS) SINCE MIGRATED

OUT MIGRANTS

-----------------------------------------------------------------------------------------------------------------REASON FOR
MIGRATION
(CODES)

ALL

ESTD.

SAMPLE

------------------------EXPECTED DURATION OF STAY


---------------------LESS THAN

6 MONTHS

6 MONTHS

OR MORE

N.R.

COMBINED

----------------------------------------------------------------------------------------------------------------------------(1)

(2)

(3)

(4)

(5)

(6)

(7)

(8)

(9)

(10)

(11)

(12)

----------------------------------------------------------------------------------------------------------------------------1

98

168

12

279

189

218

152

163

1000

3334186

6446

59

99

167

149

246

187

250

1000

1307603

3032

26

74

27

127

202

293

206

172

1000

631479

1703

41

126

11

178

192

220

316

95

1000

66261

175

66

146

219

186

233

142

220

1000

300759

750

45

137

13

196

352

236

127

89

1000

130349

343

----------------------------------------------------------------------------------------------------------------------------ALL

78

140

13

231

185

234

167

184

1000

5770636

12449

----------------------------------------------------------------------------------------------------------------------------ESTD. OUT

450230

807352

73713

1331295

1066724

1347893

963090

1061635

5770636

786

1651

114

2551

2381

3095

2119

2303

12449

MIGRANTS
SAMPLE OUT
MIGRANTS
-----------------------------------------------------------------------------------------------------------------------------

ALL-INDIA

SEX OF OUT MIGRANT: MALE

SECTOR : URBAN

----------------------------------------------------------------------------------------------------------------------------PERIOD IN (YEARS) SINCE MIGRATED

OUT MIGRANTS

-----------------------------------------------------------------------------------------------------------------REASON FOR
MIGRATION
(CODES)

ALL

ESTD.

SAMPLE

------------------------EXPECTED DURATION OF STAY


---------------------LESS THAN

6 MONTHS

6 MONTHS

OR MORE

N.R.

COMBINED

----------------------------------------------------------------------------------------------------------------------------(1)

(2)

(3)

(4)

(5)

(6)

(7)

(8)

(9)

(10)

(11)

(12)

----------------------------------------------------------------------------------------------------------------------------1

42

139

21

203

186

244

149

219

1000

346438

1307

31

160

196

151

319

147

186

1000

179785

791

21

144

19

184

203

257

186

171

1000

170332

801

29

131

28

188

218

198

166

231

1000

22266

71

15

73

94

134

599

79

94

1000

37239

111

330

339

305

277

16

63

1000

92544

130

----------------------------------------------------------------------------------------------------------------------------ALL

30

162

15

207

193

281

139

180

1000

848604

3211

----------------------------------------------------------------------------------------------------------------------------ESTD. OUT

25402

137566

12856

175824

164075

238032

117759

152913

848604

119

433

46

598

642

827

538

606

3211

MIGRANTS
SAMPLE OUT
MIGRANTS
-----------------------------------------------------------------------------------------------------------------------------

Source : National Sample Survey Organisation,49th Round,Schedule 1.2

A - 19

TABLE-11 : PER THOUSAND DISTRIBUTION OF OUT MIGRANTS BY PERIOD SINCE MIGRATED AND EXPECTED
DURATION OF STAY FOR EACH REASON FOR

ALL-INDIA

MIGRATION

SEX OF OUT MIGRANT: FEMALE

SECTOR : URBAN

----------------------------------------------------------------------------------------------------------------------------PERIOD IN (YEARS) SINCE MIGRATED

OUT MIGRANTS

-----------------------------------------------------------------------------------------------------------------REASON FOR
MIGRATION
(CODES)

ALL

ESTD.

SAMPLE

------------------------EXPECTED DURATION OF STAY


---------------------LESS THAN

6 MONTHS

6 MONTHS

OR MORE

N.R.

COMBINED

----------------------------------------------------------------------------------------------------------------------------(1)

(2)

(3)

(4)

(5)

(6)

(7)

(8)

(9)

(10)

(11)

(12)

----------------------------------------------------------------------------------------------------------------------------1

73

449

527

79

260

82

51

1000

18225

51

25

157

233

255

132

187

193

1000

11826

51
37

91

101

282

355

184

78

1000

35170

163

10

118

128

128

107

493

143

1000

13189

33

15

80

99

174

551

69

106

1000

42422

136

83

132

214

53

357

110

265

1000

11011

66

----------------------------------------------------------------------------------------------------------------------------ALL

28

137

18

183

183

360

158

116

1000

131842

486

----------------------------------------------------------------------------------------------------------------------------ESTD. OUT

3723

18093

2370

24185

24077

47512

20813

15255

131842

12

73

91

104

138

68

85

486

MIGRANTS
SAMPLE OUT
MIGRANTS
-----------------------------------------------------------------------------------------------------------------------------

ALL-INDIA

SEX OF OUT MIGRANT: PERSONS

SECTOR : URBAN

----------------------------------------------------------------------------------------------------------------------------PERIOD IN (YEARS) SINCE MIGRATED

OUT MIGRANTS

-----------------------------------------------------------------------------------------------------------------REASON FOR
MIGRATION
(CODES)

ALL

ESTD.

SAMPLE

------------------------EXPECTED DURATION OF STAY


---------------------LESS THAN

6 MONTHS

6 MONTHS

OR MORE

N.R.

COMBINED

----------------------------------------------------------------------------------------------------------------------------(1)

(2)

(3)

(4)

(5)

(6)

(7)

(8)

(9)

(10)

(11)

(12)

----------------------------------------------------------------------------------------------------------------------------1

44

155

21

219

180

245

146

211

1000

364663

1358

32

152

15

199

158

308

149

187

1000

191611

828

18

135

17

170

216

274

186

155

1000

205502

964

22

126

18

166

184

164

287

198

1000

35454

104

15

77

97

156

573

74

100

1000

79661

247

13

309

326

278

286

26

84

1000

103555

196

----------------------------------------------------------------------------------------------------------------------------ALL

30

159

16

204

192

291

141

172

1000

980446

3697

----------------------------------------------------------------------------------------------------------------------------ESTD. OUT

29125

155659

15225

200010

188153

285544

138572

168168

980446

131

506

52

689

746

965

606

691

3697

MIGRANTS
SAMPLE OUT
MIGRANTS
-----------------------------------------------------------------------------------------------------------------------------

Source : National Sample Survey Organisation,49th Round,Schedule 1.2

A - 20

TABLE-12 : PER THOUSAND DISTRIBUTION OF OUT MIGRANTS BY EMPLOYMENT AND REMITTANCE STATUS FOR EACH STATE AND U.T.

MALE

SECTOR : RURAL

-----------------------------------------------------------------------------------------------------------------------------------PROPORTION OF
OUTMIGRANTS
STATE/U.T.

PLACE OF MIGRATION

NO OF OUTMIGRANTS

------------------------------------------------------------------------------ ------------------

PER 1000

ABROAD

POPULATION

IN INDIA

N.R.

ALL ESTIMATED

SAMPLE

------------------------------- ------------------------------EMPLOYED

NOT EMPLOYED

EMPLOYED

NOT EMPLOYED

--------------- --------------- --------------- --------------NOT


MAKING

NOT

MAKING

MAKING

NOT

MAKING

MAKING

NOT

MAKING

MAKING

MAKING

REMI-

REMI-

REMI-

REMI-

REMI-

REMI-

REMI-

REMI-

TTANCE

TTANCE

TTANCE

TTANCE

TTANCE

TTANCE

TTANCE

TTANCE

-----------------------------------------------------------------------------------------------------------------------------------(1)

(2)

(3)

(4)

(5)

(6)

(7)

(8)

(9)

(10)

(11)

(12)

(13)

(14)

-----------------------------------------------------------------------------------------------------------------------------------ANDHRA PRADESH

113

30

384

151

22

288

1000

110798

ARUNACHAL PRADESH

236

57

644

64

1000

618

20

ASSAM

36

701

67

190

1000

60202

241

BIHAR

45

36

727

102

15

109

1000

1340492

2115

GOA

14

569

34

33

210

65

89

1000

3212

48

117

31

15

448

225

33

130

1000

103967

172

GUJARAT

252

HARYANA

17

26

496

141

326

1000

104266

213

HIMACHAL PRADESH

27

20

576

165

233

1000

61069

365

JAMMU & KASHMIR

21

92

776

52

80

1000

26223

229

27

580

185

206

1000

130651

258

68

511

35

21

275

63

84

10

1000

616253

1289
356

KARNATAKA
KERALA
MADHYA PRADESH

306

218

80

388

1000

118275

MAHARASTRA

64

22

610

129

173

1000

55900

82

19

106

141

343

409

1000

10632

163

MEGHALAYA

383

368

249

1000

960

13

MIZORAM

22

178

38

176

584

1000

1629

73

NAGALAND

10

18

165

817

1000

1437

64

ORISSA

11

20

561

132

264

1000

127556

280

PUNJAB

19

376

56

51

365

93

17

37

1000

113530

425

RAJASTHAN

22

133

667

60

14

115

1000

353140

714

MANIPUR

SIKKIM
TAMIL NADU
TRIPURA
UTTAR PRADESH
WEST BENGAL

157

125

718

1000

1175

40

15

177

27

533

204

56

1000

275112

461

545

257

26

136

35

1000

8458

149

23

28

713

134

106

1000

1345663

2561

42

25

24

679

138

92

1000

242152

438

13

203

54

743

1000

1199

24

CHANDIGARH

601

235

112

52

1000

231

DADER NAGAR-HAVELI

40

50

333

575

1000

500

28

DAMAN & DIU

21

816

72

84

22

1000

711

44

DELHI

10

16

984

1000

1959

LAKSHADWEEP

40

240

752

1000

277

16

286

384

10

315

1000

705

28

ANDAMAN & NICOBAR

PONDICHERY

-----------------------------------------------------------------------------------------------------------------------------------ALL-INDIA

17

114

13

605

120

10

126

1000

5218952

11169

-----------------------------------------------------------------------------------------------------------------------------------OUTMIGRANTS
-------------ESTIMATED (00)

52190

5939

658

11

416

31566

6271

540

6589

199

52190

SAMPLE

11169

1326

164

82

6285

1342

189

1726

51

11169

------------------------------------------------------------------------------------------------------------------------------------

Source : National Sample Survey Organisation,49th Round,Schedule 1.2

A - 21

TABLE-12 : PER THOUSAND DISTRIBUTION OF OUT MIGRANTS BY EMPLOYMENT AND REMITTANCE STATUS FOR EACH STATE AND U.T.

FEMALE

SECTOR : RURAL

-----------------------------------------------------------------------------------------------------------------------------------PROPORTION OF
OUTMIGRANTS
STATE/U.T.

PLACE OF MIGRATION

NO OF OUTMIGRANTS

------------------------------------------------------------------------------ ------------------

PER 1000

ABROAD

POPULATION

IN INDIA

N.R.

ALL ESTIMATED

SAMPLE

------------------------------- ------------------------------EMPLOYED

NOT EMPLOYED

EMPLOYED

NOT EMPLOYED

--------------- --------------- --------------- --------------NOT

NOT

NOT

NOT

MAKING

MAKING

MAKING

MAKING

MAKING

MAKING

MAKING

REMI-

REMI-

REMI-

REMI-

REMI-

REMI-

REMI-

MAKING
REMI-

TTANCE

TTANCE

TTANCE

TTANCE

TTANCE

TTANCE

TTANCE

TTANCE

-----------------------------------------------------------------------------------------------------------------------------------(1)

(2)

(3)

(4)

(5)

(6)

(7)

(8)

(9)

(10)

(11)

(12)

(13)

(14)

-----------------------------------------------------------------------------------------------------------------------------------ANDHRA PRADESH

359

251

67

313

1000

17650

ARUNACHAL PRADESH

181

819

1000

109

33
5

ASSAM

393

57

546

1000

13980

14
122

BIHAR

11

161

191

29

607

1000

80309

GOA

510

490

1000

454

GUJARAT

42

30

70

10

89

25

735

1000

23767

33

HARYANA

264

26

686

24

1000

26317

37

HIMACHAL PRADESH

65

80

11

844

1000

4917

28

JAMMU & KASHMIR

289

25

205

481

1000

922

KARNATAKA

251

245

491

13

1000

49849

93

KERALA

75

91

36

133

121

530

14

1000

87174

155

MADHYA PRADESH

185

162

50

593

10

1000

55775

153

MAHARASTRA

29

54

14

904

1000

6559

16

MANIPUR

85

547

368

1000

1710

33

MEGHALAYA

MIZORAM

90

340

563

1000

630

33

NAGALAND

1000

1000

117

ORISSA

14

73

53

30

830

1000

16754

24

PUNJAB

263

41

340

356

1000

5407

23

RAJASTHAN

50

295

108

548

1000

19474

52

SIKKIM

73

927

1000

136

TAMIL NADU

44

229

145

582

1000

29240

68

TRIPURA

54

49

887

1000

1050

25

UTTAR PRADESH

170

88

27

677

35

1000

95509

240

WEST BENGAL

153

88

759

1000

10667

30

11

94

906

1000

882

18

CHANDIGARH

1000

1000

95

DADER NAGAR-HAVELI

ANDAMAN & NICOBAR

DAMAN & DIU

799

201

1000

43

10

1000

1000

1959

LAKSHADWEEP

1000

1000

13

PONDICHERY

1000

1000

185

DELHI

-----------------------------------------------------------------------------------------------------------------------------------ALL-INDIA

18

16

15

179

130

25

604

12

1000

551651

1279

-----------------------------------------------------------------------------------------------------------------------------------OUTMIGRANTS
-------------ESTIMATED (00)

5517

99

87

85

988

718

140

3334

66

5517

SAMPLE

1279

29

26

187

159

52

799

19

1279

------------------------------------------------------------------------------------------------------------------------------------

Source : National Sample Survey Organisation,49th Round,Schedule 1.2

A - 22

TABLE-12 : PER THOUSAND DISTRIBUTION OF OUT MIGRANTS BY EMPLOYMENT AND REMITTANCE STATUS FOR EACH STATE AND U.T.

PERSONS

ECTOR : RURAL

----------------------------------------------------------------------------------------------------------------------------------PROPORTION OF
OUTMIGRANTS
STATE/U.T.

PLACE OF MIGRATION

NO OF OUTMIGRANTS

------------------------------------------------------------------------------ ------------------

PER 1000

ABROAD

POPULATION

IN INDIA

N.R.

ALL ESTIMATED

SAMPLE

------------------------------- ------------------------------EMPLOYED

NOT EMPLOYED

EMPLOYED

NOT EMPLOYED

--------------- --------------- --------------- --------------NOT

NOT

NOT

NOT

MAKING

MAKING

MAKING

MAKING

MAKING

MAKING

MAKING

REMI-

REMI-

REMI-

REMI-

REMI-

REMI-

REMI-

MAKING
REMI-

TTANCE

TTANCE

TTANCE

TTANCE

TTANCE

TTANCE

TTANCE

TTANCE

-----------------------------------------------------------------------------------------------------------------------------------(1)

(2)

(3)

(4)

(5)

(6)

(7)

(8)

(9)

(10)

(11)

(12)

(13)

(14)

-----------------------------------------------------------------------------------------------------------------------------------ANDHRA PRADESH

98

27

381

164

28

291

1000

128448

ARUNACHAL PRADESH

200

75

670

54

1000

727

285
25

ASSAM

29

643

55

11

257

1000

74182

255

BIHAR

2237

25

34

695

107

16

137

1000

1420802

GOA

562

30

28

184

57

139

1000

3666

55

GUJARAT

103

31

25

367

200

32

243

1000

127734

205

HARYANA

11

21

449

118

398

1000

130583

250

HIMACHAL PRADESH

14

24

539

154

279

1000

65986

393

JAMMU & KASHMIR

11

99

756

50

94

1000

27144

238

19

489

201

285

1000

180500

351

38

457

42

23

257

70

139

11

1000

703426

1444
509

KARNATAKA
KERALA
MADHYA PRADESH

267

200

71

454

1000

174050

MAHARASTRA

58

20

549

121

250

1000

62459

98

12

92

134

371

403

1000

12342

196

MEGHALAYA

383

368

249

1000

960

13

MIZORAM

16

153

28

221

578

1000

2259

106

NAGALAND

17

152

831

1000

1554

71

ORISSA

10

19

504

123

10

329

1000

144310

304

PUNJAB

11

359

53

61

349

91

32

52

1000

118937

448

RAJASTHAN

12

126

648

62

13

138

1000

372614

766

SIKKIM

141

112

740

1000

1310

47

TAMIL NADU

164

24

503

198

106

1000

304351

529

MANIPUR

TRIPURA
UTTAR PRADESH
WEST BENGAL

491

230

29

219

31

1000

9507

174

13

26

677

131

144

1000

1441206

2802

40

24

23

657

136

120

1000

252819

468

12

117

71

812

1000

2082

42

CHANDIGARH

426

166

79

291

37

1000

326

DADER NAGAR-HAVELI

40

50

333

575

1000

500

28

DAMAN & DIU

12

769

68

125

21

16

1000

755

47

DELHI

10

992

1000

3919

LAKSHADWEEP

19

229

762

1000

290

17

227

305

457

1000

889

33

ANDAMAN & NICOBAR

PONDICHERY

-----------------------------------------------------------------------------------------------------------------------------------ALL-INDIA

10

105

13

564

121

12

172

1000

5770636

12449

-----------------------------------------------------------------------------------------------------------------------------------OUTMIGRANTS
-------------ESTIMATED (00)

57706

6038

746

11

501

32555

6989

680

9922

265

57706

SAMPLE

12449

1355

172

108

6473

1501

241

2525

70

12449

------------------------------------------------------------------------------------------------------------------------------------

Source : National Sample Survey Organisation,49th Round,Schedule 1.2

A - 23

TABLE-12 : PER THOUSAND DISTRIBUTION OF OUT MIGRANTS BY EMPLOYMENT AND REMITTANCE STATUS FOR EACH STATE AND U.T.
MALE

SECTOR:URBAN

-----------------------------------------------------------------------------------------------------------------------------------PROPORTION OF
OUTMIGRANTS
STATE/U.T.

PLACE OF MIGRATION

NO OF OUTMIGRANTS

------------------------------------------------------------------------------ ------------------

PER 1000

ABROAD

POPULATION

IN INDIA

N.R.

ALL ESTIMATED

SAMPLE

------------------------------- ------------------------------EMPLOYED

NOT EMPLOYED

EMPLOYED

NOT EMPLOYED

--------------- --------------- --------------- --------------NOT

NOT

NOT

NOT

MAKING

MAKING

MAKING

MAKING

MAKING

MAKING

MAKING

REMI-

REMI-

REMI-

REMI-

REMI-

REMI-

REMI-

MAKING
REMI-

TTANCE

TTANCE

TTANCE

TTANCE

TTANCE

TTANCE

TTANCE

TTANCE

-----------------------------------------------------------------------------------------------------------------------------------(1)

(2)

(3)

(4)

(5)

(6)

(7)

(8)

(9)

(10)

(11)

(12)

(13)

(14)

-----------------------------------------------------------------------------------------------------------------------------------ANDHRA PRADESH

339

75

109

201

97

168

1000

51228

119

ARUNACHAL PRADESH

214

349

437

1000

176

24

ASSAM

10

443

139

24

345

39

1000

5007

67

BIHAR

16

14

413

145

16

400

1000

77148

339

GOA

313

207

58

19

403

1000

1476

16

GUJARAT

139

113

34

425

84

17

188

1000

11311

56

HARYANA

11

18

11

170

204

597

1000

21124

56

HIMACHAL PRADESH

20

91

372

233

303

1000

4120

58

JAMMU & KASHMIR

17

19

437

55

462

16

1000

4750

79

KARNATAKA

16

96

112

56

669

52

1000

98106

152

KERALA

39

503

69

34

200

62

125

1000

119230

455

MADHYA PRADESH

45

360

386

21

187

1000

16900

73

MAHARASTRA

159

249

253

33

121

10

153

21

1000

69798

90

10

60

304

204

423

1000

1689

78

MEGHALAYA

38

138

156

181

488

1000

494

17

MIZORAM

162

143

133

562

1000

422

21

NAGALAND

13

16

22

30

930

1000

676

59

ORISSA

417

224

325

20

1000

11457

37

PUNJAB

263

12

17

334

100

24

246

1000

24873

193

RAJASTHAN

14

169

19

609

120

62

1000

65238

225

SIKKIM

15

28

113

57

802

1000

253

27

TAMIL NADU

364

41

15

319

136

117

1000

68941

185

TRIPURA

211

126

180

483

1000

960

50

UTTAR PRADESH

74

23

10

459

161

31

228

11

1000

109649

434

MANIPUR

WEST BENGAL

116

41

588

153

100

1000

56627

129

ANDAMAN & NICOBAR

21

61

23

369

546

1000

928

17

CHANDIGARH

23

31

147

87

274

31

431

1000

6614

21

698

302

1000

29

43

508

78

262

135

17

1000

524

46
13

DADER NAGAR-HAVELI
DAMAN & DIU
DELHI

114

344

48

495

1000

10558

LAKSHADWEEP

30

128

37

20

816

1000

299

32

PONDICHERY

19

193

74

155

37

541

1000

7996

41

-----------------------------------------------------------------------------------------------------------------------------------ALL-INDIA

192

47

42

311

122

87

191

1000

848604

3211

-----------------------------------------------------------------------------------------------------------------------------------OUTMIGRANTS
-------------ESTIMATED (00)

8486

1628

398

15

355

2642

1036

741

1623

48

8486

SAMPLE

3211

624

112

72

1101

380

83

812

20

3211

------------------------------------------------------------------------------------------------------------------------------------

Source : National Sample Survey Organisation,49th Round,Schedule 1.2

A - 24

TABLE-12 : PER THOUSAND DISTRIBUTION OF OUT MIGRANTS BY EMPLOYMENT AND REMITTANCE STATUS FOR EACH STATE AND U.T.
FEMALE

SECTOR:URBAN

-----------------------------------------------------------------------------------------------------------------------------------PROPORTION OF
OUTMIGRANTS
STATE/U.T.

PLACE OF MIGRATION

NO OF OUTMIGRANTS

------------------------------------------------------------------------------ ------------------

PER 1000

ABROAD

POPULATION

IN INDIA

N.R.

ALL ESTIMATED

SAMPLE

------------------------------- ------------------------------EMPLOYED

NOT EMPLOYED

EMPLOYED

NOT EMPLOYED

--------------- --------------- --------------- --------------NOT

NOT

NOT

NOT

MAKING

MAKING

MAKING

MAKING

MAKING

MAKING

MAKING

REMI-

REMI-

REMI-

REMI-

REMI-

REMI-

REMI-

MAKING
REMI-

TTANCE

TTANCE

TTANCE

TTANCE

TTANCE

TTANCE

TTANCE

TTANCE

-----------------------------------------------------------------------------------------------------------------------------------(1)

(2)

(3)

(4)

(5)

(6)

(7)

(8)

(9)

(10)

(11)

(12)

(13)

(14)

-----------------------------------------------------------------------------------------------------------------------------------ANDHRA PRADESH

309

88

431

96

56

20

1000

5847

12

ARUNACHAL PRADESH

535

421

44

1000

160

11

ASSAM

948

52

1000

638

BIHAR

26

27

46

896

1000

20327

65
6

GOA

48

28

972

1000

7184

GUJARAT

63

724

213

1000

2396

HARYANA

108

892

1000

3672

17

HIMACHAL PRADESH

11

11

188

801

1000

1995

11

JAMMU & KASHMIR

254

747

1000

772

10

KARNATAKA

76

129

29

766

1000

1900

15

KERALA

320

11

231

106

14

230

88

1000

17525

37

MADHYA PRADESH

182

66

747

1000

3210

MAHARASTRA

383

54

65

492

1000

21736

28

MANIPUR

298

702

1000

303

15

MEGHALAYA

81

161

81

81

516

81

1000

347

MIZORAM

512

488

1000

110

NAGALAND

415

585

1000

27

ORISSA

179

388

434

1000

3429

PUNJAB

57

40

173

67

133

506

24

1000

3689

37

RAJASTHAN

138

237

209

416

1000

2024

13

SIKKIM

72

928

1000

99

TAMIL NADU

57

107

195

106

471

64

1000

7700

22

TRIPURA

465

535

1000

221

15

UTTAR PRADESH

14

65

17

81

743

79

1000

12129

53

WEST BENGAL

83

71

815

31

1000

3867

14

ANDAMAN & NICOBAR

20

79

921

1000

717

18

CHANDIGARH

16

59

59

882

1000

3477

DADER NAGAR-HAVELI

DAMAN & DIU

300

589

111

1000

39

DELHI

1000

1000

5099

13

1000

1000

157

11

302

227

471

1000

1048

LAKSHADWEEP
PONDICHERY

-----------------------------------------------------------------------------------------------------------------------------------ALL-INDIA

64

155

55

60

20

612

26

1000

131842

486

-----------------------------------------------------------------------------------------------------------------------------------OUTMIGRANTS
-------------ESTIMATED (00)
SAMPLE

1318

84

205

72

78

26

807

35

1318

486

22

35

35

27

36

310

11

486

------------------------------------------------------------------------------------------------------------------------------------

Source : National Sample Survey Organisation,49th Round,Schedule 1.2

A - 25

TABLE-12 : PER THOUSAND DISTRIBUTION OF OUT MIGRANTS BY EMPLOYMENT AND REMITTANCE STATUS FOR EACH STATE AND U.T.
PERSONS

SECTOR:URBAN

-----------------------------------------------------------------------------------------------------------------------------------PROPORTION OF
OUTMIGRANTS
STATE/U.T.

PLACE OF MIGRATION

NO OF OUTMIGRANTS

------------------------------------------------------------------------------ ------------------

PER 1000

ABROAD

POPULATION

IN INDIA

N.R.

ALL ESTIMATED

SAMPLE

------------------------------- ------------------------------EMPLOYED

NOT EMPLOYED

EMPLOYED

NOT EMPLOYED

--------------- --------------- --------------- --------------NOT


MAKING

NOT

MAKING

MAKING

NOT

MAKING

MAKING

NOT

MAKING

MAKING

MAKING

REMI-

REMI-

REMI-

REMI-

REMI-

REMI-

REMI-

REMI-

TTANCE

TTANCE

TTANCE

TTANCE

TTANCE

TTANCE

TTANCE

TTANCE

-----------------------------------------------------------------------------------------------------------------------------------(1)

(2)

(3)

(4)

(5)

(6)

(7)

(8)

(9)

(10)

(11)

(12)

(13)

(14)

-----------------------------------------------------------------------------------------------------------------------------------ANDHRA PRADESH

336

77

142

180

97

157

1000

57076

131

ARUNACHAL PRADESH

254

113

383

250

1000

336

35

ASSAM

393

123

21

413

40

1000

5645

72

BIHAR

11

16

332

124

13

503

1000

97475

404

GOA

23

53

35

10

26

875

1000

8661

22

GUJARAT

126

93

154

351

70

14

192

1000

13707

62

HARYANA

15

161

174

640

1000

24796

73

HIMACHAL PRADESH

15

62

254

218

466

1000

6115

69

JAMMU & KASHMIR

10

17

412

48

502

14

1000

5522

89

95

110

55

657

66

1000

100007

167
492

KARNATAKA
KERALA

22

479

61

59

188

56

139

12

1000

136755

MADHYA PRADESH

38

29

303

335

19

277

1000

20110

82

MAHARASTRA

122

190

284

27

105

23

234

16

1000

91534

118

MANIPUR

51

258

218

465

1000

1992

93

MEGHALAYA

33

89

33

81

125

319

320

1000

841

26

MIZORAM

128

113

212

546

1000

532

26

NAGALAND

31

21

28

917

1000

703

62

ORISSA

362

262

350

15

1000

14886

45

PUNJAB

236

11

20

314

96

38

280

1000

28562

230

RAJASTHAN

164

18

12

597

123

73

1000

67261

238

SIKKIM

20

102

41

837

1000

352

34

TAMIL NADU

333

37

24

306

133

153

12

1000

76641

207

TRIPURA

172

102

234

493

1000

1181

65

UTTAR PRADESH

68

21

15

415

153

27

280

17

1000

121778

487

WEST BENGAL

109

38

556

147

146

1000

60494

143

ANDAMAN & NICOBAR

20

35

13

243

709

1000

1646

35

CHANDIGARH

20

20

96

20

57

179

41

586

1000

10090

28

698

302

1000

29

22

494

72

41

244

126

23

1000

563

50

DADER NAGAR-HAVELI
DAMAN & DIU
DELHI

77

232

32

659

1000

15657

21

LAKSHADWEEP

21

84

24

13

879

1000

456

43

PONDICHERY

11

171

101

163

33

533

1000

9043

46

-----------------------------------------------------------------------------------------------------------------------------------ALL-INDIA

175

42

57

277

114

78

248

1000

980446

3697

-----------------------------------------------------------------------------------------------------------------------------------OUTMIGRANTS
-------------ESTIMATED (00)

9804

1712

407

17

560

2714

1114

768

2430

82

9804

SAMPLE

3697

646

118

11

107

1136

407

119

1122

31

3697

------------------------------------------------------------------------------------------------------------------------------------

Source : National Sample Survey Organisation,49th Round,Schedule 1.2

A - 26

TABLE-13 : ESTIMATED NUMBER OF MIGRANTS (00) BY STATE OF ORIGIN AND PERIOD SINCE MIGRATED
ALL-INDIA

MALE

SECTOR : RURAL

-----------------------------------------------------------------------------------------------------------------------------------PLACE OF LAST USUAL


RESIDENCE

YEARS SINCE LEAVING LAST UPR


SECTOR -----------------------------------------------------------------------------------------0

6-9

10-15

ALL

16 &
ABOVE

-----------------------------------------------------------------------------------------------------------------------------------(1)

(2)

(3)

(4)

(5)

(6)

(7)

(8)

(9)

(10)

(11)

(12)

-----------------------------------------------------------------------------------------------------------------------------------ANDHRA PRADESH

1777

732

1450

1188

1487

1398

3102

4161

3698

18993

368

549

243

91

111

140

1128

611

59

3301

-----------------------------------------------------------------------------------------------------------------------------------ARUNACHAL PRADESH

20

15

14

17

20

103

-----------------------------------------------------------------------------------------------------------------------------------ASSAM

128

192

333

132

51

35

157

329

224

1581

28

48

124

42

30

23

30

87

412

-----------------------------------------------------------------------------------------------------------------------------------BIHAR

503

491

198

135

148

199

420

688

1452

4234

30

82

123

17

59

117

81

191

703

-----------------------------------------------------------------------------------------------------------------------------------GOA

18

13

36

56

17

32

110

-----------------------------------------------------------------------------------------------------------------------------------GUJARAT

788

524

142

250

513

341

314

179

1116

4168

7211

103

344

90

279

25

274

108

8439

-----------------------------------------------------------------------------------------------------------------------------------HARYANA

18

53

42

67

155

146

62

140

526

1207

49

91

44

10

66

271

-----------------------------------------------------------------------------------------------------------------------------------HIMACHAL PRADESH

62

147

88

98

60

43

231

128

221

1079

26

68

45

47

36

109

21

360

-----------------------------------------------------------------------------------------------------------------------------------JAMMU & KASHMIR

37

13

82

55

91

59

279

627

-----------------------------------------------------------------------------------------------------------------------------------KARNATAKA

573

260

425

590

502

308

1345

1200

2140

7344

49

106

121

22

60

37

250

211

89

945

-----------------------------------------------------------------------------------------------------------------------------------KERALA

784

776

686

594

747

507

1536

1419

3684

10732

118

92

187

90

92

33

156

171

242

1180

-----------------------------------------------------------------------------------------------------------------------------------MADHYA PRADESH

666

773

791

1137

441

631

1577

1848

2397

10261

167

212

202

187

39

26

196

99

76

1203

-----------------------------------------------------------------------------------------------------------------------------------MAHARASTRA

1399

984

1269

1293

1994

898

3674

2781

3481

17772

699

358

387

391

676

134

879

572

847

4944

-----------------------------------------------------------------------------------------------------------------------------------MANIPUR

11

24

14

29

-----------------------------------------------------------------------------------------------------------------------------------MEGHALAYA

47

54

-----------------------------------------------------------------------------------------------------------------------------------MIZORAM

11

24

15

16

40

-----------------------------------------------------------------------------------------------------------------------------------NAGALAND

------------------------------------------------------------------------------------------------------------------------------------

Source : National Sample Survey Organisation,49th Round,Schedule 1.2

A - 27

ALL-INDIA

MALE

SECTOR : RURAL

-----------------------------------------------------------------------------------------------------------------------------------PLACE OF LAST USUAL


RESIDENCE

YEARS SINCE LEAVING LAST UPR


SECTOR -----------------------------------------------------------------------------------------0

6-9

10-15

ALL

16 &
ABOVE

-----------------------------------------------------------------------------------------------------------------------------------(1)

(2)

(3)

(4)

(5)

(6)

(7)

(8)

(9)

(10)

(11)

(12)

-----------------------------------------------------------------------------------------------------------------------------------ORISSA

311

187

380

372

311

187

454

347

1051

3600

30

40

93

104

96

53

65

489

-----------------------------------------------------------------------------------------------------------------------------------PUNJAB

38

71

42

114

97

199

330

281

1180

15

47

94

92

68

55

96

474

-----------------------------------------------------------------------------------------------------------------------------------RAJASTHAN

601

211

466

572

112

335

366

992

1684

5340

33

148

47

117

65

30

119

16

602

1176

-----------------------------------------------------------------------------------------------------------------------------------SIKKIM

-----------------------------------------------------------------------------------------------------------------------------------TAMIL NADU

619

724

884

1077

1272

1234

1272

1717

2462

11261

654

453

474

248

378

64

551

336

661

3818

-----------------------------------------------------------------------------------------------------------------------------------TRIPURA

16

34

14

13

90

94

225

498

17

54

93

-----------------------------------------------------------------------------------------------------------------------------------UTTAR PRADESH

1660

1505

1540

1556

717

800

2545

3132

4304

17760

479

271

245

484

171

379

533

700

910

4172

-----------------------------------------------------------------------------------------------------------------------------------WEST BENGAL

415

528

931

894

795

559

2452

1975

3713

12262

175

118

175

129

81

159

314

382

577

2111

-----------------------------------------------------------------------------------------------------------------------------------ANDAMAN & NICOBAR

16

30

15

18

20

23

37

44

55

257

25

14

13

11

87

-----------------------------------------------------------------------------------------------------------------------------------CHANDIGARH

14

10

19

43

-----------------------------------------------------------------------------------------------------------------------------------DADER NAGAR-HAVELI

11

-----------------------------------------------------------------------------------------------------------------------------------DAMAN & DIU

-----------------------------------------------------------------------------------------------------------------------------------DELHI

-----------------------------------------------------------------------------------------------------------------------------------LAKSHADWEEP

-----------------------------------------------------------------------------------------------------------------------------------PONDICHERY

-----------------------------------------------------------------------------------------------------------------------------------N.R.

1109

588

675

355

362

483

2026

1496

4264

11357

1311

1293

1030

780

727

476

1201

1896

2832

11547

-----------------------------------------------------------------------------------------------------------------------------------ALL INDIA

11547

8883

10509

10538

9817

8152

21989

23083

37277

141795

11467

4013

4055

2902

2940

1646

6097

5518

7339

45976

------------------------------------------------------------------------------------------------------------------------------------

Source : National Sample Survey Organisation,49th Round,Schedule 1.2

A - 28

TABLE-13 : ESTIMATED NUMBER OF MIGRANTS (00) BY STATE OF ORIGIN AND PERIOD SINCE MIGRATED
ALL-INDIA

MALE

SECTOR : RURAL

-----------------------------------------------------------------------------------------------------------------------------------PLACE OF LAST USUAL


RESIDENCE

YEARS SINCE LEAVING LAST UPR


SECTOR -----------------------------------------------------------------------------------------0

6-9

10-15

ALL

16 &
ABOVE

-----------------------------------------------------------------------------------------------------------------------------------(1)

(2)

(3)

(4)

(5)

(6)

(7)

(8)

(9)

(10)

(11)

(12)

-----------------------------------------------------------------------------------------------------------------------------------BANGLADESH

-----------------------------------------------------------------------------------------------------------------------------------NEPAL

-----------------------------------------------------------------------------------------------------------------------------------PAKISTAN

-----------------------------------------------------------------------------------------------------------------------------------SRI LANKA

-----------------------------------------------------------------------------------------------------------------------------------BHUTAN

-----------------------------------------------------------------------------------------------------------------------------------GULF COUNTRIES

-----------------------------------------------------------------------------------------------------------------------------------OTHER COUNTRIES

273

132

302

60

75

310

552

672

4481

6858

-----------------------------------------------------------------------------------------------------------------------------------ALL FOREIGN COUNTR.

273

132

302

60

75

310

552

672

4481

6858

-----------------------------------------------------------------------------------------------------------------------------------TOTAL

23287

13029

14867

13499

12832

10108

28637

29273

49098

194629

------------------------------------------------------------------------------------------------------------------------------------

Source : National Sample Survey Organisation,49th Round,Schedule 1.2

A - 29

TABLE-13 : ESTIMATED NUMBER OF MIGRANTS (00) BY STATE OF ORIGIN AND PERIOD SINCE MIGRATED
ALL-INDIA

FEMALE

SECTOR : RURAL

-----------------------------------------------------------------------------------------------------------------------------------PLACE OF LAST USUAL


RESIDENCE

YEARS SINCE LEAVING LAST UPR


SECTOR -----------------------------------------------------------------------------------------0

6-9

10-15

ALL

16 &
ABOVE

-----------------------------------------------------------------------------------------------------------------------------------(1)

(2)

(3)

(4)

(5)

(6)

(7)

(8)

(9)

(10)

(11)

(12)

-----------------------------------------------------------------------------------------------------------------------------------ANDHRA PRADESH

2297

2569

4196

2846

3313

3748

8766

12220

27795

67751

508

826

390

320

114

438

1879

851

1629

6955

-----------------------------------------------------------------------------------------------------------------------------------ARUNACHAL PRADESH

29

14

28

12

36

36

37

197

-----------------------------------------------------------------------------------------------------------------------------------ASSAM

211

387

1317

585

666

579

1455

2177

4885

12263

137

181

73

44

18

11

57

69

195

786

-----------------------------------------------------------------------------------------------------------------------------------BIHAR

707

2574

2520

2270

2117

2754

7211

12709

31522

64384

16

71

22

223

80

575

994

-----------------------------------------------------------------------------------------------------------------------------------GOA

22

76

17

13

59

98

225

525

96

117

-----------------------------------------------------------------------------------------------------------------------------------GUJARAT

1134

1970

3654

1289

1471

1216

4942

7573

29499

52748

5348

345

217

270

179

77

684

761

908

8790

-----------------------------------------------------------------------------------------------------------------------------------HARYANA

251

893

706

691

498

459

2123

3773

8940

18334

27

38

80

28

91

433

485

1184

-----------------------------------------------------------------------------------------------------------------------------------HIMACHAL PRADESH

251

367

419

344

371

313

1116

1308

5926

10415

18

31

13

33

34

147

159

438

-----------------------------------------------------------------------------------------------------------------------------------JAMMU & KASHMIR

86

121

260

200

92

162

277

419

1919

3536

33

31

105

204

-----------------------------------------------------------------------------------------------------------------------------------KARNATAKA

1063

1262

2130

1590

1532

1733

5010

8862

20549

43729

59

160

370

130

152

134

763

457

1296

3520

-----------------------------------------------------------------------------------------------------------------------------------KERALA

1120

1380

1882

1448

1414

1518

3966

4605

12429

29763

214

112

183

93

123

30

344

349

712

2160

-----------------------------------------------------------------------------------------------------------------------------------MADHYA PRADESH

1179

4672

4950

4572

3233

3789

13898

20021

52802

109117

237

316

245

299

133

209

383

545

1368

3735

-----------------------------------------------------------------------------------------------------------------------------------MAHARASTRA

2838

3316

4153

5711

4024

4516

13714

18822

53628

110722

696

264

267

336

1067

470

829

1341

3975

9245

-----------------------------------------------------------------------------------------------------------------------------------MANIPUR

14

31

-----------------------------------------------------------------------------------------------------------------------------------MEGHALAYA

46

58

-----------------------------------------------------------------------------------------------------------------------------------MIZORAM

18

10

20

-----------------------------------------------------------------------------------------------------------------------------------NAGALAND

12

24

------------------------------------------------------------------------------------------------------------------------------------

Source : National Sample Survey Organisation,49th Round,Schedule 1.2

A - 30

TABLE-13 : ESTIMATED NUMBER OF MIGRANTS (00) BY STATE OF ORIGIN AND PERIOD SINCE MIGRATED
ALL-INDIA

FEMALE

SECTOR:RURAL

-----------------------------------------------------------------------------------------------------------------------------------PLACE OF LAST USUAL


RESIDENCE

YEARS SINCE LEAVING LAST UPR


SECTOR -----------------------------------------------------------------------------------------0

6-9

10-15

ALL

16 &
ABOVE

-----------------------------------------------------------------------------------------------------------------------------------(1)

(2)

(3)

(4)

(5)

(6)

(7)

(8)

(9)

(10)

(11)

(12)

-----------------------------------------------------------------------------------------------------------------------------------ORISSA

432

1504

2319

2066

1337

1787

4584

6889

25643

46561

36

48

82

156

115

91

123

651

-----------------------------------------------------------------------------------------------------------------------------------PUNJAB

376

581

847

641

864

499

2331

3364

10032

19535

33

139

156

200

269

487

1308

-----------------------------------------------------------------------------------------------------------------------------------RAJASTHAN

890

2135

3541

2532

2042

2348

7552

12866

36010

69916

127

190

208

458

280

222

522

461

1925

4393

-----------------------------------------------------------------------------------------------------------------------------------SIKKIM

-----------------------------------------------------------------------------------------------------------------------------------TAMIL NADU

1255

1554

2856

2374

1107

2128

6091

7337

25438

50140

647

492

658

371

373

206

858

697

1604

5904

-----------------------------------------------------------------------------------------------------------------------------------TRIPURA

20

91

64

34

45

216

233

457

1167

60

92

-----------------------------------------------------------------------------------------------------------------------------------UTTAR PRADESH

2903

7662

10738

9350

7158

7812

21815

35613

110742

213793

326

521

445

1253

500

523

1466

1900

4963

11896

-----------------------------------------------------------------------------------------------------------------------------------WEST BENGAL

1540

4157

3945

4281

3927

3475

13624

17222

43536

95706

66

580

189

205

204

129

728

626

1650

4378

-----------------------------------------------------------------------------------------------------------------------------------ANDAMAN & NICOBAR

17

28

15

22

18

22

35

30

50

237

23

13

11

76

-----------------------------------------------------------------------------------------------------------------------------------CHANDIGARH

15

-----------------------------------------------------------------------------------------------------------------------------------DADER NAGAR-HAVELI

14

19

10

39

43

101

242

-----------------------------------------------------------------------------------------------------------------------------------DAMAN & DIU

13

19

-----------------------------------------------------------------------------------------------------------------------------------DELHI

-----------------------------------------------------------------------------------------------------------------------------------LAKSHADWEEP

-----------------------------------------------------------------------------------------------------------------------------------PONDICHERY

17

-----------------------------------------------------------------------------------------------------------------------------------N.R.

1320

1595

1549

1683

1611

1541

4485

5463

18045

37294

640

1059

600

336

452

265

700

1151

2554

7757

-----------------------------------------------------------------------------------------------------------------------------------ALL INDIA

19917

38851

52153

44700

36881

40470

123365

181690

520222

1058250

9081

5218

4122

4369

3834

2915

9948

10287

24889

74663

------------------------------------------------------------------------------------------------------------------------------------

Source : National Sample Survey Organisation,49th Round,Schedule 1.2

A - 31

TABLE-13 : ESTIMATED NUMBER OF MIGRANTS (00) BY STATE OF ORIGIN AND PERIOD SINCE MIGRATED
ALL-INDIA

FEMALE

SECTOR : RURAL

-----------------------------------------------------------------------------------------------------------------------------------PLACE OF LAST USUAL


RESIDENCE

YEARS SINCE LEAVING LAST UPR


SECTOR -----------------------------------------------------------------------------------------0

6-9

10-15

ALL

16 &
ABOVE

-----------------------------------------------------------------------------------------------------------------------------------(1)

(2)

(3)

(4)

(5)

(6)

(7)

(8)

(9)

(10)

(11)

(12)

-----------------------------------------------------------------------------------------------------------------------------------BANGLADESH

-----------------------------------------------------------------------------------------------------------------------------------NEPAL

-----------------------------------------------------------------------------------------------------------------------------------PAKISTAN

-----------------------------------------------------------------------------------------------------------------------------------SRI LANKA

-----------------------------------------------------------------------------------------------------------------------------------BHUTAN

-----------------------------------------------------------------------------------------------------------------------------------GULF COUNTRIES

-----------------------------------------------------------------------------------------------------------------------------------OTHER COUNTRIES

13

143

161

139

39

162

623

412

3443

5134

-----------------------------------------------------------------------------------------------------------------------------------ALL FOREIGN COUNTR.

13

143

161

139

39

162

623

412

3443

5134

-----------------------------------------------------------------------------------------------------------------------------------TOTAL

29011

44212

56436

49208

40754

43547

133936

192389

548553

1138046

------------------------------------------------------------------------------------------------------------------------------------

Source : National Sample Survey Organisation,49th Round,Schedule 1.2

A - 32

TABLE-13 : ESTIMATED NUMBER OF MIGRANTS (00) BY STATE OF ORIGIN AND PERIOD SINCE MIGRATED
ALL-INDIA

PERSONS

SECTOR : RURAL

-----------------------------------------------------------------------------------------------------------------------------------PLACE OF LAST USUAL


RESIDENCE

YEARS SINCE LEAVING LAST UPR


SECTOR -----------------------------------------------------------------------------------------0

6-9

10-15

ALL

16 &
ABOVE

-----------------------------------------------------------------------------------------------------------------------------------(1)

(2)

(3)

(4)

(5)

(6)

(7)

(8)

(9)

(10)

(11)

(12)

----------------------------------------------------------------------------------------------------------------------------------------------------------------------------------------------------------------------------------------------------------------------ANDHRA PRADESH

4074

3301

5646

4034

4800

5146

11869

16381

31493

86744

876

1375

633

411

225

578

3008

1462

1688

10256

-----------------------------------------------------------------------------------------------------------------------------------ARUNACHAL PRADESH

24

44

22

42

18

53

56

38

300

-----------------------------------------------------------------------------------------------------------------------------------ASSAM

338

579

1650

717

717

614

1613

2506

5109

13843

166

229

197

87

47

34

88

156

195

1199

-----------------------------------------------------------------------------------------------------------------------------------BIHAR

1210

3065

2717

2405

2265

2953

7631

13397

32975

68618

36

98

194

17

81

340

162

766

1697

-----------------------------------------------------------------------------------------------------------------------------------GOA

26

77

17

13

77

98

238

561

56

25

38

96

227

-----------------------------------------------------------------------------------------------------------------------------------GUJARAT

1922

2494

3795

1539

1984

1557

5257

7752

30615

56915

12559

448

561

360

458

102

958

870

913

17229

-----------------------------------------------------------------------------------------------------------------------------------HARYANA

269

945

748

757

653

606

2185

3913

9465

19541

34

88

171

45

38

157

436

486

1455

-----------------------------------------------------------------------------------------------------------------------------------HIMACHAL PRADESH

313

514

507

442

431

355

1348

1436

6147

11494

11

45

99

58

80

69

255

181

798

-----------------------------------------------------------------------------------------------------------------------------------JAMMU & KASHMIR

124

133

343

255

101

165

367

478

2198

4163

12

33

31

105

212

-----------------------------------------------------------------------------------------------------------------------------------KARNATAKA

1636

1522

2555

2180

2034

2041

6356

10061

22688

51073

108

266

491

151

212

171

1012

668

1385

4465

-----------------------------------------------------------------------------------------------------------------------------------KERALA

1904

2156

2568

2042

2160

2025

5502

6023

16114

40495

332

204

370

183

215

63

500

520

953

3340

-----------------------------------------------------------------------------------------------------------------------------------MADHYA PRADESH

1845

5444

5741

5710

3675

4420

15475

21870

55199

119378

404

528

447

486

172

235

579

644

1444

4938

-----------------------------------------------------------------------------------------------------------------------------------MAHARASTRA

4236

4300

5422

7004

6018

5414

17387

21603

57109

128494

1395

622

654

727

1743

604

1708

1914

4822

14189

-----------------------------------------------------------------------------------------------------------------------------------MANIPUR

25

56

14

31

-----------------------------------------------------------------------------------------------------------------------------------MEGHALAYA

93

11

112

10

-----------------------------------------------------------------------------------------------------------------------------------MIZORAM

10

16

12

43

21

26

10

60

-----------------------------------------------------------------------------------------------------------------------------------NAGALAND

12

26

------------------------------------------------------------------------------------------------------------------------------------

Source : National Sample Survey Organisation,49th Round,Schedule 1.2

A - 33

TABLE-13 : ESTIMATED NUMBER OF MIGRANTS (00) BY STATE OF ORIGIN AND PERIOD SINCE MIGRATED
ALL-INDIA

PERSONS

SECTOR : RURAL

-----------------------------------------------------------------------------------------------------------------------------------PLACE OF LAST USUAL


RESIDENCE

YEARS SINCE LEAVING LAST UPR


SECTOR -----------------------------------------------------------------------------------------0

6-9

10-15

ALL

16 &
ABOVE

-----------------------------------------------------------------------------------------------------------------------------------(1)

(2)

(3)

(4)

(5)

(6)

(7)

(8)

(9)

(10)

(11)

(12)

-----------------------------------------------------------------------------------------------------------------------------------ORISSA

742

1691

2699

2438

1648

1974

5038

7236

26694

50162

30

76

141

90

261

211

144

187

1140

-----------------------------------------------------------------------------------------------------------------------------------PUNJAB

414

651

888

755

961

507

2530

3694

10313

20714

16

48

56

233

248

268

324

583

1782

-----------------------------------------------------------------------------------------------------------------------------------RAJASTHAN

1491

2345

4007

3104

2155

2683

7919

13858

37694

75256

160

338

254

575

345

252

641

477

2527

5570

-----------------------------------------------------------------------------------------------------------------------------------SIKKIM

10

-----------------------------------------------------------------------------------------------------------------------------------TAMIL NADU

1875

2278

3739

3452

2380

3362

7363

9053

27899

61401

1301

944

1132

619

751

270

1409

1033

2265

9723

-----------------------------------------------------------------------------------------------------------------------------------TRIPURA

14

35

125

78

47

51

306

328

682

1665

13

25

16

114

185

-----------------------------------------------------------------------------------------------------------------------------------UTTAR PRADESH

4563

9167

12278

10906

7876

8612

24360

38746

115045

231553

805

792

690

1737

671

902

1998

2600

5873

16068

-----------------------------------------------------------------------------------------------------------------------------------WEST BENGAL

1955

4685

4876

5175

4722

4034

16077

19197

47248

107968

242

699

364

334

285

288

1042

1008

2227

6489

-----------------------------------------------------------------------------------------------------------------------------------ANDAMAN & NICOBAR

33

58

30

40

38

45

72

74

105

493

48

11

27

24

17

17

163

-----------------------------------------------------------------------------------------------------------------------------------CHANDIGARH

21

14

25

11

59

-----------------------------------------------------------------------------------------------------------------------------------DADER NAGAR-HAVELI

14

19

10

41

44

101

253

-----------------------------------------------------------------------------------------------------------------------------------DAMAN & DIU

13

19

-----------------------------------------------------------------------------------------------------------------------------------DELHI

-----------------------------------------------------------------------------------------------------------------------------------LAKSHADWEEP

-----------------------------------------------------------------------------------------------------------------------------------PONDICHERY

20

-----------------------------------------------------------------------------------------------------------------------------------N.R.

2430

2184

2223

2038

1973

2024

6511

6959

22309

48651

1951

2351

1631

1117

1179

741

1901

3047

5387

19304

-----------------------------------------------------------------------------------------------------------------------------------ALL INDIA

31465

47734

62662

55238

46698

48622

145354

204773

557499

1200045

20548

9231

8178

7270

6774

4561

16044

15805

32228

120639

------------------------------------------------------------------------------------------------------------------------------------

Source : National Sample Survey Organisation,49th Round,Schedule 1.2

A - 34

TABLE-13 : ESTIMATED NUMBER OF MIGRANTS (00) BY STATE OF ORIGIN AND PERIOD SINCE MIGRATED

ALL-INDIA

PERSONS

SECTOR : RURAL

-----------------------------------------------------------------------------------------------------------------------------------PLACE OF LAST USUAL


RESIDENCE

YEARS SINCE LEAVING LAST UPR


SECTOR -----------------------------------------------------------------------------------------0

6-9

10-15

ALL

16 &
ABOVE

-----------------------------------------------------------------------------------------------------------------------------------(1)

(2)

(3)

(4)

(5)

(6)

(7)

(8)

(9)

(10)

(11)

(12)

-----------------------------------------------------------------------------------------------------------------------------------BANGLADESH

-----------------------------------------------------------------------------------------------------------------------------------NEPAL

-----------------------------------------------------------------------------------------------------------------------------------PAKISTAN

-----------------------------------------------------------------------------------------------------------------------------------SRI LANKA

-----------------------------------------------------------------------------------------------------------------------------------BHUTAN

-----------------------------------------------------------------------------------------------------------------------------------GULF COUNTRIES

-----------------------------------------------------------------------------------------------------------------------------------OTHER COUNTRIES

286

276

463

199

113

472

1175

1084

7924

11992

-----------------------------------------------------------------------------------------------------------------------------------ALL FOREIGN COUNTR.

286

276

463

199

113

472

1175

1084

7924

11992

-----------------------------------------------------------------------------------------------------------------------------------TOTAL

52298

57241

71302

62707

53586

53655

162573

221662

597651

1332675

------------------------------------------------------------------------------------------------------------------------------------

Source : National Sample Survey Organisation,49th Round,Schedule 1.2

A - 35

TABLE-13 : ESTIMATED NUMBER OF MIGRANTS (00) BY STATE OF ORIGIN AND PERIOD SINCE MIGRATED
ALL-INDIA

MALE

SECTOR : URBAN

-----------------------------------------------------------------------------------------------------------------------------------PLACE OF LAST USUAL


RESIDENCE

YEARS SINCE LEAVING LAST UPR


SECTOR -----------------------------------------------------------------------------------------0

6-9

10-15

ALL

16 &
ABOVE

-----------------------------------------------------------------------------------------------------------------------------------(1)

(2)

(3)

(4)

(5)

(6)

(7)

(8)

(9)

(10)

(11)

(12)

-----------------------------------------------------------------------------------------------------------------------------------ANDHRA PRADESH

1295

662

950

961

1163

535

1571

2804

3190

13129

283

349

780

458

401

640

551

951

818

5229

-----------------------------------------------------------------------------------------------------------------------------------ARUNACHAL PRADESH

20

57

13

-----------------------------------------------------------------------------------------------------------------------------------ASSAM

67

93

58

50

147

40

157

282

900

78

49

100

56

33

57

123

207

708

-----------------------------------------------------------------------------------------------------------------------------------BIHAR

358

707

916

666

404

490

1435

2144

2855

9975

250

164

245

269

130

103

245

188

399

1993

-----------------------------------------------------------------------------------------------------------------------------------GOA

15

48

87

172

25

47

26

52

161

-----------------------------------------------------------------------------------------------------------------------------------GUJARAT

473

496

252

571

361

219

771

1544

923

5610

462

350

280

309

432

244

438

488

582

3585

-----------------------------------------------------------------------------------------------------------------------------------HARYANA

46

37

21

21

58

100

324

376

343

1326

38

46

165

52

96

24

72

171

71

734

-----------------------------------------------------------------------------------------------------------------------------------HIMACHAL PRADESH

26

38

69

25

33

43

50

34

327

17

36

74

20

10

176

-----------------------------------------------------------------------------------------------------------------------------------JAMMU & KASHMIR

16

43

11

29

126

17

18

12

73

12

11

10

155

-----------------------------------------------------------------------------------------------------------------------------------KARNATAKA

299

278

486

296

224

247

1102

847

1148

4928

267

235

459

224

247

113

864

755

489

3653

-----------------------------------------------------------------------------------------------------------------------------------KERALA

183

425

257

469

200

140

736

501

1000

3911

193

442

367

172

142

101

538

315

377

2647

-----------------------------------------------------------------------------------------------------------------------------------MADHYA PRADESH

406

447

523

600

322

202

1524

1811

1864

7698

309

203

469

264

244

204

940

1379

852

4865

-----------------------------------------------------------------------------------------------------------------------------------MAHARASTRA

573

1293

1530

1601

1540

877

2704

4105

8121

22344

1103

928

771

1089

1134

467

2050

1293

2190

11025

-----------------------------------------------------------------------------------------------------------------------------------MANIPUR

22

13

-----------------------------------------------------------------------------------------------------------------------------------MEGHALAYA

-----------------------------------------------------------------------------------------------------------------------------------MIZORAM

16

11

24

-----------------------------------------------------------------------------------------------------------------------------------NAGALAND

11

--------------------------------------------------------------------------------------------------------------------------------------

Source : National Sample Survey Organisation,49th Round,Schedule 1.2

A - 36

TABLE-13 : ESTIMATED NUMBER OF MIGRANTS (00) BY STATE OF ORIGIN AND PERIOD SINCE MIGRATED
ALL-INDIA

MALE

SECTOR : URBAN

-----------------------------------------------------------------------------------------------------------------------------------PLACE OF LAST USUAL


RESIDENCE

YEARS SINCE LEAVING LAST UPR


SECTOR -----------------------------------------------------------------------------------------0

6-9

10-15

ALL

16 &
ABOVE

-----------------------------------------------------------------------------------------------------------------------------------(1)

(2)

(3)

(4)

(5)

(6)

(7)

(8)

(9)

(10)

(11)

(12)

-----------------------------------------------------------------------------------------------------------------------------------ORISSA

37

105

238

128

210

149

582

744

971

3164

147

65

184

138

117

41

338

129

94

1253

-----------------------------------------------------------------------------------------------------------------------------------PUNJAB

127

109

236

193

69

321

131

193

428

1806

31

60

133

190

38

121

86

64

177

901

-----------------------------------------------------------------------------------------------------------------------------------RAJASTHAN

232

210

554

257

220

252

736

855

980

4296

171

153

325

497

185

21

233

840

589

3014

-----------------------------------------------------------------------------------------------------------------------------------SIKKIM

-----------------------------------------------------------------------------------------------------------------------------------TAMIL NADU

635

630

1107

755

607

574

1661

2060

3402

11432

1018

1426

1020

1080

287

793

1704

1448

2344

11120

-----------------------------------------------------------------------------------------------------------------------------------TRIPURA

17

12

52

14

11

123

17

39

-----------------------------------------------------------------------------------------------------------------------------------UTTAR PRADESH

304

718

1044

1232

678

895

2005

2440

3082

12397

219

712

863

555

271

347

1194

877

1351

6387

-----------------------------------------------------------------------------------------------------------------------------------WEST BENGAL

280

270

563

395

490

300

1090

2031

2729

8148

153

239

422

530

664

391

921

1052

1673

6046

-----------------------------------------------------------------------------------------------------------------------------------ANDAMAN & NICOBAR

12

10

12

67

-----------------------------------------------------------------------------------------------------------------------------------CHANDIGARH

-----------------------------------------------------------------------------------------------------------------------------------DADER NAGAR-HAVELI

-----------------------------------------------------------------------------------------------------------------------------------DAMAN & DIU

-----------------------------------------------------------------------------------------------------------------------------------DELHI

11

14

45

46

-----------------------------------------------------------------------------------------------------------------------------------LAKSHADWEEP

-----------------------------------------------------------------------------------------------------------------------------------PONDICHERY

15

17

24

-----------------------------------------------------------------------------------------------------------------------------------N.R.

1310

1373

1350

2071

989

1567

4941

7964

12679

34243

1706

1806

2424

1795

1325

1010

3326

4731

6458

24581

-----------------------------------------------------------------------------------------------------------------------------------ALL INDIA

6628

7954

10238

10332

7648

7046

21525

30721

44187

146279

6420

7329

9116

7835

5797

4682

13586

14905

18749

88418

------------------------------------------------------------------------------------------------------------------------------------

Source : National Sample Survey Organisation,49th Round,Schedule 1.2

A - 37

TABLE-13 : ESTIMATED NUMBER OF MIGRANTS (00) BY STATE OF ORIGIN AND PERIOD SINCE MIGRATED
ALL-INDIA

MALE

SECTOR : URBAN

-----------------------------------------------------------------------------------------------------------------------------------PLACE OF LAST USUAL


RESIDENCE

YEARS SINCE LEAVING LAST UPR


SECTOR -----------------------------------------------------------------------------------------0

6-9

10-15

ALL

16 &
ABOVE

-----------------------------------------------------------------------------------------------------------------------------------(1)

(2)

(3)

(4)

(5)

(6)

(7)

(8)

(9)

(10)

(11)

(12)

-----------------------------------------------------------------------------------------------------------------------------------BANGLADESH

-----------------------------------------------------------------------------------------------------------------------------------NEPAL

-----------------------------------------------------------------------------------------------------------------------------------PAKISTAN

-----------------------------------------------------------------------------------------------------------------------------------SRI LANKA

-----------------------------------------------------------------------------------------------------------------------------------BHUTAN

-----------------------------------------------------------------------------------------------------------------------------------GULF COUNTRIES

-----------------------------------------------------------------------------------------------------------------------------------OTHER COUNTRIES

27

56

93

62

52

284

554

381

2679

4187

-----------------------------------------------------------------------------------------------------------------------------------ALL FOREIGN COUNTR.

27

56

93

62

52

284

554

381

2679

4187

-----------------------------------------------------------------------------------------------------------------------------------TOTAL

13075

15339

19446

18229

13497

12012

35664

46008

65615

238885

------------------------------------------------------------------------------------------------------------------------------------

Source : National Sample Survey Organisation,49th Round,Schedule 1.2

A - 38

TABLE-13 : ESTIMATED NUMBER OF MIGRANTS (00) BY STATE OF ORIGIN AND PERIOD SINCE MIGRATED
ALL-INDIA

FEMALE

SECTOR : URBAN

-----------------------------------------------------------------------------------------------------------------------------------PLACE OF LAST USUAL


RESIDENCE

YEARS SINCE LEAVING LAST UPR


SECTOR -----------------------------------------------------------------------------------------0

6-9

10-15

ALL

16 &
ABOVE

-----------------------------------------------------------------------------------------------------------------------------------(1)

(2)

(3)

(4)

(5)

(6)

(7)

(8)

(9)

(10)

(11)

(12)

-----------------------------------------------------------------------------------------------------------------------------------ANDHRA PRADESH

1140

565

1338

1209

1070

585

2113

3524

5608

17152

260

374

819

522

423

521

1199

1360

1443

6921

-----------------------------------------------------------------------------------------------------------------------------------ARUNACHAL PRADESH

13

43

10

-----------------------------------------------------------------------------------------------------------------------------------ASSAM

13

112

35

34

108

121

298

462

1189

50

49

56

44

31

82

124

238

681

-----------------------------------------------------------------------------------------------------------------------------------BIHAR

131

301

368

295

270

477

1125

1911

3192

8070

82

155

147

192

99

66

324

197

322

1583

-----------------------------------------------------------------------------------------------------------------------------------GOA

33

17

22

58

220

369

13

14

30

39

13

67

188

-----------------------------------------------------------------------------------------------------------------------------------GUJARAT

537

351

327

508

380

258

1218

1406

3563

8547

426

351

308

454

480

191

985

965

1985

6145

-----------------------------------------------------------------------------------------------------------------------------------HARYANA

69

69

142

65

46

71

306

645

892

2305

79

187

137

26

153

52

231

327

681

1874

-----------------------------------------------------------------------------------------------------------------------------------HIMACHAL PRADESH

24

13

65

38

35

29

59

67

283

613

15

14

50

25

32

47

201

-----------------------------------------------------------------------------------------------------------------------------------JAMMU & KASHMIR

13

12

115

49

150

362

21

23

67

29

10

37

59

116

367

-----------------------------------------------------------------------------------------------------------------------------------KARNATAKA

191

341

686

346

215

458

1567

1625

3146

8574

350

164

500

302

362

231

1037

1072

1797

5815

-----------------------------------------------------------------------------------------------------------------------------------KERALA

494

686

534

476

293

359

1379

1189

2379

7789

168

450

359

257

127

105

406

185

590

2647

-----------------------------------------------------------------------------------------------------------------------------------MADHYA PRADESH

211

638

862

756

746

779

2188

3924

6947

17051

394

433

484

422

378

194

1259

1780

1820

7165

-----------------------------------------------------------------------------------------------------------------------------------MAHARASTRA

1058

1165

1326

1497

1698

1383

4613

5648

11903

30292

1254

1034

1013

1224

1179

839

2163

2166

4253

15124

-----------------------------------------------------------------------------------------------------------------------------------MANIPUR

15

10

-----------------------------------------------------------------------------------------------------------------------------------MEGHALAYA

-----------------------------------------------------------------------------------------------------------------------------------MIZORAM

12

19

-----------------------------------------------------------------------------------------------------------------------------------NAGALAND

15

-------------------------------------------------------------------------------------------------------------------------------------

Source : National Sample Survey Organisation,49th Round,Schedule 1.2

A - 39

TABLE-13 : ESTIMATED NUMBER OF MIGRANTS (00) BY STATE OF ORIGIN AND PERIOD SINCE MIGRATED
ALL-INDIA

FEMALE

SECTOR : URBAN

-----------------------------------------------------------------------------------------------------------------------------------PLACE OF LAST USUAL


RESIDENCE

YEARS SINCE LEAVING LAST UPR


SECTOR -----------------------------------------------------------------------------------------0

6-9

10-15

ALL

16 &
ABOVE

-----------------------------------------------------------------------------------------------------------------------------------(1)

(2)

(3)

(4)

(5)

(6)

(7)

(8)

(9)

(10)

(11)

(12)

-----------------------------------------------------------------------------------------------------------------------------------ORISSA

51

204

297

254

298

219

855

855

1681

4714

179

84

168

134

139

93

458

92

156

1504

-----------------------------------------------------------------------------------------------------------------------------------PUNJAB

132

214

291

288

229

481

598

917

2128

5278

79

127

179

218

94

121

340

654

1237

3049

-----------------------------------------------------------------------------------------------------------------------------------RAJASTHAN

134

536

602

355

602

442

1164

1489

4558

9881

222

324

407

679

194

148

742

1177

2450

6343

-----------------------------------------------------------------------------------------------------------------------------------SIKKIM

-----------------------------------------------------------------------------------------------------------------------------------TAMIL NADU

726

743

1007

696

727

600

1862

3337

5681

15379

762

1553

1253

1236

657

561

2066

2342

3493

13923

-----------------------------------------------------------------------------------------------------------------------------------TRIPURA

15

18

45

31

48

181

18

14

17

63

-----------------------------------------------------------------------------------------------------------------------------------UTTAR PRADESH

344

1029

1446

1318

862

1085

3488

5590

12829

27991

225

836

1176

768

903

750

2583

3137

7771

18150

-----------------------------------------------------------------------------------------------------------------------------------WEST BENGAL

178

518

927

706

474

548

2124

3074

5432

13980

257

304

934

606

679

597

1675

1861

3215

10126

-----------------------------------------------------------------------------------------------------------------------------------ANDAMAN & NICOBAR

48

-----------------------------------------------------------------------------------------------------------------------------------CHANDIGARH

25

35

-----------------------------------------------------------------------------------------------------------------------------------DADER NAGAR-HAVELI

10

-----------------------------------------------------------------------------------------------------------------------------------DAMAN & DIU

-----------------------------------------------------------------------------------------------------------------------------------DELHI

13

11

24

45

53

-----------------------------------------------------------------------------------------------------------------------------------LAKSHADWEEP

-----------------------------------------------------------------------------------------------------------------------------------PONDICHERY

10

12

-----------------------------------------------------------------------------------------------------------------------------------N.R.

964

1240

1669

1819

779

1177

4400

5413

11370

28830

1456

2323

2579

1678

1411

1056

4034

5456

7871

27863

-----------------------------------------------------------------------------------------------------------------------------------ALL INDIA

6429

8683

12081

10696

8785

9099

29399

41071

82498

208740

6249

8795

10606

8885

7384

5610

19719

23066

39580

129893

------------------------------------------------------------------------------------------------------------------------------------

Source : National Sample Survey Organisation,49th Round,Schedule 1.2

A - 40

TABLE-13 : ESTIMATED NUMBER OF MIGRANTS (00) BY STATE OF ORIGIN AND PERIOD SINCE MIGRATED
FEMALE

ALL-INDIA

SECTOR : URBAN

-----------------------------------------------------------------------------------------------------------------------------------PLACE OF LAST USUAL


RESIDENCE

YEARS SINCE LEAVING LAST UPR


SECTOR -----------------------------------------------------------------------------------------0

6-9

10-15

ALL

16 &
ABOVE

-----------------------------------------------------------------------------------------------------------------------------------(1)

(2)

(3)

(4)

(5)

(6)

(7)

(8)

(9)

(10)

(11)

(12)

-----------------------------------------------------------------------------------------------------------------------------------BANGLADESH

-----------------------------------------------------------------------------------------------------------------------------------NEPAL

-----------------------------------------------------------------------------------------------------------------------------------PAKISTAN

-----------------------------------------------------------------------------------------------------------------------------------SRI LANKA

-----------------------------------------------------------------------------------------------------------------------------------BHUTAN

-----------------------------------------------------------------------------------------------------------------------------------GULF COUNTRIES

-----------------------------------------------------------------------------------------------------------------------------------OTHER COUNTRIES

36

56

52

25

17

58

356

490

2317

3408

-----------------------------------------------------------------------------------------------------------------------------------ALL FOREIGN COUNTR.

36

56

52

25

17

58

356

490

2317

3408

-----------------------------------------------------------------------------------------------------------------------------------TOTAL

12714

17533

22739

19605

16186

14767

49474

64627

124395

342040

------------------------------------------------------------------------------------------------------------------------------------

Source : National Sample Survey Organisation,49th Round,Schedule 1.2

A - 41

TABLE-13 : ESTIMATED NUMBER OF MIGRANTS (00) BY STATE OF ORIGIN AND PERIOD SINCE MIGRATED
ALL-INDIA

PERSONS

SECTOR : URBAN

-----------------------------------------------------------------------------------------------------------------------------------PLACE OF LAST USUAL


RESIDENCE

YEARS SINCE LEAVING LAST UPR


SECTOR -----------------------------------------------------------------------------------------0

6-9

10-15

ALL

16 &
ABOVE

-----------------------------------------------------------------------------------------------------------------------------------(1)

(2)

(3)

(4)

(5)

(6)

(7)

(8)

(9)

(10)

(11)

(12)

-----------------------------------------------------------------------------------------------------------------------------------ANDHRA PRADESH

2435

1227

2288

2170

2233

1120

3684

6327

8798

30281

543

723

1598

980

824

1161

1749

2311

2261

12150

-----------------------------------------------------------------------------------------------------------------------------------ARUNACHAL PRADESH

33

16

15

15

100

23

-----------------------------------------------------------------------------------------------------------------------------------ASSAM

12

80

205

93

85

254

162

454

744

2089

11

128

99

157

100

64

139

248

444

1389

-----------------------------------------------------------------------------------------------------------------------------------BIHAR

489

1008

1283

961

674

967

2560

4054

6047

18044

333

319

393

460

229

169

569

385

720

3576

-----------------------------------------------------------------------------------------------------------------------------------GOA

10

35

21

10

17

27

107

306

541

33

60

12

14

56

39

16

119

349

-----------------------------------------------------------------------------------------------------------------------------------GUJARAT

1009

846

579

1079

741

477

1990

2950

4486

14157

888

700

588

763

912

435

1424

1453

2567

9730

-----------------------------------------------------------------------------------------------------------------------------------HARYANA

115

106

164

85

104

171

630

1021

1235

3631

116

233

302

79

250

75

303

499

752

2608

-----------------------------------------------------------------------------------------------------------------------------------HIMACHAL PRADESH

50

50

133

63

69

39

102

118

316

940

32

50

124

45

13

43

10

54

377

-----------------------------------------------------------------------------------------------------------------------------------JAMMU & KASHMIR

18

29

14

11

14

158

60

179

488

38

41

18

139

41

10

38

70

126

522

-----------------------------------------------------------------------------------------------------------------------------------KARNATAKA

490

620

1171

642

439

705

2669

2472

4294

13502

618

399

959

526

609

344

1901

1827

2286

9468

-----------------------------------------------------------------------------------------------------------------------------------KERALA

678

1112

791

945

492

498

2116

1690

3379

11700

362

892

726

429

268

206

944

500

967

5294

-----------------------------------------------------------------------------------------------------------------------------------MADHYA PRADESH

617

1085

1385

1356

1068

981

3711

5735

8810

24748

703

636

954

686

622

399

2199

3159

2672

12030

-----------------------------------------------------------------------------------------------------------------------------------MAHARASTRA

1631

2458

2856

3098

3238

2260

7317

9752

20024

52636

2357

1963

1784

2313

2313

1306

4212

3460

6443

26149

-----------------------------------------------------------------------------------------------------------------------------------MANIPUR

11

12

37

10

24

-----------------------------------------------------------------------------------------------------------------------------------MEGHALAYA

10

-----------------------------------------------------------------------------------------------------------------------------------MIZORAM

12

28

18

43

-----------------------------------------------------------------------------------------------------------------------------------NAGALAND

10

26

15

-------------------------------------------------------------------------------------------------------------------------------------

Source : National Sample Survey Organisation,49th Round,Schedule 1.2

A - 42

TABLE-13 : ESTIMATED NUMBER OF MIGRANTS (00) BY STATE OF ORIGIN AND PERIOD SINCE MIGRATED
ALL-INDIA

PERSONS

SECTOR : URBAN

-----------------------------------------------------------------------------------------------------------------------------------PLACE OF LAST USUAL


RESIDENCE

YEARS SINCE LEAVING LAST UPR


SECTOR -----------------------------------------------------------------------------------------0

6-9

10-15

ALL

16 &
ABOVE

-----------------------------------------------------------------------------------------------------------------------------------(1)

(2)

(3)

(4)

(5)

(6)

(7)

(8)

(9)

(10)

(11)

(12)

-----------------------------------------------------------------------------------------------------------------------------------ORISSA

89

309

535

382

508

368

1437

1599

2652

7878

327

150

353

272

256

134

796

220

250

2757

-----------------------------------------------------------------------------------------------------------------------------------PUNJAB

259

323

527

480

298

801

729

1110

2556

7084

110

187

312

408

132

242

426

718

1413

3950

-----------------------------------------------------------------------------------------------------------------------------------RAJASTHAN

365

746

1156

612

823

693

1900

2343

5538

14177

392

477

732

1176

379

170

975

2017

3040

9356

-----------------------------------------------------------------------------------------------------------------------------------SIKKIM

11

12

-----------------------------------------------------------------------------------------------------------------------------------TAMIL NADU

1361

1373

2114

1452

1334

1175

3523

5397

9084

26811

1780

2979

2273

2316

943

1354

3770

3790

5837

25042

-----------------------------------------------------------------------------------------------------------------------------------TRIPURA

21

27

10

13

24

97

45

58

304

21

31

27

101

-----------------------------------------------------------------------------------------------------------------------------------UTTAR PRADESH

648

1746

2490

2551

1540

1980

5493

8030

15910

40388

444

1547

2038

1323

1174

1097

3777

4014

9122

24537

-----------------------------------------------------------------------------------------------------------------------------------WEST BENGAL

457

787

1490

1100

964

848

3215

5105

8161

22128

410

542

1356

1136

1343

988

2596

2913

4888

16172

-----------------------------------------------------------------------------------------------------------------------------------ANDAMAN & NICOBAR

19

16

14

13

16

21

115

-----------------------------------------------------------------------------------------------------------------------------------CHANDIGARH

25

40

-----------------------------------------------------------------------------------------------------------------------------------DADER NAGAR-HAVELI

13

-----------------------------------------------------------------------------------------------------------------------------------DAMAN & DIU

-----------------------------------------------------------------------------------------------------------------------------------DELHI

17

22

38

89

99

-----------------------------------------------------------------------------------------------------------------------------------LAKSHADWEEP

14

-----------------------------------------------------------------------------------------------------------------------------------PONDICHERY

25

23

36

-----------------------------------------------------------------------------------------------------------------------------------N.R.

2274

2612

3018

3890

1768

2744

9341

13376

24049

63073

3162

4129

5004

3473

2736

2066

7359

10187

14329

52444

-----------------------------------------------------------------------------------------------------------------------------------ALL INDIA

13056

16637

22319

21028

16433

16145

50924

71792

126685

355019

12669

16123

19722

16720

13181

10292

33305

37971

58328

218311

------------------------------------------------------------------------------------------------------------------------------------

Source : National Sample Survey Organisation,49th Round,Schedule 1.2

A - 43

TABLE-13 : ESTIMATED NUMBER OF MIGRANTS (00) BY STATE OF ORIGIN AND PERIOD SINCE MIGRATED
ALL-INDIA

PERSONS

SECTOR : URBAN

-----------------------------------------------------------------------------------------------------------------------------------PLACE OF LAST USUAL


RESIDENCE

YEARS SINCE LEAVING LAST UPR


SECTOR -----------------------------------------------------------------------------------------0

6-9

10-15

ALL

16 &
ABOVE

-----------------------------------------------------------------------------------------------------------------------------------(1)

(2)

(3)

(4)

(5)

(6)

(7)

(8)

(9)

(10)

(11)

(12)

-----------------------------------------------------------------------------------------------------------------------------------BANGLADESH

-----------------------------------------------------------------------------------------------------------------------------------NEPAL

-----------------------------------------------------------------------------------------------------------------------------------PAKISTAN

-----------------------------------------------------------------------------------------------------------------------------------SRI LANKA

-----------------------------------------------------------------------------------------------------------------------------------BHUTAN

-----------------------------------------------------------------------------------------------------------------------------------GULF COUNTRIES

-----------------------------------------------------------------------------------------------------------------------------------OTHER COUNTRIES

63

112

145

87

69

342

910

871

4996

7594

-----------------------------------------------------------------------------------------------------------------------------------ALL FOREIGN COUNTR.

63

112

145

87

69

342

910

871

4996

7594

-----------------------------------------------------------------------------------------------------------------------------------TOTAL

25789

32872

42185

37835

29683

26779

85139

110634

190010

580925

------------------------------------------------------------------------------------------------------------------------------------

Source : National Sample Survey Organisation,49th Round,Schedule 1.2

A - 44

TABLE-14 : PER THOUSAND

DISTRIBUTION OF POPULATION BY MIGRATION STATUS AND PERIOD SINCE MIGRATED FOR EACH STATE AND

MALE

SECTOR : RURAL

-----------------------------------------------------------------------------------------------------------------------------------NON-MIGRANTS
STATE/U.T.

MIGRANTS

TOTAL

MIGRANTS

------------------------------------------------------------------------------- PERSONS --------------PERIOD SINCE MIGRATED (YEAR)

ESTD(00) SAMPLE

------------------------------------------------------------------------------0

6-9

10-15 16 AND

N.R.

ALL

ABOVE
-----------------------------------------------------------------------------------------------------------------------------------(1)

(2)

(3)

(4)

(5)

(6)

(7)

(8)

(9)

(10)

(11)

(12)

(13)

(14)

(15)

(16)

-----------------------------------------------------------------------------------------------------------------------------------ANDHRA PRADESH

901

18

21

18

99

1000

23293

ARUNACHAL PRADESH

942

10

14

58

1000

147

2261
214

ASSAM

970

30

1000

2870

429

BIHAR

978

22

1000

6680

415

GOA

959

10

42

1000

94

66

GUJARAT

910

51

90

1000

14262

659

HARYANA

958

15

42

1000

2513

255

HIMACHAL PRADESH

913

11

11

14

11

13

87

1000

1977

438

JAMMU & KASHMIR

931

33

69

1000

847

209

KARNATAKA

934

11

11

23

66

1000

9971

732

KERALA

844

13

11

15

10

22

20

48

156

1000

14150

1086

MADHYA PRADESH

950

11

50

1000

12630

1512

MAHARASTRA

896

11

22

15

21

104

1000

25260

2053

MANIPUR

987

13

1000

71

104

MEGHALAYA

990

10

1000

65

18

MIZORAM

967

10

13

33

1000

70

363

NAGALAND

994

1000

34

ORISSA

964

10

36

1000

4901

553

PUNJAB

956

14

44

1000

2595

290

RAJASTHAN

948

17

52

1000

8225

698

SIKKIM

991

1000

13

28

TAMIL NADU

907

11

12

19

93

1000

16536

1385

TRIPURA

910

17

11

46

90

1000

889

453

UTTAR PRADESH

954

11

46

1000

26200

1702

WEST BENGAL

918

12

12

33

82

1000

20893

1523

ANDAMAN & NICOBAR

443

62

44

40

39

32

30

89

80

141

557

1000

513

867

CHANDIGARH

392

86

88

72

59

58

17

108

66

54

608

1000

264

198

DADER NAGAR-HAVELI

956

17

44

1000

26

44

DAMAN & DIU

991

1000

16

DELHI

816

32

32

29

34

22

32

184

1000

359

64

LAKSHADWEEP

846

32

74

10

24

154

1000

11

39

PONDICHERY

951

13

49

1000

59

63

-----------------------------------------------------------------------------------------------------------------------------------ALL-INDIA

935

10

16

65

1000

196393 18771

-----------------------------------------------------------------------------------------------------------------------------------ESTIMATED (00)
SAMPLE

2823075

23287

13029

14867

13499

12832

10108

28637

29273

49098

1764

196393

3019467

180995

2173

1961

2145

1730

1473

931

2210

2375

3641

132

18771

199766

------------------------------------------------------------------------------------------------------------------------------------

Source : National Sample Survey Organisation,49th Round,Schedule 1.2

A - 45

TABLE-14 : PER THOUSAND

DISTRIBUTION OF POPULATION BY MIGRATION STATUS AND PERIOD SINCE MIGRATED FOR EACH STATE AND

FEMALE

SECTOR : RURAL

-----------------------------------------------------------------------------------------------------------------------------------NON-MIGRANTS
STATE/U.T.

MIGRANTS

TOTAL

MIGRANTS

------------------------------------------------------------------------------- PERSONS --------------PERIOD SINCE MIGRATED (YEAR)

ESTD(00) SAMPLE

------------------------------------------------------------------------------0

6-9

10-15 16 AND

N.R.

ALL

ABOVE
-----------------------------------------------------------------------------------------------------------------------------------(1)

(2)

(3)

(4)

(5)

(6)

(7)

(8)

(9)

(10)

(11)

(12)

(13)

(14)

(15)

(16)

-----------------------------------------------------------------------------------------------------------------------------------ANDHRA PRADESH

671

12

15

20

14

15

19

46

58

131

329

1000

77302

ARUNACHAL PRADESH

913

12

14

15

17

15

87

1000

214

4495
222

ASSAM

830

18

19

31

65

170

1000

13632

1191

BIHAR

766

10

10

25

45

117

234

1000

62328

3669

GOA

741

10

11

36

27

49

107

259

1000

653

170

GUJARAT

576

45

16

27

11

11

39

57

207

424

1000

62536

2760

HARYANA

525

22

21

14

13

13

55

93

236

475

1000

25322

1608

HIMACHAL PRADESH

528

12

18

21

17

17

13

50

63

261

472

1000

11096

2368

JAMMU & KASHMIR

682

12

22

17

14

25

37

174

318

1000

3945

940

KARNATAKA

667

10

18

12

12

13

40

65

155

333

1000

49369

2689

KERALA

651

15

16

23

16

16

16

48

54

142

349

1000

33518

2755

MADHYA PRADESH

492

23

24

22

15

17

63

92

244

508

1000

117813

8035

MAHARASTRA

490

15

17

19

25

22

21

62

85

245

510

1000

123892

6830

MANIPUR

991

1000

46

62

MEGHALAYA

991

1000

59

13

MIZORAM

977

23

1000

43

219

NAGALAND

972

11

28

1000

34

64

ORISSA

653

12

17

16

11

13

35

51

189

347

1000

48344

3016

PUNJAB

556

13

18

16

21

13

53

75

225

444

1000

22979

2177

RAJASTHAN

466

18

27

20

18

19

59

95

270

534

1000

80447

4967

SIKKIM

994

1000

14

TAMIL NADU

660

13

13

21

16

16

42

47

162

340

1000

58929

3299

TRIPURA

836

12

29

28

69

164

1000

1432

664

UTTAR PRADESH

539

17

23

22

16

17

48

77

235

461

1000

236086 12617

WEST BENGAL

553

21

17

19

18

16

64

78

204

447

1000

107761

5665

ANDAMAN & NICOBAR

453

65

55

39

34

36

31

78

80

128

547

1000

446

809

CHANDIGARH

376

63

50

61

46

45

14

155

72

117

624

1000

161

140

DADER NAGAR-HAVELI

515

15

31

32

23

12

74

88

203

485

1000

285

405

DAMAN & DIU

752

26

10

23

45

30

105

248

1000

71

77

DELHI

746

10

32

36

13

33

37

12

76

254

1000

513

68

LAKSHADWEEP

913

60

20

87

1000

18

PONDICHERY

880

15

11

11

17

12

34

120

1000

135

97

-----------------------------------------------------------------------------------------------------------------------------------ALL-INDIA

599

10

16

20

17

14

15

47

68

193

401

1000

1139405 72123

-----------------------------------------------------------------------------------------------------------------------------------ESTIMATED (00)
SAMPLE

1700956

29011

44212

56436

49208

40754

117958

2465

3561

4347

3582

3078

43547 133936 192389 548553


2760

8102

11041

33068

1359

1139405

2840361

119

72123

190081

------------------------------------------------------------------------------------------------------------------------------------

Source : National Sample Survey Organisation,49th Round,Schedule 1.2

A - 46

TABLE-14 : PER THOUSAND DISTRIBUTION OF POPULATION BY MIGRATION STATUS AND PERIOD SINCE MIGRATED FOR EACH STATE AND
PERSONS

SECTOR : RURAL

-----------------------------------------------------------------------------------------------------------------------------------NON-MIGRANTS
STATE/U.T.

MIGRANTS

TOTAL

MIGRANTS

------------------------------------------------------------------------------- PERSONS --------------PERIOD SINCE MIGRATED (YEAR)

ESTD(00) SAMPLE

------------------------------------------------------------------------------0

6-9

10-15 16 AND

N.R.

ALL

ABOVE
-----------------------------------------------------------------------------------------------------------------------------------(1)

(2)

(3)

(4)

(5)

(6)

(7)

(8)

(9)

(10)

(11)

(12)

(13)

(14)

(15)

(16)

-----------------------------------------------------------------------------------------------------------------------------------ANDHRA PRADESH

786

11

10

14

10

11

13

32

39

74

214

1000

100595

ARUNACHAL PRADESH

928

12

11

16

72

1000

361

6756
436

ASSAM

905

11

10

18

34

95

1000

16501

1620

BIHAR

878

13

24

59

122

1000

69008

4084

GOA

844

11

23

19

26

58

156

1000

746

236

GUJARAT

749

48

11

15

22

29

103

251

1000

76798

3419

HARYANA

755

12

12

29

46

119

245

1000

27835

1863

HIMACHAL PRADESH

718

14

15

14

12

33

37

139

282

1000

13073

2806

JAMMU & KASHMIR

805

15

11

17

21

104

195

1000

4792

1149

KARNATAKA

801

11

25

37

89

199

1000

59340

3421

KERALA

745

14

14

19

13

13

11

35

37

96

255

1000

47667

3841

MADHYA PRADESH

731

13

14

13

10

34

48

123

269

1000

130443

9547

MAHARASTRA

692

12

12

13

16

17

12

42

50

133

308

1000

149153

8883

MANIPUR

989

11

1000

117

166

MEGHALAYA

990

10

1000

124

31

MIZORAM

972

11

28

1000

113

582

NAGALAND

984

16

1000

42

98

ORISSA

807

10

10

20

27

101

193

1000

53244

3569

PUNJAB

769

10

10

12

27

39

113

231

1000

25574

2467

RAJASTHAN

712

10

15

12

10

11

32

50

141

288

1000

88672

5665

SIKKIM

992

1000

20

42

TAMIL NADU

786

11

10

14

12

12

26

29

89

214

1000

75465

4684

2321

1117

TRIPURA

876

23

19

57

124

1000

UTTAR PRADESH

759

10

12

12

26

40

116

241

1000

262286 14319

WEST BENGAL

741

12

11

11

10

10

37

44

116

259

1000

128654

7188

ANDAMAN & NICOBAR

448

64

49

39

37

34

30

84

80

135

552

1000

959

1676

CHANDIGARH

386

77

74

68

54

53

16

126

68

77

614

1000

425

338

DADER NAGAR-HAVELI

735

10

18

16

12

40

53

102

265

1000

311

449

DAMAN & DIU

881

12

11

21

14

52

119

1000

74

93

DELHI

780

32

34

31

36

17

55

220

1000

872

132

LAKSHADWEEP

883

17

67

22

117

1000

18

57

PONDICHERY

917

14

12

11

21

83

1000

194

160

-----------------------------------------------------------------------------------------------------------------------------------ALL-INDIA

772

10

12

11

28

38

102

228

1000

1335798 90894

-----------------------------------------------------------------------------------------------------------------------------------ESTIMATED (00)
SAMPLE

4524031

52298

57241

71302

62707

53586

298953

4638

5522

6492

5312

4551

53655 162573 221662 597651


3691

10312

13416

36709

3122

1335798

5859828

251

90894

389847

------------------------------------------------------------------------------------------------------------------------------------

Source : National Sample Survey Organisation,49th Round,Schedule 1.2

A - 47

TABLE-14 : PER THOUSAND

DISTRIBUTION OF POPULATION BY MIGRATION STATUS AND PERIOD SINCE MIGRATED FOR EACH STATE AND

MALE

SECTOR : URBAN

-----------------------------------------------------------------------------------------------------------------------------------NON-MIGRANTS
STATE/U.T.

MIGRANTS

TOTAL

MIGRANTS

------------------------------------------------------------------------------- PERSONS --------------PERIOD SINCE MIGRATED (YEAR)

ESTD(00) SAMPLE

------------------------------------------------------------------------------0

6-9

10-15 16 AND

N.R.

ALL

ABOVE
-----------------------------------------------------------------------------------------------------------------------------------(1)

(2)

(3)

(4)

(5)

(6)

(7)

(8)

(9)

(10)

(11)

(12)

(13)

(14)

(15)

(16)

-----------------------------------------------------------------------------------------------------------------------------------ANDHRA PRADESH

735

21

14

25

22

21

16

31

57

58

265

1000

21223

2614

ARUNACHAL PRADESH

647

103

48

12

39

13

37

69

27

353

1000

102

158

ASSAM

770

20

20

20

12

27

17

40

64

230

1000

2132

631

BIHAR

962

10

38

1000

1837

294

GOA

826

12

32

14

21

47

29

174

1000

388

161

GUJARAT

815

18

17

11

17

15

10

25

40

34

185

1000

11128

1292

HARYANA

680

16

23

19

14

19

88

64

69

320

1000

6439

577

HIMACHAL PRADESH

698

26

40

81

24

28

30

29

34

302

1000

633

303

JAMMU & KASHMIR

856

16

18

29

10

23

21

18

144

1000

395

299

KARNATAKA

824

15

14

21

10

35

32

34

176

1000

11159

1552

KERALA

767

14

30

22

22

13

45

30

49

233

1000

7090

733

MADHYA PRADESH

772

13

13

19

17

10

41

55

53

228

1000

15835

2086

MAHARASTRA

647

18

22

22

25

23

16

46

66

116

353

1000

50803

4635

MANIPUR

975

25

1000

40

100

MEGHALAYA

956

11

44

1000

65

69

MIZORAM

956

13

15

44

1000

45

213

NAGALAND

810

13

21

58

66

13

190

1000

97

172

ORISSA

724

13

11

26

19

18

11

62

51

65

276

1000

5311

816

PUNJAB

834

15

13

18

18

16

22

20

37

166

1000

5073

1088

RAJASTHAN

789

11

15

24

20

13

24

46

47

211

1000

9518

1155

SIKKIM

946

47

54

1000

40

TAMIL NADU

724

21

23

24

21

12

17

40

42

77

276

1000

26455

2942

TRIPURA

828

14

15

12

46

27

44

172

1000

213

242

UTTAR PRADESH

837

13

16

16

10

28

29

38

163

1000

21992

2647

WEST BENGAL

718

10

19

13

17

12

34

58

111

282

1000

24013

2700

ANDAMAN & NICOBAR

404

68

45

38

22

22

28

88

86

197

596

1000

264

429

CHANDIGARH

465

26

27

25

22

32

26

80

63

234

535

1000

1520

300

DADER NAGAR-HAVELI

833

25

24

30

57

27

167

1000

52

DAMAN & DIU

932

33

68

1000

97

DELHI

639

23

26

18

60

92

122

361

1000

15077

850

LAKSHADWEEP

828

17

28

40

27

28

21

172

1000

17

112

PONDICHERY

918

33

19

82

1000

351

98

-----------------------------------------------------------------------------------------------------------------------------------ALL-INDIA

761

13

15

19

18

14

12

36

46

66

239

1000

239242 29457

-----------------------------------------------------------------------------------------------------------------------------------ESTIMATED (00)
SAMPLE

759858

13075

15339

19446

18229

13497

12012

35664

46008

65615

357

239242

999100

79469

2545

2382

3170

2565

2259

1367

3572

4739

6817

41

29457

108926

------------------------------------------------------------------------------------------------------------------------------------

Source : National Sample Survey Organisation,49th Round,Schedule 1.2

A - 48

TABLE-14 : PER THOUSAND

DISTRIBUTION OF POPULATION BY MIGRATION STATUS AND PERIOD SINCE MIGRATED FOR EACH STATE AND

FEMALE

SECTOR : URBAN

-----------------------------------------------------------------------------------------------------------------------------------NON-MIGRANTS
STATE/U.T.

MIGRANTS

TOTAL

MIGRANTS

------------------------------------------------------------------------------- PERSONS --------------PERIOD SINCE MIGRATED (YEAR)

ESTD(00) SAMPLE

------------------------------------------------------------------------------0

6-9

10-15 16 AND

N.R.

ALL

ABOVE
-----------------------------------------------------------------------------------------------------------------------------------(1)

(2)

(3)

(4)

(5)

(6)

(7)

(8)

(9)

(10)

(11)

(12)

(13)

(14)

(15)

(16)

-----------------------------------------------------------------------------------------------------------------------------------ANDHRA PRADESH

645

20

14

32

24

21

15

50

76

103

355

1000

27081

2862

ARUNACHAL PRADESH

680

75

55

17

19

15

58

46

26

320

1000

72

117

ASSAM

743

22

13

11

21

26

56

97

257

1000

2015

570

BIHAR

871

14

22

60

129

1000

4881

665

GOA

754

11

13

14

17

20

42

66

58

246

1000

368

155

GUJARAT

697

21

14

13

19

17

45

53

113

303

1000

16399

1777

HARYANA

508

15

32

34

16

17

24

100

93

160

492

1000

8452

703

HIMACHAL PRADESH

468

29

21

73

38

27

21

67

51

205

532

1000

997

489

JAMMU & KASHMIR

642

20

17

28

19

72

62

126

358

1000

934

447

KARNATAKA

715

11

10

24

13

11

13

49

53

100

285

1000

16815

2063

KERALA

652

23

38

29

24

15

16

59

47

97

348

1000

10837

1089

MADHYA PRADESH

522

14

25

30

24

22

18

70

105

171

478

1000

29077

3459

MAHARASTRA

534

23

22

24

28

27

21

68

82

172

466

1000

59179

5356

MANIPUR

984

16

1000

26

50

MEGHALAYA

978

10

22

1000

29

39

MIZORAM

969

10

31

1000

32

143

NAGALAND

834

12

17

16

14

45

45

166

1000

67

108

ORISSA

616

15

16

28

25

26

18

86

57

113

384

1000

6875

875

PUNJAB

618

11

17

22

22

16

23

51

69

152

382

1000

10379

1686

RAJASTHAN

514

12

31

28

33

26

21

55

81

199

486

1000

19407

2073

SIKKIM

967

29

33

1000

24

TAMIL NADU

651

18

26

26

23

17

13

46

68

112

349

1000

33118

3358

TRIPURA

755

17

13

19

54

38

84

245

1000

298

269

UTTAR PRADESH

566

18

24

20

16

17

57

84

191

434

1000

50938

4988

WEST BENGAL

593

13

31

21

18

18

61

82

154

407

1000

30176

2774

ANDAMAN & NICOBAR

479

46

31

28

45

33

21

86

94

136

521

1000

190

350

CHANDIGARH

391

24

25

41

23

40

30

92

121

213

609

1000

1350

274

DADER NAGAR-HAVELI

514

77

12

92

127

168

486

1000

19

53

DAMAN & DIU

842

33

16

12

14

66

158

1000

21

126

DELHI

667

32

36

25

15

45

69

98

333

1000

11594

647

LAKSHADWEEP

875

18

13

25

11

27

13

10

125

1000

15

84

PONDICHERY

867

14

10

46

20

31

133

1000

513

93

-----------------------------------------------------------------------------------------------------------------------------------ALL-INDIA

618

14

20

25

22

18

16

55

72

139

382

1000

342158 37766

-----------------------------------------------------------------------------------------------------------------------------------ESTIMATED (00)
SAMPLE

554010

12714

17533

22739

19605

16186

14767

49474

60173

2144

2348

3020

2559

2302

1608

4905

64627 124395
6214

12638

118

342158

896168

28

37766

97939

------------------------------------------------------------------------------------------------------------------------------------

Source : National Sample Survey Organisation,49th Round,Schedule 1.2

A - 49

TABLE-14 : PER THOUSAND

DISTRIBUTION OF POPULATION BY MIGRATION STATUS AND PERIOD SINCE MIGRATED FOR EACH STATE AND

PERSONS

SECTOR : URBAN

-----------------------------------------------------------------------------------------------------------------------------------NON-MIGRANTS
STATE/U.T.

MIGRANTS

TOTAL

MIGRANTS

------------------------------------------------------------------------------- PERSONS --------------PERIOD SINCE MIGRATED (YEAR)

ESTD(00) SAMPLE

------------------------------------------------------------------------------0

6-9

10-15 16 AND

N.R.

ALL

ABOVE
-----------------------------------------------------------------------------------------------------------------------------------(1)

(2)

(3)

(4)

(5)

(6)

(7)

(8)

(9)

(10)

(11)

(12)

(13)

(14)

(15)

(16)

-----------------------------------------------------------------------------------------------------------------------------------ANDHRA PRADESH

691

21

14

29

23

21

15

40

67

80

309

1000

48304

ARUNACHAL PRADESH

661

91

51

14

30

14

46

59

27

339

1000

174

5476
275

ASSAM

758

15

21

17

11

24

21

47

79

242

1000

4147

1201

BIHAR

922

12

30

78

1000

6719

959

GOA

797

11

22

10

14

12

10

29

55

40

203

1000

757

316

GUJARAT

759

19

15

12

18

16

10

34

46

71

241

1000

27527

3069

HARYANA

601

11

24

28

18

16

21

93

78

111

399

1000

14890

1280

HIMACHAL PRADESH

590

27

31

78

31

27

15

47

40

115

410

1000

1630

792

JAMMU & KASHMIR

752

18

17

29

14

47

41

70

248

1000

1329

746

KARNATAKA

771

13

12

22

11

10

10

42

42

66

229

1000

27974

3615

KERALA

709

18

34

26

23

14

12

52

38

73

291

1000

17927

1822

MADHYA PRADESH

656

13

19

24

20

15

12

54

78

108

344

1000

44912

5545

MAHARASTRA

594

20

22

23

26

25

19

56

73

142

406

1000

109982

9991

MANIPUR

980

20

1000

66

150

MEGHALAYA

967

33

1000

95

108

MIZORAM

963

11

13

37

1000

77

356

NAGALAND

821

12

15

18

53

57

11

179

1000

164

280

ORISSA

672

14

13

27

22

22

15

73

54

88

328

1000

12186

1691

PUNJAB

732

13

15

20

20

12

19

35

43

91

268

1000

15451

2774

RAJASTHAN

659

11

23

26

26

19

15

39

63

118

341

1000

28925

3228

SIKKIM

958

37

42

1000

17

64

TAMIL NADU

688

19

25

25

22

14

15

43

55

94

312

1000

59573

6300

TRIPURA

792

16

13

12

50

33

64

208

1000

511

511

UTTAR PRADESH

711

16

20

17

12

13

42

54

110

289

1000

72930

7635

WEST BENGAL

660

11

25

17

18

15

47

69

131

340

1000

54189

5474

ANDAMAN & NICOBAR

438

58

39

33

33

26

25

87

90

170

562

1000

454

779

CHANDIGARH

432

25

26

32

23

36

28

85

88

225

568

1000

2870

574

DADER NAGAR-HAVELI

688

48

19

18

73

72

77

312

1000

27

105

DAMAN & DIU

885

33

11

10

10

36

115

1000

30

223

DELHI

652

18

29

25

17

53

82

111

348

1000

26671

1497

LAKSHADWEEP

854

17

20

32

18

27

17

146

1000

32

196

PONDICHERY

894

39

19

15

106

1000

864

191

-----------------------------------------------------------------------------------------------------------------------------------ALL-INDIA

693

14

17

22

20

16

14

45

58

100

307

1000

581400 67223

-----------------------------------------------------------------------------------------------------------------------------------ESTIMATED (00)
SAMPLE

1313868

25789

32872

42185

37835

29683

26779

139642

4689

4730

6190

5124

4561

2975

85139 110634 190010


8477

10953

19455

475

581400

1895268

69

67223

206865

------------------------------------------------------------------------------------------------------------------------------------

Source : National Sample Survey Organisation,49th Round,Schedule 1.2

A - 50

TABLE-15

: PER THOUSAND DISTRIBUTION OF MIGRANTS BY REASON

FOR LEAVING LAST USUAL PLACE

OF RESIDENCE(UPR) FOR EACH USUAL ACTIVITY CATEGORY BEFORE MIGRATION

ALL-INDIA

MALE

UPTO 1 YEAR

SECTOR : RURAL

-----------------------------------------------------------------------------------------------------------------------------------REASON
USUAL

ACTIVITY

BEFORE MIGRATION

FOR

LEAVING

LAST

UPR

(CODES)

PER

1000

MIGRANTS

---------------------------------------------------------------------- DISTRIBU--------------------1

10

11

12

19

ALL

TION OF

ESTD.

MIGRANTS

(00)

SAMPLE

-----------------------------------------------------------------------------------------------------------------------------------(1)

(2)

(3)

(4)

(5)

(6)

(7)

(8)

(9) (10) (11) (12) (13) (14) (15)

(16)

(17)

(18)

-----------------------------------------------------------------------------------------------------------------------------------SELF

AGRI.

EMPLOYED

NON-AGRI.
ALL

204

262

99

39

33

46

59

23

149

81 1000

59

2141

264

40

306

81

11

98

49

86

38

18

84

181 1000

75

2722

316

112

287

89

72

42

68

48

10

11

112

137 1000

134

4863

580

REG.

AGRI.

581

150

218

24

14 1000

166

54

EMPLOYEE

NON-AGRI.

86

56

521

35

59

55

11

22

129 1000

125

4540

648

CASUAL

AGRI.

LABOUR

ALL

103

59

510

34

57

54

11

21

125 1000

130

4706

702

115

396

109

105

49

81

29

56

45 1000

102

3690

561

NON-AGRI.

21

115

659

26

17

36

32

78 1000

229

8314

378

ALL

50

201

490

36

33

14

50

10

40

68 1000

331

12004

939

-----------------------------------------------------------------------------------------------------------------------------------EMPLOYED

54

199

306

133

26

30

36

50

10

52

96 1000

594

21573

2221

-----------------------------------------------------------------------------------------------------------------------------------UNEMPLOYED

470

116

170

19

53

25

140

5 1000

21

747

111

NOT IN

STUDENT

40

67

239

13

507

108 1000

155

5619

843

LABOUR

OTHERS

15

43

13

22

11

15

73

760

32 1000

231

8378

959

FORCE

ALL

25

53

104

18

10

12

44

659

63 1000

385

13997

1802

-----------------------------------------------------------------------------------------------------------------------------------TOTAL

52

123

205

81

16

41

26

26

34

23

288

81 1000

1000

36316

4134

-----------------------------------------------------------------------------------------------------------------------------------ESTD.

MIGRANTS (00)

1879

7457
4472

578
2931

936
1495

1248
933

840
154

2948

10446

36316

-----------------------------------------------------------------------------------------------------------------------------------SAMPLE MIGRANTS

251

343
681

69
416

66
281

128
120

93
26

384
1276

4134

------------------------------------------------------------------------------------------------------------------------------------

Source : National Sample Survey Organisation,49th Round,Schedule 1.2

A - 51

TABLE-15

: PER THOUSAND DISTRIBUTION OF MIGRANTS BY REASON

FOR LEAVING LAST USUAL PLACE

OF RESIDENCE(UPR) FOR EACH USUAL ACTIVITY CATEGORY BEFORE MIGRATION

ALL-INDIA

MALE

1 TO 4 YEARS

SECTOR : RURAL

-----------------------------------------------------------------------------------------------------------------------------------REASON
USUAL

ACTIVITY

BEFORE MIGRATION

FOR

LEAVING

LAST

UPR

(CODES)

PER

1000

MIGRANTS

---------------------------------------------------------------------- DISTRIBU--------------------1

10

11

12

19

ALL

TION OF

ESTD.

MIGRANTS

(00)

SAMPLE

-----------------------------------------------------------------------------------------------------------------------------------(1)

(2)

(3)

(4)

(5)

(6)

(7)

(8)

(9) (10) (11) (12) (13) (14) (15)

(16)

(17)

(18)

-----------------------------------------------------------------------------------------------------------------------------------SELF

AGRI.

EMPLOYED

NON-AGRI.
ALL

89

313

REG.

AGRI.

28

274

EMPLOYEE

NON-AGRI.

162

CASUAL

AGRI.

LABOUR

NON-AGRI.

ALL

ALL

114

265

78

32

59

53

89

85

30

190 1000

85

3485

450

59

372

96

12

137

81

102

17

71

46 1000

69

2849

383

86

23

94

66

95

54

48

125 1000

154

6335

833

74

333

256

19

15 1000

382

53

74

482

22

57

53

18

25

20

75 1000

156

6416

841

169

74

474

21

54

64

18

23

19

72 1000

165

6798

894

146

373

102

11

16

32

34

70

97

110 1000

109

4482

670

66

412

33

38

37

12

52

65

21

19

50

34

160 1000

68

2793

320

115

388

76

21

15

30

45

29

12

62

73

129 1000

177

7274

990

-----------------------------------------------------------------------------------------------------------------------------------EMPLOYED

72

292

78

166

20

58

58

46

13

40

47

109 1000

495

20407

2717

-----------------------------------------------------------------------------------------------------------------------------------UNEMPLOYED

572

19

125

11

102

13

111

28 1000

33

1376

149

NOT IN

STUDENT

47

47

315

16

20

21

19

461

49 1000

223

9195

1273

LABOUR

OTHERS

25

10

11

135

33

131

538

94 1000

248

10220

1209

FORCE

ALL

35

27

220

11

14

27

78

502

73 1000

471

19414

2482

-----------------------------------------------------------------------------------------------------------------------------------TOTAL

71

148

56

86

10

108

34

35

36

57

264

89 1000

1000

41197

5348

-----------------------------------------------------------------------------------------------------------------------------------ESTD.

MIGRANTS (00)

2929

2305
6089

423
3528

1388
4458

1467
1457

2353
270

3669

10861

41197

-----------------------------------------------------------------------------------------------------------------------------------SAMPLE MIGRANTS

355

418
862

52
538

105
475

141
156

191
33

378
1644

5348

------------------------------------------------------------------------------------------------------------------------------------

Source : National Sample Survey Organisation,49th Round,Schedule 1.2

A - 52

TABLE-15

: PER THOUSAND DISTRIBUTION OF MIGRANTS BY REASON

FOR LEAVING LAST USUAL PLACE

OF RESIDENCE(UPR) FOR EACH USUAL ACTIVITY CATEGORY BEFORE MIGRATION

ALL-INDIA

MALE

5 TO 9 YEARS

SECTOR : RURAL

-----------------------------------------------------------------------------------------------------------------------------------REASON
USUAL

ACTIVITY

BEFORE MIGRATION

FOR

LEAVING

LAST

UPR

(CODES)

PER

1000

MIGRANTS

---------------------------------------------------------------------- DISTRIBU--------------------1

10

11

12

19

ALL

TION OF

ESTD.

MIGRANTS

SAMPLE

(00)

-----------------------------------------------------------------------------------------------------------------------------------(1)

(2)

(3)

(4)

(5)

(6)

(7)

(8)

(9) (10) (11) (12) (13) (14) (15)

(16)

(17)

(18)

-----------------------------------------------------------------------------------------------------------------------------------SELF

AGRI.

72

191

55

36

50

34

78

148

112

216 1000

84

3239

336

EMPLOYED

NON-AGRI.

36

381

37

61

103

110

76

54

64

70 1000

81

3137

225

ALL

54

285

46

48

76

71

77

102

89

144 1000

165

6375

561

215

64

27

215

189

270 1000

10

376

32

73

84

433

38

74

25

35

13

19

25

179 1000

146

5656

421

REG.

AGRI.

EMPLOYEE

NON-AGRI.
ALL

16

73

81

419

35

70

24

44

12

17

24

184 1000

156

6033

453

CASUAL

AGRI.

52

519

48

81

82

35

106

47

21 1000

132

5098

458

LABOUR

NON-AGRI.

18

299

103

46

115

112

84

10

120

17

74 1000

50

1921

165

ALL

42

459

63

14

90

90

48

109

39

36 1000

181

7018

623

-----------------------------------------------------------------------------------------------------------------------------------EMPLOYED

38

282

63

136

28

79

64

56

78

51

118 1000

501

19427

1637

-----------------------------------------------------------------------------------------------------------------------------------UNEMPLOYED

552

89

161

10

18

11

50

23

83 1000

35

1370

108

NOT IN

STUDENT

15

10

36

67

19

18

20

676

131 1000

210

8150

602

LABOUR

OTHERS

10

29

17

38

13

181

629

65 1000

253

9797

794

FORCE

ALL

12

20

18

51

10

15

108

650

95 1000

463

17948

1396

-----------------------------------------------------------------------------------------------------------------------------------TOTAL

44

154

45

73

14

24

45

34

35

91

328

106 1000

1000

38745

3141

-----------------------------------------------------------------------------------------------------------------------------------ESTD.

MIGRANTS (00)

1715

1755
5963

559
2829

1753
931

1374
1324

3528
222

4101

12690

38745

-----------------------------------------------------------------------------------------------------------------------------------SAMPLE MIGRANTS

184

174
597

43
246

98
103

93
79

209
23

247
1045

3141

------------------------------------------------------------------------------------------------------------------------------------

Source : National Sample Survey Organisation,49th Round,Schedule 1.2

A - 53

TABLE-15

: PER THOUSAND DISTRIBUTION OF MIGRANTS BY REASON

FOR LEAVING LAST USUAL PLACE

OF RESIDENCE(UPR) FOR EACH USUAL ACTIVITY CATEGORY BEFORE MIGRATION

ALL-INDIA

MALE

10 YEARS & ABOVE

SECTOR : RURAL

-----------------------------------------------------------------------------------------------------------------------------------REASON
USUAL

ACTIVITY

BEFORE MIGRATION

FOR

LEAVING

LAST

UPR

(CODES)

PER

1000

MIGRANTS

---------------------------------------------------------------------- DISTRIBU--------------------1

10

11

12

19

ALL

TION OF

ESTD.

MIGRANTS

SAMPLE

(00)

-----------------------------------------------------------------------------------------------------------------------------------(1)

(2)

(3)

(4)

(5)

(6)

(7)

(8)

(9) (10) (11) (12) (13) (14) (15)

(16)

(17)

(18)

-----------------------------------------------------------------------------------------------------------------------------------SELF

AGRI.

51

173

42

52

35

49

181

175

83

150 1000

150

11741

EMPLOYED

NON-AGRI.

37

496

68

44

90

36

58

12

80

21

52 1000

74

5788

418

ALL

46

280

51

49

53

44

140

144

63

118 1000

224

17529

1459

379

73

20

93

78

147

196 1000

524

52

30

198

90

268

26

58

40

46

43

41

14

145 1000

92

7175

633

REG.

AGRI.

EMPLOYEE

NON-AGRI.

CASUAL

AGRI.

LABOUR

ALL

1041

28

210

89

251

25

61

37

49

40

48

13

148 1000

98

7699

685

104

380

95

30

42

75

154

47

62 1000

196

15361

1134

NON-AGRI.

27

290

81

26

38

59

62

72

16

133

71

126 1000

47

3698

292

ALL

89

363

92

12

36

46

74

150

52

74 1000

243

19058

1426

-----------------------------------------------------------------------------------------------------------------------------------EMPLOYED

62

303

75

50

29

47

44

96

10

130

49

104 1000

565

44286

3570

-----------------------------------------------------------------------------------------------------------------------------------UNEMPLOYED

535

15

171

97

162

11 1000

24

1856

NOT IN

STUDENT

37

14

54

11

12

79

648

125 1000

101

7949

192
684

LABOUR

OTHERS

20

18

21

263

577

72 1000

310

24280

1570

FORCE

ALL

13

17

15

17

36

200

595

85 1000

411

32229

2254

-----------------------------------------------------------------------------------------------------------------------------------TOTAL

53

179

50

30

18

29

32

69

158

276

94 1000

1000

78371

6016

-----------------------------------------------------------------------------------------------------------------------------------ESTD.

MIGRANTS (00)

4141

3901

13999

1376
2356

2273
526

5397
2471

12379
507

7391

21653

78371

-----------------------------------------------------------------------------------------------------------------------------------SAMPLE MIGRANTS

404

338
1190

95
286

164
53

343
156

766
30

568
1623

6016

------------------------------------------------------------------------------------------------------------------------------------

Source : National Sample Survey Organisation,49th Round,Schedule 1.2

A - 54

TABLE-15

: PER THOUSAND DISTRIBUTION OF MIGRANTS BY REASON

FOR LEAVING LAST USUAL PLACE

OF RESIDENCE(UPR) FOR EACH USUAL ACTIVITY CATEGORY BEFORE MIGRATION

ALL-INDIA

FEMALE

UPTO 1 YEAR

SECTOR : RURAL

-----------------------------------------------------------------------------------------------------------------------------------REASON
USUAL

ACTIVITY

BEFORE MIGRATION

FOR

LEAVING

LAST

UPR

(CODES)

PER

1000

MIGRANTS

---------------------------------------------------------------------- DISTRIBU--------------------1

10

11

12

19

ALL

TION OF

ESTD.

MIGRANTS

SAMPLE

(00)

-----------------------------------------------------------------------------------------------------------------------------------(1)

(2)

(3)

(4)

(5)

(6)

(7)

(8)

(9) (10) (11) (12) (13) (14) (15)

(16)

(17)

(18)

-----------------------------------------------------------------------------------------------------------------------------------SELF

AGRI.

10

10

12

877

55

24 1000

72

5276

EMPLOYED

NON-AGRI.

14

136

17

126

38

317

183

167 1000

11

797

410
75

ALL

11

27

17

16

804

72

43 1000

83

6074

485

REG.

AGRI.

52

156

766

17

- 1000

82

EMPLOYEE

NON-AGRI.

35

43

413

18

20

133

179

146 1000

587

99

CASUAL

AGRI.

LABOUR

NON-AGRI.

ALL

ALL

37

57

363

15

17

210

159

128 1000

669

108

21

81

10

54

21

640

120

42 1000

86

6285

581

42

816

52

63

7 1000

53

3850

106

15

66

316

34

17

417

99

29 1000

138

10136

687

-----------------------------------------------------------------------------------------------------------------------------------EMPLOYED

13

51

194

35

16

548

91

38 1000

231

16879

1280

-----------------------------------------------------------------------------------------------------------------------------------UNEMPLOYED

58

85

12

623

212

0 1000

467

34

NOT IN

STUDENT

98

11

364

482

37 1000

67

4914

675

LABOUR

OTHERS

663

262

20 1000

696

50964

4037

FORCE

ALL

14

637

282

22 1000

763

55878

4712

-----------------------------------------------------------------------------------------------------------------------------------TOTAL

13

51

13

11

10

616

237

25 1000

1000

73223

6026

-----------------------------------------------------------------------------------------------------------------------------------ESTD.

MIGRANTS (00)

352

3715
930

75
952

663
806

724
453

45140
184

1844

17386

73223

-----------------------------------------------------------------------------------------------------------------------------------SAMPLE MIGRANTS

69

85
146

19
119

41
153

87
63

2955
7

228
2054

6026

------------------------------------------------------------------------------------------------------------------------------------

Source : National Sample Survey Organisation,49th Round,Schedule 1.2

A - 55

TABLE-15

: PER THOUSAND DISTRIBUTION OF MIGRANTS BY REASON

FOR LEAVING LAST USUAL PLACE

OF RESIDENCE(UPR) FOR EACH USUAL ACTIVITY CATEGORY BEFORE MIGRATION

ALL-INDIA

FEMALE

1 TO 4 YEARS

SECTOR : RURAL

-----------------------------------------------------------------------------------------------------------------------------------REASON
USUAL

ACTIVITY

BEFORE MIGRATION

FOR

LEAVING

LAST

UPR

(CODES)

PER

1000

MIGRANTS

---------------------------------------------------------------------- DISTRIBU--------------------1

10

11

12

19

ALL

TION OF

ESTD.

MIGRANTS

SAMPLE

(00)

-----------------------------------------------------------------------------------------------------------------------------------(1)

(2)

(3)

(4)

(5)

(6)

(7)

(8)

(9) (10) (11) (12) (13) (14) (15)

(16)

(17)

(18)

-----------------------------------------------------------------------------------------------------------------------------------SELF

AGRI.

EMPLOYED

NON-AGRI.
ALL

20

912

39

12 1000

103

15104

21

50

519

319

69 1000

1274

1070
131

10

18

881

60

17 1000

112

16378

1201

REG.

AGRI.

26

22

322

457

164

- 1000

213

17

EMPLOYEE

NON-AGRI.

10

36

12

399

59

39

39

155

214

26 1000

1201

166

ALL

13

31

14

387

50

33

34

201

206

22 1000

10

1414

183

CASUAL

AGRI.

12

40

12

769

111

32 1000

98

14303

990

LABOUR

NON-AGRI.

30

53

16

28

751

45

75 1000

1192

97

ALL

14

41

11

768

106

35 1000

106

15494

1087

-----------------------------------------------------------------------------------------------------------------------------------EMPLOYED

26

19

14

800

88

26 1000

227

33286

2471

-----------------------------------------------------------------------------------------------------------------------------------UNEMPLOYED

52

149

17

142

619

19

- 1000

434

40

NOT IN

STUDENT

10

130

32

359

389

62 1000

60

8799

975

LABOUR

OTHERS

12

813

120

34 1000

710

103878

7521

FORCE

ALL

14

14

778

141

36 1000

770

112677

8496

-----------------------------------------------------------------------------------------------------------------------------------TOTAL

11

14

782

129

34 1000

1000

146398

11007

-----------------------------------------------------------------------------------------------------------------------------------ESTD.

MIGRANTS (00)

519

635
971

155
970

436
1620

2086
662

114504
114

4906

18821

146398

-----------------------------------------------------------------------------------------------------------------------------------SAMPLE MIGRANTS

114

93
202

10
116

55
244

151
86

7004
13

326
2593

11007

------------------------------------------------------------------------------------------------------------------------------------

Source : National Sample Survey Organisation,49th Round,Schedule 1.2

A - 56

TABLE-15

: PER THOUSAND DISTRIBUTION OF MIGRANTS BY REASON

FOR LEAVING LAST USUAL PLACE

OF RESIDENCE(UPR) FOR EACH USUAL ACTIVITY CATEGORY BEFORE MIGRATION

ALL-INDIA

FEMALE

5 TO 9 YEARS

SECTOR : RURAL

-----------------------------------------------------------------------------------------------------------------------------------REASON
USUAL

ACTIVITY

BEFORE MIGRATION

FOR

LEAVING

LAST

UPR

(CODES)

PER

1000

MIGRANTS

---------------------------------------------------------------------- DISTRIBU--------------------1

10

11

12

19

ALL

TION OF

ESTD.

MIGRANTS

SAMPLE

(00)

-----------------------------------------------------------------------------------------------------------------------------------(1)

(2)

(3)

(4)

(5)

(6)

(7)

(8)

(9) (10) (11) (12) (13) (14) (15)

(16)

(17)

(18)

-----------------------------------------------------------------------------------------------------------------------------------SELF

AGRI.

EMPLOYED

NON-AGRI.
ALL

926

31

20 1000

102

18142

14

82

14

63

59

78

32

392

258

8 1000

12

2057

1259
87

16

872

54

19 1000

114

20199

1346

REG.

AGRI.

51

23

270

636

12

- 1000

110

10

EMPLOYEE

NON-AGRI.

34

42

362

10

91

305

121

19 1000

1089

68

ALL

36

39

331

107

336

111

18 1000

1199

78

CASUAL

AGRI.

13

56

15

807

66

26 1000

104

18462

1019

LABOUR

NON-AGRI.

10

10

51

823

95

8 1000

1604

70

ALL

13

52

14

808

69

24 1000

113

20066

1089

-----------------------------------------------------------------------------------------------------------------------------------EMPLOYED

34

12

14

826

63

22 1000

234

41465

2513

-----------------------------------------------------------------------------------------------------------------------------------UNEMPLOYED

56

115

54

724

48

1 1000

100

17

NOT IN

STUDENT

12

41

14

500

399

12 1000

42

7458

558

LABOUR

OTHERS

849

113

17 1000

724

128462

7774

FORCE

ALL

830

128

17 1000

766

135919

8332

-----------------------------------------------------------------------------------------------------------------------------------TOTAL

829

113

18 1000

1000

177484

10862

-----------------------------------------------------------------------------------------------------------------------------------ESTD.

MIGRANTS (00)

545

398
1454

203
795

568
902

1567
621

147098
64

3197

20071

177484

-----------------------------------------------------------------------------------------------------------------------------------SAMPLE MIGRANTS

40

34
114

19
64

43
65

98
52

8527
10

233
1563

10862

------------------------------------------------------------------------------------------------------------------------------------

Source : National Sample Survey Organisation,49th Round,Schedule 1.2

A - 57

TABLE-15

: PER THOUSAND DISTRIBUTION OF MIGRANTS BY REASON

FOR LEAVING LAST USUAL PLACE

OF RESIDENCE(UPR) FOR EACH USUAL ACTIVITY CATEGORY BEFORE MIGRATION

ALL-INDIA

FEMALE

10 YEARS & ABOVE

SECTOR : RURAL

-----------------------------------------------------------------------------------------------------------------------------------REASON
USUAL

ACTIVITY

BEFORE MIGRATION

FOR

LEAVING

LAST

UPR

(CODES)

PER

1000

MIGRANTS

---------------------------------------------------------------------- DISTRIBU--------------------1

10

11

12

19

ALL

TION OF

ESTD.

MIGRANTS

SAMPLE

(00)

-----------------------------------------------------------------------------------------------------------------------------------(1)

(2)

(3)

(4)

(5)

(6)

(7)

(8)

(9) (10) (11) (12) (13) (14) (15)

(16)

(17)

(18)

-----------------------------------------------------------------------------------------------------------------------------------SELF

AGRI.

971

14

4 1000

134

98952

EMPLOYED

NON-AGRI.

51

13

27

11

789

80

16 1000

5119

6177
263

ALL

962

18

5 1000

140

104071

6440

REG.

AGRI.

21

861

118

- 1000

995

40

EMPLOYEE

NON-AGRI.

17

27

44

30

10

760

93

19 1000

1395

125

ALL

19

16

26

17

802

103

11 1000

2390

165

CASUAL

AGRI.

22

899

39

16 1000

106

78202

3929

LABOUR

NON-AGRI.

47

876

75

1 1000

4118

197

ALL

23

898

41

15 1000

111

82319

4126

-----------------------------------------------------------------------------------------------------------------------------------EMPLOYED

13

932

29

9 1000

255

188780

10731

-----------------------------------------------------------------------------------------------------------------------------------UNEMPLOYED

69

12

796

123

- 1000

1019

70

NOT IN

STUDENT

770

200

10 1000

10

7590

634

LABOUR

OTHERS

939

42

8 1000

734

543553

32674

FORCE

ALL

937

44

8 1000

744

551143

33308

-----------------------------------------------------------------------------------------------------------------------------------TOTAL

935

40

8 1000

1000

740942

44109

-----------------------------------------------------------------------------------------------------------------------------------ESTD.

MIGRANTS (00)

812

707
2876

196
1787

581
89

3379
1479

693067
289

5972

29708

740942

-----------------------------------------------------------------------------------------------------------------------------------SAMPLE MIGRANTS

81

56
214

17
103

55
23

236
81

40391
15

402
2435

44109

------------------------------------------------------------------------------------------------------------------------------------

Source : National Sample Survey Organisation,49th Round,Schedule 1.2

A - 58

TABLE-15

: PER THOUSAND DISTRIBUTION OF MIGRANTS BY REASON

FOR LEAVING LAST USUAL PLACE

OF RESIDENCE(UPR) FOR EACH USUAL ACTIVITY CATEGORY BEFORE MIGRATION

ALL-INDIA

PERSONS

UPTO 1 YEAR

SECTOR : RURAL

-----------------------------------------------------------------------------------------------------------------------------------REASON
USUAL

ACTIVITY

BEFORE MIGRATION

FOR

LEAVING

LAST

UPR

(CODES)

PER

1000

MIGRANTS

---------------------------------------------------------------------- DISTRIBU--------------------1

10

11

12

19

ALL

TION OF

ESTD.

MIGRANTS

SAMPLE

(00)

-----------------------------------------------------------------------------------------------------------------------------------(1)

(2)

(3)

(4)

(5)

(6)

(7)

(8)

(9) (10) (11) (12) (13) (14) (15)

(16)

(17)

(18)

-----------------------------------------------------------------------------------------------------------------------------------SELF

AGRI.

66

83

31

15

10

14

26

631

82

40 1000

68

7417

EMPLOYED

NON-AGRI.

34

267

66

76

66

66

38

14

74

106

178 1000

32

3519

674
391

ALL

56

142

42

34

28

31

30

451

90

84 1000

100

10936

1065

REG.

AGRI.

406

152

148

16

253

9 1000

247

63

EMPLOYEE

NON-AGRI.

80

54

509

33

10

53

49

10

23

40

131 1000

47

5128

747

95

59

492

31

10

51

47

10

33

39

126 1000

49

5375

810

CASUAL

AGRI.

56

198

47

73

20

43

414

96

43 1000

91

9975

1142

LABOUR

NON-AGRI.

15

92

709

18

12

27

18

42

56 1000

111

12165

484

ALL

34

139

411

35

19

35

197

67

50 1000

202

22140

1626

ALL

-----------------------------------------------------------------------------------------------------------------------------------EMPLOYED

36

134

257

90

16

20

21

35

246

69

70 1000

351

38451

3501

-----------------------------------------------------------------------------------------------------------------------------------UNEMPLOYED

293

71

127

11

66

20

241

168

3 1000

11

1213

145

NOT IN

STUDENT

22

38

173

12

171

495

75 1000

96

10533

1518

LABOUR

OTHERS

13

10

10

580

333

22 1000

542

59342

4996

FORCE

ALL

16

32

11

518

357

30 1000

638

69875

6514

-----------------------------------------------------------------------------------------------------------------------------------TOTAL

20

49

102

35

21

15

13

18

420

254

44 1000

1000

109539

10160

-----------------------------------------------------------------------------------------------------------------------------------ESTD.

MIGRANTS (00)

2231

11172
5402

653
3882

1599
2301

1972
1386

45980
338

4792

27832

109539

-----------------------------------------------------------------------------------------------------------------------------------SAMPLE MIGRANTS

320

428
827

88
535

107
434

215
183

3048
33

612
3330

10160

------------------------------------------------------------------------------------------------------------------------------------

Source : National Sample Survey Organisation,49th Round,Schedule 1.2

A - 59

TABLE-15

: PER THOUSAND DISTRIBUTION OF MIGRANTS BY REASON

FOR LEAVING LAST USUAL PLACE

OF RESIDENCE(UPR) FOR EACH USUAL ACTIVITY CATEGORY BEFORE MIGRATION

ALL-INDIA

PERSONS

1 TO 4 YEARS

SECTOR : RURAL

-----------------------------------------------------------------------------------------------------------------------------------REASON
USUAL

ACTIVITY

BEFORE MIGRATION

FOR

LEAVING

LAST

UPR

(CODES)

PER

1000

MIGRANTS

---------------------------------------------------------------------- DISTRIBU--------------------1

10

11

12

19

ALL

TION OF

ESTD.

MIGRANTS

SAMPLE

(00)

-----------------------------------------------------------------------------------------------------------------------------------(1)

(2)

(3)

(4)

(5)

(6)

(7)

(8)

(9) (10) (11) (12) (13) (14) (15)

(16)

(17)

(18)

-----------------------------------------------------------------------------------------------------------------------------------SELF

AGRI.

23

55

16

10

11

11

33

757

37

46 1000

99

18589

EMPLOYED

NON-AGRI.

48

272

69

98

56

70

172

147

53 1000

22

4123

514

ALL

27

95

25

10

27

19

40

650

57

47 1000

121

22713

2034

REG.

AGRI.

28

176

56

329

167

12

164

60

10 1000

595

70

EMPLOYEE

NON-AGRI.

143

64

469

28

54

51

16

22

27

51

67 1000

41

7617

1007

145

64

459

26

50

59

16

20

37

52

63 1000

44

8211

1077

CASUAL

AGRI.

44

120

30

14

17

602

107

50 1000

100

18784

1660

LABOUR

NON-AGRI.

55

305

24

26

26

13

37

54

15

13

260

37

135 1000

21

3984

417

ALL

46

152

29

10

11

21

17

543

95

65 1000

121

22769

2077

ALL

1520

-----------------------------------------------------------------------------------------------------------------------------------EMPLOYED

32

127

33

75

10

24

26

26

511

72

57 1000

286

53693

5188

-----------------------------------------------------------------------------------------------------------------------------------UNEMPLOYED

447

15

131

78

35

159

89

22 1000

10

1811

189

NOT IN

STUDENT

29

25

225

10

14

26

185

426

55 1000

96

17994

2248

LABOUR

OTHERS

16

14

752

158

39 1000

608

114098

8730

FORCE

ALL

44

16

675

194

41 1000

704

132092

10978

-----------------------------------------------------------------------------------------------------------------------------------TOTAL

18

38

16

24

32

10

11

19

623

158

46 1000

1000

187595

16355

-----------------------------------------------------------------------------------------------------------------------------------ESTD.

MIGRANTS (00)

3448

2939
7059

578
4498

1824
6078

3553
2119

116858
384

8575

29682

187595

-----------------------------------------------------------------------------------------------------------------------------------SAMPLE MIGRANTS

469

511
1064

62
654

160
719

292
242

7195
46

704
4237

16355

------------------------------------------------------------------------------------------------------------------------------------

Source : National Sample Survey Organisation,49th Round,Schedule 1.2

A - 60

TABLE-15

: PER THOUSAND DISTRIBUTION OF MIGRANTS BY REASON

FOR LEAVING LAST USUAL PLACE

OF RESIDENCE(UPR) FOR EACH USUAL ACTIVITY CATEGORY BEFORE MIGRATION

ALL-INDIA

PERSONS

5 TO 9 YEARS

SECTOR : RURAL

-----------------------------------------------------------------------------------------------------------------------------------REASON
USUAL

ACTIVITY

BEFORE MIGRATION

FOR

LEAVING

LAST

UPR

(CODES)

PER

1000

MIGRANTS

---------------------------------------------------------------------- DISTRIBU--------------------1

10

11

12

19

ALL

TION OF

ESTD.

MIGRANTS

SAMPLE

(00)

-----------------------------------------------------------------------------------------------------------------------------------(1)

(2)

(3)

(4)

(5)

(6)

(7)

(8)

(9) (10) (11) (12) (13) (14) (15)

(16)

(17)

(18)

-----------------------------------------------------------------------------------------------------------------------------------SELF

AGRI.

11

36

10

17

808

43

50 1000

99

21381

EMPLOYED

NON-AGRI.

27

263

28

62

85

97

59

188

141

46 1000

24

5194

1595
312

ALL

14

80

14

17

23

24

25

687

62

49 1000

123

26575

1907

178

51

21

172

208

144

209 1000

486

42

68

72

422

33

62

22

44

10

65

41

153 1000

31

6745

489

REG.

AGRI.

EMPLOYEE

NON-AGRI.
ALL

19

67

69

405

31

59

21

55

10

70

39

157 1000

33

7232

531

CASUAL

AGRI.

21

156

13

25

19

19

655

62

25 1000

109

23560

1477

LABOUR

NON-AGRI.

14

167

79

25

63

61

47

440

53

44 1000

16

3525

235

ALL

20

158

21

30

24

23

627

61

27 1000

125

27085

1712

-----------------------------------------------------------------------------------------------------------------------------------EMPLOYED

18

113

24

52

12

30

24

28

587

59

52 1000

282

60891

4150

-----------------------------------------------------------------------------------------------------------------------------------UNEMPLOYED

518

83

158

13

17

11

96

25

77 1000

1470

125

NOT IN

STUDENT

14

22

54

17

11

249

544

74 1000

72

15608

1160

LABOUR

OTHERS

802

149

21 1000

639

138259

8568

FORCE

ALL

12

746

189

26 1000

712

153867

9728

-----------------------------------------------------------------------------------------------------------------------------------TOTAL

10

34

10

17

11

14

697

152

34 1000

1000

216228

14003

-----------------------------------------------------------------------------------------------------------------------------------ESTD.

MIGRANTS (00)

2260

2154
7418

763
3624

2320
1833

2941
1945

150626
286

7298

32761

216228

-----------------------------------------------------------------------------------------------------------------------------------SAMPLE MIGRANTS

224

208
711

62
310

141
168

191
131

8736
33

480
2608

14003

------------------------------------------------------------------------------------------------------------------------------------

Source : National Sample Survey Organisation,49th Round,Schedule 1.2

A - 61

TABLE-15

: PER THOUSAND DISTRIBUTION OF MIGRANTS BY REASON

FOR LEAVING LAST USUAL PLACE

OF RESIDENCE(UPR) FOR EACH USUAL ACTIVITY CATEGORY BEFORE MIGRATION

ALL-INDIA

PERSONS ( 10 YEARS & ABOVE )

SECTOR : RURAL

-----------------------------------------------------------------------------------------------------------------------------------REASON
USUAL

ACTIVITY

BEFORE MIGRATION

FOR

LEAVING

LAST

UPR

(CODES)

PER

1000

MIGRANTS

---------------------------------------------------------------------- DISTRIBU--------------------1

10

11

12

19

ALL

TION OF

ESTD.

MIGRANTS

SAMPLE

(00)

-----------------------------------------------------------------------------------------------------------------------------------(1)

(2)

(3)

(4)

(5)

(6)

(7)

(8)

(9) (10) (11) (12) (13) (14) (15)

(16)

(17)

(18)

-----------------------------------------------------------------------------------------------------------------------------------SELF

AGRI.

EMPLOYED

NON-AGRI.
ALL

REG.

AGRI.

EMPLOYEE

NON-AGRI.

CASUAL
LABOUR

20

21

886

22

20 1000

135

110693

21

287

37

29

48

19

43

12

413

49

35 1000

13

10907

7218
681

44

23

844

24

21 1000

148

121600

7899

145

25

32

27

615

77

68 1000

1519

92

25

168

80

232

27

49

34

39

38

158

27

124 1000

10

8570

758

ALL

21

165

72

198

23

46

29

37

32

227

34

116 1000

12

10089

850

AGRI.

21

81

18

10

18

777

41

23 1000

114

93562

5063

NON-AGRI.

13

162

39

12

18

28

30

34

524

73

60 1000

10

7815

489

ALL

21

87

20

11

19

757

43

26 1000

124

101378

5552

-----------------------------------------------------------------------------------------------------------------------------------EMPLOYED

14

68

16

11

10

11

22

780

33

28 1000

284

233066

14301

-----------------------------------------------------------------------------------------------------------------------------------UNEMPLOYED

370

114

345

148

7 1000

2875

262

19

29

41

380

430

69 1000

19

15539

1318

910

64

10 1000

693

567833

34244

896

74

12 1000

712

583372

35562

NOT IN

STUDENT

LABOUR

OTHERS

FORCE

ALL

-----------------------------------------------------------------------------------------------------------------------------------TOTAL

21

11

861

63

16 1000

1000

819313

50125

-----------------------------------------------------------------------------------------------------------------------------------ESTD.

MIGRANTS (00)

4952

4608

16875

1572
4143

2854
615

8776
3950

705445
797

13362

51362

819313

-----------------------------------------------------------------------------------------------------------------------------------SAMPLE MIGRANTS

485

394
1404

112
389

219
76

579
237

41157
45

970
4058

50125

------------------------------------------------------------------------------------------------------------------------------------

Source : National Sample Survey Organisation,49th Round,Schedule 1.2

A - 62

TABLE-15 : PER THOUSAND DISTRIBUTION OF MIGRANTS BY REASON

FOR LEAVING LAST USUAL PLACE

OF RESIDENCE(UPR) FOR EACH USUAL ACTIVITY CATEGORY BEFORE MIGRATION

ALL-INDIA

MALE

UPTO 1 YEAR

SECTOR : URBAN

-----------------------------------------------------------------------------------------------------------------------------------REASON
USUAL

ACTIVITY

BEFORE MIGRATION

FOR

LEAVING

LAST

UPR

(CODES)

PER

1000

MIGRANTS

---------------------------------------------------------------------- DISTRIBU--------------------1

10

11

12

19

ALL

TION OF

ESTD.

MIGRANTS

SAMPLE

(00)

-----------------------------------------------------------------------------------------------------------------------------------(1)

(2)

(3)

(4)

(5)

(6)

(7)

(8)

(9) (10) (11) (12) (13) (14) (15)

(16)

(17)

(18)

-----------------------------------------------------------------------------------------------------------------------------------SELF

AGRI.

EMPLOYED

NON-AGRI.
ALL

161

426

165

31

25

31

39

103 1000

48

1363

247

69

409

137

36

44

15

94

33

37

74

40 1000

62

1759

406

109

416

150

24

38

19

55

18

23

17

59

68 1000

110

3121

653

REG.

AGRI.

907

21

58

- 1000

257

21

EMPLOYEE

NON-AGRI.

106

86

574

38

67

41

49 1000

198

5627

1057

CASUAL

AGRI.

LABOUR

NON-AGRI.

ALL

ALL

141

83

551

37

64

40

47 1000

207

5884

1078

166

608

120

16

19

48 1000

38

1074

260

69

471

97

49

65

114

18

29

56 1000

49

1390

270

111

531

107

29

37

12

66

11

25

53 1000

87

2465

530

-----------------------------------------------------------------------------------------------------------------------------------EMPLOYED

57

300

106

295

37

50

40

13

10

26

54 1000

404

11470

2261

-----------------------------------------------------------------------------------------------------------------------------------UNEMPLOYED

557

49

126

14

10

195

35 1000

59

1678

317

60

24

482

10

364

36 1000

346

9838

1425

15

15

49

41

15

34

28

709

32 1000

191

5427

924

10

21

328

19

11

12

14

487

34 1000

537

15265

2349

NOT IN

STUDENT

LABOUR

OTHERS

50

FORCE

ALL

56

-----------------------------------------------------------------------------------------------------------------------------------TOTAL

86

129

61

122

17

180

31

22

11

283

42 1000

1000

28413

4927

-----------------------------------------------------------------------------------------------------------------------------------ESTD.

MIGRANTS (00)

2449

1745
3666

471
3455

867
5120

185
630

269
303

1202
8051

28413

-----------------------------------------------------------------------------------------------------------------------------------SAMPLE MIGRANTS

474

385
771

96
692

97
609

57
69

39
21

196
1421

4927

------------------------------------------------------------------------------------------------------------------------------------

Source : National Sample Survey Organisation,49th Round,Schedule 1.2

A - 63

TABLE-15 : PER THOUSAND DISTRIBUTION OF MIGRANTS BY REASON

FOR LEAVING LAST USUAL PLACE

OF RESIDENCE(UPR) FOR EACH USUAL ACTIVITY CATEGORY BEFORE MIGRATION

ALL-INDIA

MALE

1 TO 4 YEARS

SECTOR : URBAN

-----------------------------------------------------------------------------------------------------------------------------------REASON
USUAL

ACTIVITY

BEFORE MIGRATION

FOR

LEAVING

LAST

UPR

(CODES)

PER

1000

MIGRANTS

---------------------------------------------------------------------- DISTRIBU--------------------1

10

11

12

19

ALL

TION OF

ESTD.

MIGRANTS

SAMPLE

(00)

-----------------------------------------------------------------------------------------------------------------------------------(1)

(2)

(3)

(4)

(5)

(6)

(7)

(8)

(9) (10) (11) (12) (13) (14) (15)

(16)

(17)

(18)

-----------------------------------------------------------------------------------------------------------------------------------SELF

AGRI.

EMPLOYED

NON-AGRI.

153

516

149

11

37

15

47

43 1000

54

2755

88

378

110

24

22

21

95

65

21

22

96

54 1000

74

3806

577

ALL

115

436

126

19

14

16

70

44

15

14

76

50 1000

128

6562

1007

REG.

AGRI.

173

198

195

380

19

11

10

10 1000

293

44

EMPLOYEE

NON-AGRI.

23

127

75

554

27

50

40

22

29

38 1000

209

10709

1666

CASUAL

AGRI.

LABOUR

NON-AGRI.

ALL

ALL

430

27

129

78

550

26

49

39

22

29

37 1000

215

11002

1710

159

617

66

23

10

42

65

14 1000

47

2409

442

71

434

82

10

52

29

25

52

183

50 1000

50

2581

500

114

522

74

38

20

13

47

126

33 1000

98

4990

942

-----------------------------------------------------------------------------------------------------------------------------------EMPLOYED

72

305

91

275

18

53

36

18

18

64

40 1000

441

22553

3659

-----------------------------------------------------------------------------------------------------------------------------------UNEMPLOYED

605

37

222

10

11

87

13 1000

68

3486

541

NOT IN

STUDENT

83

18

44

307

497

26 1000

319

16337

2459

LABOUR

OTHERS

73

15

40

10

50

13

10

40

684

58 1000

172

8796

1335

FORCE

ALL

79

17

43

217

10

18

562

37 1000

491

25133

3794

-----------------------------------------------------------------------------------------------------------------------------------TOTAL

112

146

76

124

110

28

18

10

17

310

37 1000

1000

51172

7994

-----------------------------------------------------------------------------------------------------------------------------------ESTD.

MIGRANTS (00)

5727

3905
7449

456
6336

1455
5638

493
940

881
144

1874

15876

51172

-----------------------------------------------------------------------------------------------------------------------------------SAMPLE MIGRANTS

882

661
1308

79
1107

124
763

110
111

86
21

298
2444

7994

------------------------------------------------------------------------------------------------------------------------------------

Source : National Sample Survey Organisation,49th Round,Schedule 1.2

A - 64

TABLE-15 : PER THOUSAND DISTRIBUTION OF MIGRANTS BY REASON

FOR LEAVING LAST USUAL PLACE

OF RESIDENCE(UPR) FOR EACH USUAL ACTIVITY CATEGORY BEFORE MIGRATION

ALL-INDIA

MALE

5 TO 9 YEARS

SECTOR : URBAN

-----------------------------------------------------------------------------------------------------------------------------------REASON
USUAL

ACTIVITY

BEFORE MIGRATION

FOR

LEAVING

LAST

UPR

(CODES)

PER

1000

MIGRANTS

---------------------------------------------------------------------- DISTRIBU--------------------1

10

11

12

19

ALL

TION OF

ESTD.

MIGRANTS

SAMPLE

(00)

-----------------------------------------------------------------------------------------------------------------------------------(1)

(2)

(3)

(4)

(5)

(6)

(7)

(8)

(9) (10) (11) (12) (13) (14) (15)

(16)

(17)

(18)

-----------------------------------------------------------------------------------------------------------------------------------SELF

AGRI.

EMPLOYED

NON-AGRI.
ALL

227

540

74

47

34

17

30 1000

78

3740

358

65

386

144

24

48

87

46

13

56

116 1000

74

3538

400

148

465

108

14

48

46

40

10

36

72 1000

153

7278

758

503

139

328

12

9 1000

127

23

16

134

95

475

18

79

37

24

35

24

56 1000

185

8819

907

REG.

AGRI.

EMPLOYEE

NON-AGRI.

16

139

96

473

17

78

36

23

34

24

56 1000

188

8946

930

CASUAL

AGRI.

191

523

129

30

37

39

41 1000

59

2804

321

LABOUR

NON-AGRI.

214

435

38

67

48

17

60

57

56 1000

57

2714

277

ALL

202

480

84

48

28

48

48

49 1000

116

5518

598

ALL

-----------------------------------------------------------------------------------------------------------------------------------EMPLOYED

107

335

97

197

13

60

37

25

30

34

59 1000

456

21742

2286

-----------------------------------------------------------------------------------------------------------------------------------UNEMPLOYED

604

98

135

11

135

1 1000

101

4825

487

148

25

55

155

18

544

32 1000

264

12568

1258

25

44

23

13

25

651

59 1000

179

8542

908

25

51

102

14

12

588

43 1000

443

21110

2166

NOT IN

STUDENT

LABOUR

OTHERS

132

FORCE

ALL

141

-----------------------------------------------------------------------------------------------------------------------------------TOTAL

173

174

80

92

48

32

20

18

20

289

46 1000

1000

47677

4939

-----------------------------------------------------------------------------------------------------------------------------------ESTD.

MIGRANTS (00)

8236

3830
8286

351
4377

1508
2281

874
955

931
51

2199

13796

47677

-----------------------------------------------------------------------------------------------------------------------------------SAMPLE MIGRANTS

778

393
957

54
498

119
245

76
62

72
10

216
1459

4939

------------------------------------------------------------------------------------------------------------------------------------

Source : National Sample Survey Organisation,49th Round,Schedule 1.2

A - 65

TABLE-15 : PER THOUSAND DISTRIBUTION OF MIGRANTS BY REASON

FOR LEAVING LAST USUAL PLACE

OF RESIDENCE(UPR) FOR EACH USUAL ACTIVITY CATEGORY BEFORE MIGRATION

ALL-INDIA

MALE

10 YEARS & ABOV)E

SECTOR : URBAN

-----------------------------------------------------------------------------------------------------------------------------------REASON
USUAL

ACTIVITY

BEFORE MIGRATION

FOR

LEAVING

LAST

UPR

(CODES)

PER

1000

MIGRANTS

---------------------------------------------------------------------- DISTRIBU--------------------1

10

11

12

19

ALL

TION OF

ESTD.

MIGRANTS

SAMPLE

(00)

-----------------------------------------------------------------------------------------------------------------------------------(1)

(2)

(3)

(4)

(5)

(6)

(7)

(8)

(9) (10) (11) (12) (13) (14) (15)

(16)

(17)

(18)

-----------------------------------------------------------------------------------------------------------------------------------SELF

AGRI.

EMPLOYED

NON-AGRI.

244

412

165

32

21

37

61 1000

109

12221

84

421

135

13

18

73

31

77

31

37

73 1000

82

9177

955

ALL

175

416

152

10

36

16

51

25

37

66 1000

192

21398

2259

REG.

AGRI.

258

490

120

23

17

65

19

- 1000

522

54

EMPLOYEE

NON-AGRI.

26

158

114

442

24

69

36

24

10

43

47 1000

131

14645

1535

34

170

114

427

23

67

35

25

10

42

45 1000

136

15166

1589

CASUAL

AGRI.

199

577

123

23

12

34

20 1000

93

10370

1068

LABOUR

NON-AGRI.

177

472

142

17

33

36

31

42

35 1000

58

6461

691

ALL

191

536

130

14

28

19

37

26 1000

151

16831

1759

ALL

1304

-----------------------------------------------------------------------------------------------------------------------------------EMPLOYED

140

384

135

127

11

38

19

37

19

39

47 1000

478

53396

5607

-----------------------------------------------------------------------------------------------------------------------------------UNEMPLOYED

709

59

178

31

4 1000

109

12148

1332

NOT IN

STUDENT

251

29

92

117

10

17

434

28 1000

232

25931

2523

LABOUR

OTHERS

101

29

47

22

78

651

42 1000

180

20147

2094

FORCE

ALL

186

29

72

69

19

38

529

34 1000

413

46079

4617

-----------------------------------------------------------------------------------------------------------------------------------TOTAL

221

202

113

62

30

22

12

27

25

240

37 1000

1000

111622

11556

-----------------------------------------------------------------------------------------------------------------------------------ESTD.

MIGRANTS (00)

24635

12663

22559

744
6969

2468
3388

2962
1318

2776
178

4162

26802

111622

-----------------------------------------------------------------------------------------------------------------------------------SAMPLE MIGRANTS

2559

1216
2454

89
770

209
354

325
123

282
25

403
2747

11556

------------------------------------------------------------------------------------------------------------------------------------

Source : National Sample Survey Organisation,49th Round,Schedule 1.2

A - 66

TABLE-15 : PER THOUSAND DISTRIBUTION OF MIGRANTS BY REASON

FOR LEAVING LAST USUAL PLACE

OF RESIDENCE(UPR) FOR EACH USUAL ACTIVITY CATEGORY BEFORE MIGRATION

ALL-INDIA

FEMALE (

UPTO 1 YEAR

SECTOR : URBAN

-----------------------------------------------------------------------------------------------------------------------------------REASON
USUAL

ACTIVITY

BEFORE MIGRATION

FOR

LEAVING

LAST

UPR

(CODES)

PER

1000

MIGRANTS

---------------------------------------------------------------------- DISTRIBU--------------------1

10

11

12

19

ALL

TION OF

ESTD.

MIGRANTS

SAMPLE

(00)

-----------------------------------------------------------------------------------------------------------------------------------(1)

(2)

(3)

(4)

(5)

(6)

(7)

(8)

(9) (10) (11) (12) (13) (14) (15)

(16)

(17)

(18)

-----------------------------------------------------------------------------------------------------------------------------------SELF

AGRI.

EMPLOYED

NON-AGRI.
ALL

42

55

135

280

336

146 1000

10

316

48

98

19

26

396

397

10 1000

280

53
56

22

26

75

74

12

334

365

82 1000

20

596

109

REG.

AGRI.

911

28

25

36 1000

67

EMPLOYEE

NON-AGRI.

68

38

236

73

149

26

29

183

90

103 1000

19

587

105

155

34

212

69

134

24

26

164

83

96 1000

22

654

109

CASUAL

AGRI.

13

132

64

405

346

29 1000

29

877

132

LABOUR

NON-AGRI.

58

144

50

39

121

561

21 1000

17

506

58

ALL

29

136

59

17

301

425

26 1000

46

1383

190

ALL

-----------------------------------------------------------------------------------------------------------------------------------EMPLOYED

20

116

57

61

34

35

275

326

56 1000

87

2633

408

-----------------------------------------------------------------------------------------------------------------------------------UNEMPLOYED
NOT IN

STUDENT

LABOUR

OTHERS

FORCE

ALL

215

91

105

12

137

284

152

- 1000

204

47

18

20

280

11

160

477

19 1000

211

6386

906

12

14

370

524

42 1000

695

21025

3131

11

74

12

321

513

36 1000

906

27410

4037

-----------------------------------------------------------------------------------------------------------------------------------TOTAL

13

14

12

70

12

317

495

38 1000

1000

30247

4492

-----------------------------------------------------------------------------------------------------------------------------------ESTD.

MIGRANTS (00)

408

375
409

120
192

351
2132

206
265

9586
99

1142

14962

30247

-----------------------------------------------------------------------------------------------------------------------------------SAMPLE MIGRANTS

73

51
83

32
57

53
212

33
28

1080
10

166
2614

4492

------------------------------------------------------------------------------------------------------------------------------------

Source : National Sample Survey Organisation,49th Round,Schedule 1.2

A - 67

TABLE-15 : PER THOUSAND DISTRIBUTION OF MIGRANTS BY REASON

FOR LEAVING LAST USUAL PLACE

OF RESIDENCE(UPR) FOR EACH USUAL ACTIVITY CATEGORY BEFORE MIGRATION

ALL-INDIA

FEMALE (

1 TO 4 YEARS

SECTOR : URBAN

-----------------------------------------------------------------------------------------------------------------------------------REASON
USUAL

ACTIVITY

BEFORE MIGRATION

FOR

LEAVING

LAST

UPR

(CODES)

PER

1000

MIGRANTS

---------------------------------------------------------------------- DISTRIBU--------------------1

10

11

12

19

ALL

TION OF

ESTD.

MIGRANTS

SAMPLE

(00)

-----------------------------------------------------------------------------------------------------------------------------------(1)

(2)

(3)

(4)

(5)

(6)

(7)

(8)

(9) (10) (11) (12) (13) (14) (15)

(16)

(17)

(18)

-----------------------------------------------------------------------------------------------------------------------------------SELF

AGRI.

36

29

42

359

479

43 1000

16

925

EMPLOYED

NON-AGRI.

30

139

49

27

427

296

32 1000

499

125
87

ALL

10

72

36

37

383

415

39 1000

24

1425

212

REG.

AGRI.

571

79

350

- 1000

36

EMPLOYEE

NON-AGRI.

49

32

229

65

21

97

58

208

209

23 1000

23

1337

207

CASUAL

AGRI.

LABOUR

NON-AGRI.

ALL

ALL

48

31

238

63

20

95

56

205

212

23 1000

23

1373

213

20

195

345

371

64 1000

20

1186

200

72

38

182

668

18 1000

544

94

15

156

12

294

465

49 1000

30

1730

294

-----------------------------------------------------------------------------------------------------------------------------------EMPLOYED

10

97

22

72

19

34

17

15

295

372

38 1000

77

4528

719

-----------------------------------------------------------------------------------------------------------------------------------UNEMPLOYED

352

61

326

94

153

14 1000

360

38

NOT IN

STUDENT

16

235

190

516

20 1000

197

11515

1589

LABOUR

OTHERS

465

455

29 1000

720

42126

5535

FORCE

ALL

58

406

468

27 1000

916

53641

7124

-----------------------------------------------------------------------------------------------------------------------------------TOTAL

11

11

10

53

10

395

458

28 1000

1000

58530

7881

-----------------------------------------------------------------------------------------------------------------------------------ESTD.

MIGRANTS (00)

652

610
621

140
394

583
3123

448
321

23123
45

1641

26829

58530

-----------------------------------------------------------------------------------------------------------------------------------SAMPLE MIGRANTS

88

80
111

26
98

72
301

82
54

2398
13

251
4307

7881

------------------------------------------------------------------------------------------------------------------------------------

Source : National Sample Survey Organisation,49th Round,Schedule 1.2

A - 68

TABLE-15 : PER THOUSAND DISTRIBUTION OF MIGRANTS BY REASON

FOR LEAVING LAST USUAL PLACE

OF RESIDENCE(UPR) FOR EACH USUAL ACTIVITY CATEGORY BEFORE MIGRATION

ALL-INDIA

FEMALE (

5 TO 9 YEARS

SECTOR : URBAN

-----------------------------------------------------------------------------------------------------------------------------------REASON
USUAL

ACTIVITY

BEFORE MIGRATION

FOR

LEAVING

LAST

UPR

(CODES)

PER

1000

MIGRANTS

---------------------------------------------------------------------- DISTRIBU--------------------1

10

11

12

19

ALL

TION OF

ESTD.

MIGRANTS

SAMPLE

(00)

-----------------------------------------------------------------------------------------------------------------------------------(1)

(2)

(3)

(4)

(5)

(6)

(7)

(8)

(9) (10) (11) (12) (13) (14) (15)

(16)

(17)

(18)

-----------------------------------------------------------------------------------------------------------------------------------SELF

AGRI.

EMPLOYED

NON-AGRI.

58

728

176

27 1000

15

971

10

94

81

633

166

7 1000

10

621

72

ALL

72

32

691

172

19 1000

25

1592

204

REG.

AGRI.

227

773

- 1000

32

EMPLOYEE

NON-AGRI.

66

67

164

11

64

65

24

255

228

51 1000

21

1371

157

CASUAL

AGRI.

LABOUR

NON-AGRI.

ALL

ALL

132

64

66

165

10

63

64

23

267

223

50 1000

22

1402

161

44

92

16

450

317

75 1000

35

2248

202

102

69

14

52

367

288

103 1000

441

54

37

94

14

11

437

312

80 1000

42

2689

256

-----------------------------------------------------------------------------------------------------------------------------------EMPLOYED

21

80

24

41

21

18

16

466

251

55 1000

88

5684

621

-----------------------------------------------------------------------------------------------------------------------------------UNEMPLOYED
NOT IN

STUDENT

158

12

98

125

588

10 1000

391

42

22

54

303

534

58 1000

142

9126

887

LABOUR

OTHERS

556

382

28 1000

763

49041

4963

FORCE

ALL

14

516

406

32 1000

905

58166

5850

-----------------------------------------------------------------------------------------------------------------------------------TOTAL

10

12

510

394

34 1000

1000

64241

6513

-----------------------------------------------------------------------------------------------------------------------------------ESTD.

MIGRANTS (00)

597

384
639

29
347

349
802

558
240

32740
71

2203

25283

64241

-----------------------------------------------------------------------------------------------------------------------------------SAMPLE MIGRANTS

72

37
71

6
57

35
88

65
27

3259
10

182
2604

6513

------------------------------------------------------------------------------------------------------------------------------------

Source : National Sample Survey Organisation,49th Round,Schedule 1.2

A - 69

TABLE-15 : PER THOUSAND DISTRIBUTION OF MIGRANTS BY REASON

FOR LEAVING LAST USUAL PLACE

OF RESIDENCE(UPR) FOR EACH USUAL ACTIVITY CATEGORY BEFORE MIGRATION

ALL-INDIA

FEMALE (

10 YEARS & ABOV)E

SECTOR : URBAN

-----------------------------------------------------------------------------------------------------------------------------------REASON
USUAL

ACTIVITY

BEFORE MIGRATION

FOR

LEAVING

LAST

UPR

(CODES)

PER

1000

MIGRANTS

---------------------------------------------------------------------- DISTRIBU--------------------1

10

11

12

19

ALL

TION OF

ESTD.

MIGRANTS

SAMPLE

(00)

-----------------------------------------------------------------------------------------------------------------------------------(1)

(2)

(3)

(4)

(5)

(6)

(7)

(8)

(9) (10) (11) (12) (13) (14) (15)

(16)

(17)

(18)

-----------------------------------------------------------------------------------------------------------------------------------SELF

AGRI.

25

39

712

206

9 1000

23

4424

511

EMPLOYED

NON-AGRI.

24

106

27

18

11

13

560

210

30 1000

10

1864

161

ALL

25

59

667

207

15 1000

33

6288

672

594

35

285

86

- 1000

137

11

10

21

39

204

41

18

501

133

33 1000

13

2412

273

REG.

AGRI.

EMPLOYEE

NON-AGRI.

52

37

194

38

17

490

131

31 1000

13

2549

284

CASUAL

AGRI.

26

101

11

14

571

263

11 1000

40

7623

697

LABOUR

NON-AGRI.

28

120

18

25

10

564

185

37 1000

10

1933

163

ALL

27

105

10

11

569

247

16 1000

51

9555

860

ALL

-----------------------------------------------------------------------------------------------------------------------------------EMPLOYED

24

82

13

27

592

217

18 1000

97

18392

1816

-----------------------------------------------------------------------------------------------------------------------------------UNEMPLOYED

166

27

46

501

241

19 1000

801

89

NOT IN

STUDENT

15

21

11

529

389

21 1000

62

11763

1172

LABOUR

OTHERS

723

234

14 1000

836

158066

15775

FORCE

ALL

710

245

15 1000

898

169828

16947

-----------------------------------------------------------------------------------------------------------------------------------TOTAL

11

698

242

15 1000

1000

189022

18852

-----------------------------------------------------------------------------------------------------------------------------------ESTD.

MIGRANTS (00)

1335

548
2134

190
681

1058
343

1689
486

131848
88

2871

45750

189022

-----------------------------------------------------------------------------------------------------------------------------------SAMPLE MIGRANTS

122

65
219

15
84

75
57

164
43

13121
14

270
4603

18852

------------------------------------------------------------------------------------------------------------------------------------

Source : National Sample Survey Organisation,49th Round,Schedule 1.2

A - 70

TABLE-15 : PER THOUSAND DISTRIBUTION OF MIGRANTS BY REASON

FOR LEAVING LAST USUAL PLACE

OF RESIDENCE(UPR) FOR EACH USUAL ACTIVITY CATEGORY BEFORE MIGRATION

ALL-INDIA

PERSONS(

UPTO 1 YEAR

SECTOR : URBAN

-----------------------------------------------------------------------------------------------------------------------------------REASON
USUAL

ACTIVITY

BEFORE MIGRATION

FOR

LEAVING

LAST

UPR

(CODES)

PER

1000

MIGRANTS

---------------------------------------------------------------------- DISTRIBU--------------------1

10

11

12

19

ALL

TION OF

ESTD.

MIGRANTS

SAMPLE

(00)

-----------------------------------------------------------------------------------------------------------------------------------(1)

(2)

(3)

(4)

(5)

(6)

(7)

(8)

(9) (10) (11) (12) (13) (14) (15)

(16)

(17)

(18)

-----------------------------------------------------------------------------------------------------------------------------------SELF

AGRI.

138

347

145

50

20

25

53

95

111 1000

29

1678

300

EMPLOYED

NON-AGRI.

59

359

132

31

39

16

85

28

32

61

118

36 1000

35

2039

462

ALL

95

354

138

20

44

18

48

15

19

14

57

108

70 1000

63

3717

762

REG.

AGRI.

908

16

46

12

7 1000

324

25

EMPLOYEE

NON-AGRI.

103

81

542

42

19

63

40

18

17

54 1000

106

6214

1162

142

78

517

40

18

60

38

17

16

52 1000

111

6538

1187

CASUAL

AGRI.

97

394

95

184

166

39 1000

33

1952

392

LABOUR

NON-AGRI.

66

384

84

46

48

85

14

38

171

47 1000

32

1896

328

ALL

82

389

90

24

24

44

112

169

43 1000

66

3848

720

ALL

-----------------------------------------------------------------------------------------------------------------------------------EMPLOYED

50

265

97

252

37

13

43

34

11

54

82

54 1000

240

14103

2669

-----------------------------------------------------------------------------------------------------------------------------------UNEMPLOYED
NOT IN

STUDENT

520

54

124

12

15

40

190

31 1000

32

1882

364

43

22

402

10

67

409

29 1000

277

16224

2331

LABOUR

OTHERS

18

20

19

10

300

562

40 1000

451

26452

4055

FORCE

ALL

27

12

165

14

10

211

504

36 1000

727

42675

6386

-----------------------------------------------------------------------------------------------------------------------------------TOTAL

49

69

36

62

10

124

21

15

168

392

40 1000

1000

58661

9419

-----------------------------------------------------------------------------------------------------------------------------------ESTD.

MIGRANTS (00)

2857

2120
4075

591
3647

1218
7253

391
895

9854
402

2344

23013

58661

-----------------------------------------------------------------------------------------------------------------------------------SAMPLE MIGRANTS

547

436
854

128
749

150
821

90
97

1119
31

362
4035

9419

------------------------------------------------------------------------------------------------------------------------------------

Source : National Sample Survey Organisation,49th Round,Schedule 1.2

A - 71

TABLE-15 : PER THOUSAND DISTRIBUTION OF MIGRANTS BY REASON

FOR LEAVING LAST USUAL PLACE

OF RESIDENCE(UPR) FOR EACH USUAL ACTIVITY CATEGORY BEFORE MIGRATION

ALL-INDIA

PERSONS(

1 TO 4 YEARS

SECTOR : URBAN

-----------------------------------------------------------------------------------------------------------------------------------REASON
USUAL

ACTIVITY

BEFORE MIGRATION

FOR

LEAVING

LAST

UPR

(CODES)

PER

1000

MIGRANTS

---------------------------------------------------------------------- DISTRIBU--------------------1

10

11

12

19

ALL

TION OF

ESTD.

MIGRANTS

SAMPLE

(00)

-----------------------------------------------------------------------------------------------------------------------------------(1)

(2)

(3)

(4)

(5)

(6)

(7)

(8)

(9) (10) (11) (12) (13) (14) (15)

(16)

(17)

(18)

-----------------------------------------------------------------------------------------------------------------------------------SELF

AGRI.

114

396

119

28

11

17

93

156

43 1000

34

3681

EMPLOYED

NON-AGRI.

81

351

103

21

19

18

84

58

21

69

119

52 1000

39

4306

664

ALL

96

371

110

15

12

13

58

37

19

80

136

48 1000

73

7986

1219

154

176

173

401

17

10

48

9 1000

329

50

21

118

70

518

31

56

42

20

29

49

36 1000

110

12046

1873
1923

REG.

AGRI.

EMPLOYEE

NON-AGRI.

CASUAL

AGRI.

LABOUR

ALL

555

24

120

73

515

30

54

41

20

28

49

35 1000

113

12375

113

478

45

15

142

166

31 1000

33

3595

642

NON-AGRI.

60

371

69

50

24

22

74

267

44 1000

28

3125

594

ALL

88

428

56

31

15

11

110

213

37 1000

61

6720

1236

-----------------------------------------------------------------------------------------------------------------------------------EMPLOYED

62

270

80

241

18

50

33

17

64

115

39 1000

247

27082

4378

-----------------------------------------------------------------------------------------------------------------------------------UNEMPLOYED

581

40

232

19

93

13 1000

35

3847

579

NOT IN

STUDENT

55

11

30

277

82

505

24 1000

254

27852

4048

LABOUR

OTHERS

18

13

16

391

494

34 1000

464

50922

6870

FORCE

ALL

31

19

109

282

498

30 1000

718

78774

10918

-----------------------------------------------------------------------------------------------------------------------------------TOTAL

58

74

41

61

80

19

11

219

389

32 1000

1000

109702

15875

-----------------------------------------------------------------------------------------------------------------------------------ESTD.

MIGRANTS (00)

6379

4515
8070

595
6730

2038
8762

941
1261

24004
189

3515

42705

109702

-----------------------------------------------------------------------------------------------------------------------------------SAMPLE MIGRANTS

970

741
1419

105
1205

196
1064

192
165

2484
34

549
6751

15875

------------------------------------------------------------------------------------------------------------------------------------

Source : National Sample Survey Organisation,49th Round,Schedule 1.2

A - 72

TABLE-15 : PER THOUSAND DISTRIBUTION OF MIGRANTS BY REASON

FOR LEAVING LAST USUAL PLACE

OF RESIDENCE(UPR) FOR EACH USUAL ACTIVITY CATEGORY BEFORE MIGRATION

ALL-INDIA

PERSONS(

5 TO 9 YEARS

SECTOR : URBAN

-----------------------------------------------------------------------------------------------------------------------------------REASON
USUAL

ACTIVITY

BEFORE MIGRATION

FOR

LEAVING

LAST

UPR

(CODES)

PER

1000

MIGRANTS

---------------------------------------------------------------------- DISTRIBU--------------------1

10

11

12

19

ALL

TION OF

ESTD.

MIGRANTS

SAMPLE

(00)

-----------------------------------------------------------------------------------------------------------------------------------(1)

(2)

(3)

(4)

(5)

(6)

(7)

(8)

(9) (10) (11) (12) (13) (14) (15)

(16)

(17)

(18)

-----------------------------------------------------------------------------------------------------------------------------------SELF

AGRI.

EMPLOYED

NON-AGRI.
ALL

182

440

59

38

27

156

50

30 1000

42

4711

490

56

342

124

20

41

74

51

106

73

100 1000

37

4159

472

123

394

89

11

39

38

38

133

61

62 1000

79

8870

962

403

112

308

163

8 1000

159

27

14

125

92

433

15

77

40

24

64

52

56 1000

91

10190

1064

REG.

AGRI.

EMPLOYEE

NON-AGRI.

14

129

92

431

15

76

40

23

66

51

55 1000

92

10348

1091

CASUAL

AGRI.

126

331

79

16

221

163

56 1000

45

5052

523

LABOUR

NON-AGRI.

184

388

33

67

43

15

103

89

63 1000

28

3156

331

ALL

148

353

61

36

20

176

134

59 1000

73

8207

854

ALL

-----------------------------------------------------------------------------------------------------------------------------------EMPLOYED

89

282

82

165

10

52

33

23

120

79

58 1000

245

27426

2907

-----------------------------------------------------------------------------------------------------------------------------------UNEMPLOYED

571

92

132

10

13

169

2 1000

47

5216

529

NOT IN

STUDENT

95

17

36

113

13

129

540

43 1000

194

21694

2145

LABOUR

OTHERS

23

478

422

32 1000

515

57582

5871

FORCE

ALL

43

16

37

10

382

454

35 1000

708

79276

8016

-----------------------------------------------------------------------------------------------------------------------------------TOTAL

79

80

38

42

28

17

11

13

301

349

39 1000

1000

111918

11452

-----------------------------------------------------------------------------------------------------------------------------------ESTD.

MIGRANTS (00)

8833

4214
8925

380
4724

1857
3083

1432
1195

33671
122

4403

39079

111918

-----------------------------------------------------------------------------------------------------------------------------------SAMPLE MIGRANTS

850

430
1028

60
555

154
333

141
89

3331
20

398
4063

11452

------------------------------------------------------------------------------------------------------------------------------------

Source : National Sample Survey Organisation,49th Round,Schedule 1.2

A - 73

TABLE-15 : PER THOUSAND DISTRIBUTION OF MIGRANTS BY REASON

FOR LEAVING LAST USUAL PLACE

OF RESIDENCE(UPR) FOR EACH USUAL ACTIVITY CATEGORY BEFORE MIGRATION

ALL-INDIA

PERSONS(

10 YEARS & ABOV)E

SECTOR : URBAN

-----------------------------------------------------------------------------------------------------------------------------------REASON
USUAL

ACTIVITY

BEFORE MIGRATION

FOR

LEAVING

LAST

UPR

(CODES)

PER

1000

MIGRANTS

---------------------------------------------------------------------- DISTRIBU--------------------1

10

11

12

19

ALL

TION OF

ESTD.

MIGRANTS

SAMPLE

(00)

-----------------------------------------------------------------------------------------------------------------------------------(1)

(2)

(3)

(4)

(5)

(6)

(7)

(8)

(9) (10) (11) (12) (13) (14) (15)

(16)

(17)

(18)

-----------------------------------------------------------------------------------------------------------------------------------SELF

AGRI.

EMPLOYED

NON-AGRI.

185

313

122

24

205

82

47 1000

55

16645

1815

74

368

117

10

15

64

27

66

120

66

66 1000

37

11042

1116

ALL

141

335

120

29

14

41

171

76

54 1000

92

27686

2931

REG.

AGRI.

204

512

95

26

13

52

65

33

- 1000

658

65

EMPLOYEE

NON-AGRI.

24

139

104

408

26

62

31

21

79

56

45 1000

57

17057

1808

31

153

103

394

25

60

30

22

79

55

43 1000

59

17715

1873

CASUAL

AGRI.

126

375

76

19

249

131

16 1000

60

17992

1765

LABOUR

NON-AGRI.

143

391

111

13

31

28

153

75

36 1000

28

8394

854

ALL

131

380

87

12

22

218

113

22 1000

88

26386

2619

ALL

-----------------------------------------------------------------------------------------------------------------------------------EMPLOYED

110

306

104

101

10

30

15

29

166

84

40 1000

239

71788

7423

-----------------------------------------------------------------------------------------------------------------------------------UNEMPLOYED

675

57

170

32

44

5 1000

43

12949

1421

178

21

64

87

16

170

420

26 1000

125

37694

3695

OTHERS

15

10

650

281

18 1000

593

178213

17869

ALL

43

17

16

11

567

305

19 1000

718

215907

21564

NOT IN

STUDENT

LABOUR
FORCE

-----------------------------------------------------------------------------------------------------------------------------------TOTAL

86

82

44

25

12

12

15

448

241

23 1000

1000

300644

30408

-----------------------------------------------------------------------------------------------------------------------------------ESTD.

MIGRANTS (00)

25970

13211

24693

934
7650

3526
3731

4651
1804

134624
266

7033

72552

300644

-----------------------------------------------------------------------------------------------------------------------------------SAMPLE MIGRANTS

2681

1281
2673

104
854

284
411

489
166

13403
39

673
7350

30408

------------------------------------------------------------------------------------------------------------------------------------

Source : National Sample Survey Organisation,49th Round,Schedule 1.2

A - 74

TABLE-16

PER THOUSAND DISTRIBUTION OF MIGRANTS BY LOCATION OF LAST RESIDENCE FOR EACH HOUSEHOLD M P C E CLASS

ALL-INDIA

MALE ( UP TO 1 YEAR )

SECTOR:

RURAL

-----------------------------------------------------------------------------------------------------------------------------------M P C E CLASS

LOCATION OF LAST RESIDENCE

PER 1000

NO. OF

MIGRANTS

________________________________________________________________________DISTRI- MIGRANTS

--------------------

SAME DISTRICT

ESTD.(00)

OTHER DISTRICT

OTHER STATE

OTHER

OF SAME STATE

N.R.

ALL

COUN-

--------------- --------------- --------------- TRIES


RURAL

URBAN

RURAL

URBAN

RURAL

BUTION

PER 1000

OF

PERSONS

SAMPLE

MIGRANTS

URBAN

-----------------------------------------------------------------------------------------------------------------------------------(1)

(2)

(3)

(4)

(5)

(6)

(7)

(8)

(9)

(10)

(11)

(12)

(13)

(14)

-----------------------------------------------------------------------------------------------------------------------------------LESS THAN 65

635

36

37

14

85

178

13

1000

11

162

404

65

40

738

230

32

1000

119

132

55
12

80

95

333

30

426

171

39

1000

141

257

77

95

- 110

369

34

101

109

82

305

1000

20

196

744

89

110

- 125

554

140

151

27

90

38

1000

24

174

858

143

125

- 140

118

89

33

697

22

40

1000

122

111

4446

225

140

- 160

187

77

63

520

61

90

1000

142

106

5166

353

160

- 180

252

51

116

380

103

95

1000

121

150

4392

423

180

- 215

513

71

192

77

67

71

1000

118

173

4271

617

215

- 280

474

98

128

115

53

83

42

1000

140

207

5076

640

280

- 385

466

113

181

74

87

55

19

1000

152

227

5505

689

385

& ABOVE

457

148

164

86

65

61

1000

139

345

5064

811

N.R.

-----------------------------------------------------------------------------------------------------------------------------------ALL CLASSES

365

93

128

258

66

75

11

1000

1000

165

36316

4134

-----------------------------------------------------------------------------------------------------------------------------------ESTD. MIGRANTS(00)

13268

3362

4636

9369

2413

2733

406

131

36316

-----------------------------------------------------------------------------------------------------------------------------------SAMPLE MIGRANTS

1942

477

600

377

318

355

36

29

4134

------------------------------------------------------------------------------------------------------------------------------------

Source : National Sample Survey Organisation,49th Round,Schedule 1.2

A - 75

TABLE-16

PER THOUSAND DISTRIBUTION OF MIGRANTS BY LOCATION OF LAST RESIDENCE FOR EACH HOUSEHOLD M P C E CLASS

ALL-INDIA

FEMALE

UP TO 1 YEAR

SECTOR :

RURAL

-----------------------------------------------------------------------------------------------------------------------------------M P C E CLASS

LOCATION OF LAST RESIDENCE

PER 1000

NO. OF

MIGRANTS

________________________________________________________________________DISTRI- MIGRANTS

--------------------

SAME DISTRICT

ESTD.(00)

OTHER DISTRICT

OTHER STATE

OTHER

OF SAME STATE

N.R.

ALL

COUN-

--------------- --------------- --------------- TRIES


RURAL

URBAN

RURAL

URBAN

RURAL

BUTION

PER 1000

OF

PERSONS

SAMPLE

MIGRANTS

URBAN

-----------------------------------------------------------------------------------------------------------------------------------(1)

(2)

(3)

(4)

(5)

(6)

(7)

(8)

(9)

(10)

(11)

(12)

(13)

(14)

-----------------------------------------------------------------------------------------------------------------------------------LESS THAN 65

810

36

67

37

25

22

1000

10

142

764

83

65

40

926

50

16

1000

121

327

28

80

95

628

214

86

30

43

1000

11

129

828

99

95

- 110

701

26

67

29

46

117

15

1000

25

146

1866

147

110

- 125

711

79

90

17

92

1000

23

151

1692

188

125

- 140

489

96

53

316

25

15

1000

89

123

6521

375

140

- 160

480

73

85

276

54

30

1000

127

119

9325

596

160

- 180

571

54

168

112

91

1000

114

148

8376

608

180

- 215

668

32

191

45

47

15

1000

183

162

13423

1090

215

- 280

632

71

167

58

44

15

1000

182

168

13299

1120

280

- 385

662

52

163

49

37

37

1000

158

187

11561

993

385

& ABOVE

522

96

195

92

51

39

1000

72

216

5242

699

N.R.

-----------------------------------------------------------------------------------------------------------------------------------ALL CLASSES

603

61

147

111

50

23

1000

1000

154

73223

6026

-----------------------------------------------------------------------------------------------------------------------------------ESTD. MIGRANTS(00)

44166

4435

10773

8156

3631

1692

156

215

73223

-----------------------------------------------------------------------------------------------------------------------------------SAMPLE MIGRANTS

3736

458

911

372

327

173

13

36

6026

------------------------------------------------------------------------------------------------------------------------------------

Source : National Sample Survey Organisation,49th Round,Schedule 1.2

A - 76

TABLE-16

PER THOUSAND DISTRIBUTION OF MIGRANTS BY LOCATION OF LAST RESIDENCE FOR EACH HOUSEHOLD M P C E CLASS

ALL-INDIA

PERSONS

UP TO 1 YEAR

SECTOR :

RURAL

-----------------------------------------------------------------------------------------------------------------------------------M P C E CLASS

LOCATION OF LAST RESIDENCE

PER 1000

NO. OF

MIGRANTS

________________________________________________________________________DISTRI- MIGRANTS

--------------------

SAME DISTRICT

ESTD.(00)

OTHER DISTRICT

OTHER STATE

OTHER

OF SAME STATE

N.R.

ALL

COUN-

--------------- --------------- --------------- TRIES


RURAL

URBAN

RURAL

URBAN

RURAL

BUTION

PER 1000

OF

PERSONS

SAMPLE

MIGRANTS

URBAN

-----------------------------------------------------------------------------------------------------------------------------------(1)

(2)

(3)

(4)

(5)

(6)

(7)

(8)

(9)

(10)

(11)

(12)

(13)

(14)

-----------------------------------------------------------------------------------------------------------------------------------LESS THAN 65

750

36

56

29

46

64

19

1000

11

149

1169

65

40

872

102

12

14

1000

120

459

138
40

80

95

558

264

106

32

33

1000

10

131

1085

176

95

- 110

606

28

77

52

56

171

11

1000

24

157

2610

236

110

- 125

658

100

111

20

91

16

1000

23

158

2550

331

125

- 140

339

93

45

470

24

25

1000

100

118

10966

600

140

- 160

376

74

77

363

56

52

1000

132

114

14491

949

160

- 180

461

53

150

204

95

34

1000

117

148

12769

1031

180

- 215

631

41

192

52

52

28

1000

162

165

17694

1707

215

- 280

589

79

156

74

47

34

18

1000

168

177

18375

1760

280

- 385

598

72

169

57

53

43

1000

156

198

17066

1682

385

& ABOVE

490

121

180

89

58

50

1000

94

264

10306

1510

N.R.

-----------------------------------------------------------------------------------------------------------------------------------ALL CLASSES

524

71

141

160

55

40

1000

1000

158

109539

10160

-----------------------------------------------------------------------------------------------------------------------------------ESTD. MIGRANTS(00)

57434

7796

15408

17524

6045

4424

561

346

109539

-----------------------------------------------------------------------------------------------------------------------------------SAMPLE MIGRANTS

5678

935

1511

749

645

528

49

65

10160

------------------------------------------------------------------------------------------------------------------------------------

Source : National Sample Survey Organisation,49th Round,Schedule 1.2

A - 77

TABLE-16

PER THOUSAND DISTRIBUTION OF MIGRANTS BY LOCATION OF LAST RESIDENCE FOR EACH HOUSEHOLD M P C E CLASS

ALL-INDIA

MALE

1 TO 4 YEARS

SECTOR :

RURAL

-----------------------------------------------------------------------------------------------------------------------------------M P C E CLASS

LOCATION OF LAST RESIDENCE

PER 1000

NO. OF

MIGRANTS

________________________________________________________________________DISTRI- MIGRANTS

--------------------

SAME DISTRICT

ESTD.(00)

OTHER DISTRICT

OTHER STATE

OTHER

OF SAME STATE

N.R.

ALL

COUN-

--------------- --------------- --------------- TRIES


RURAL

URBAN

RURAL

URBAN

RURAL

BUTION

PER 1000

OF

PERSONS

SAMPLE

MIGRANTS

URBAN

-----------------------------------------------------------------------------------------------------------------------------------(1)

(2)

(3)

(4)

(5)

(6)

(7)

(8)

(9)

(10)

(11)

(12)

(13)

(14)

-----------------------------------------------------------------------------------------------------------------------------------LESS THAN 65

296

40

214

221

136

90

1000

17

180

705

77

65

40

574

14

319

64

25

1000

205

131

31

80

95

764

183

39

14

1000

157

320

54

95

- 110

849

60

41

27

21

1000

15

169

609

122

110

- 125

590

55

96

165

75

20

1000

20

137

811

170

125

- 140

515

47

247

76

10

106

1000

64

150

2629

291

140

- 160

700

90

58

85

24

41

1000

59

163

2447

416

160

- 180

533

119

217

17

47

41

25

1000

74

172

3056

406

180

- 215

547

98

235

32

25

48

14

1000

166

181

6842

817

215

- 280

584

63

182

78

41

43

1000

181

191

7441

992

280

- 385

391

155

232

79

47

79

10

1000

230

244

9478

1027

& ABOVE

437

88

187

135

49

89

16

1000

163

323

6729

945

385

N.R.

-----------------------------------------------------------------------------------------------------------------------------------ALL CLASSES

509

98

200

79

38

64

11

1000

1000

203

41197

5348

-----------------------------------------------------------------------------------------------------------------------------------ESTD. MIGRANTS(00)

20949

4023

8229

3248

1545

2626

437

141

41197

-----------------------------------------------------------------------------------------------------------------------------------SAMPLE MIGRANTS

2774

652

819

370

367

307

48

11

5348

------------------------------------------------------------------------------------------------------------------------------------

Source : National Sample Survey Organisation,49th Round,Schedule 1.2

A - 78

TABLE-16

PER THOUSAND DISTRIBUTION OF MIGRANTS BY LOCATION OF LAST RESIDENCE FOR EACH HOUSEHOLD M P C E CLASS

ALL-INDIA

FEMALE

1 TO 4 YEARS

SECTOR :

RURAL

-----------------------------------------------------------------------------------------------------------------------------------M P C E CLASS

LOCATION OF LAST RESIDENCE

PER 1000

NO. OF

MIGRANTS

________________________________________________________________________DISTRI- MIGRANTS

--------------------

SAME DISTRICT

ESTD.(00)

OTHER DISTRICT

OTHER STATE

OTHER

OF SAME STATE

N.R.

ALL

COUN-

--------------- --------------- --------------- TRIES


RURAL

URBAN

RURAL

URBAN

RURAL

BUTION

PER 1000

OF

PERSONS

SAMPLE

MIGRANTS

URBAN

-----------------------------------------------------------------------------------------------------------------------------------(1)

(2)

(3)

(4)

(5)

(6)

(7)

(8)

(9)

(10)

(11)

(12)

(13)

(14)

-----------------------------------------------------------------------------------------------------------------------------------LESS THAN 65

762

24

90

103

15

1000

19

147

2816

65

40

761

93

130

16

1000

121

567

162
63

80

95

807

23

147

14

1000

10

136

1535

137

95

- 110

809

23

152

12

1000

31

136

4503

293

110

- 125

831

89

47

22

1000

32

123

4742

377

125

- 140

713

30

167

25

38

19

1000

66

135

9725

692

140

- 160

784

23

162

16

1000

99

137

14464

1085

160

- 180

728

40

152

26

37

11

1000

112

163

16468

1128

180

- 215

691

52

199

16

34

1000

208

154

30413

2020

215

- 280

720

35

160

38

38

1000

197

168

28793

2260

280

- 385

660

63

177

50

36

14

1000

152

177

22302

1764

385

& ABOVE

587

69

182

50

77

28

1000

69

224

10071

1026

N.R.

-----------------------------------------------------------------------------------------------------------------------------------ALL CLASSES

711

43

168

32

34

1000

1000

158

146398

11007

-----------------------------------------------------------------------------------------------------------------------------------ESTD. MIGRANTS(00)

104039

6284

24578

4653

4979

1377

338

151

146398

-----------------------------------------------------------------------------------------------------------------------------------SAMPLE MIGRANTS

7557

640

1746

357

476

184

28

19

11007

------------------------------------------------------------------------------------------------------------------------------------

Source : National Sample Survey Organisation,49th Round,Schedule 1.2

A - 79

TABLE-16

PER THOUSAND DISTRIBUTION OF MIGRANTS BY LOCATION OF LAST RESIDENCE FOR EACH HOUSEHOLD M P C E CLASS

ALL-INDIA

PERSONS

1 TO 4 YEARS

SECTOR :

RURAL

-----------------------------------------------------------------------------------------------------------------------------------M P C E CLASS

LOCATION OF LAST RESIDENCE

PER 1000

NO. OF

MIGRANTS

________________________________________________________________________DISTRI- MIGRANTS

--------------------

SAME DISTRICT

ESTD.(00)

OTHER DISTRICT

OTHER STATE

OTHER

OF SAME STATE

N.R.

ALL

COUN-

--------------- --------------- --------------- TRIES


RURAL

URBAN

RURAL

URBAN

RURAL

BUTION

PER 1000

OF

PERSONS

SAMPLE

MIGRANTS

URBAN

-----------------------------------------------------------------------------------------------------------------------------------(1)

(2)

(3)

(4)

(5)

(6)

(7)

(8)

(9)

(10)

(11)

(12)

(13)

(14)

-----------------------------------------------------------------------------------------------------------------------------------LESS THAN 65

669

28

115

127

12

27

22

1000

19

153

3522

65

40

726

78

166

25

1000

131

697

239
94

80

95

800

19

153

19

1000

10

139

1854

191

95

- 110

814

27

139

11

1000

27

140

5111

415

110

- 125

796

15

90

64

30

1000

30

125

5553

547

125

- 140

671

33

184

36

32

38

1000

66

138

12353

983

140

- 160

772

33

147

26

11

1000

90

141

16910

1501

160

- 180

698

52

162

24

38

11

13

1000

104

164

19524

1534

180

- 215

665

61

206

19

33

15

1000

199

158

37255

2837

215

- 280

692

41

164

46

39

14

1000

193

172

36234

3252

280

- 385

579

90

194

59

39

33

1000

169

193

31780

2791

385

& ABOVE

527

76

184

84

66

52

10

1000

90

256

16800

1971

N.R.

-----------------------------------------------------------------------------------------------------------------------------------ALL CLASSES

666

55

175

42

35

21

1000

1000

166

187595

16355

-----------------------------------------------------------------------------------------------------------------------------------ESTD. MIGRANTS(00)

124988

10306

32806

7901

6524

4003

775

292

187595

-----------------------------------------------------------------------------------------------------------------------------------SAMPLE MIGRANTS

10331

1292

2565

727

843

491

76

30

16355

------------------------------------------------------------------------------------------------------------------------------------

Source : National Sample Survey Organisation,49th Round,Schedule 1.2

A - 80

TABLE-16

PER THOUSAND DISTRIBUTION OF MIGRANTS BY LOCATION OF LAST RESIDENCE FOR EACH HOUSEHOLD M P C E CLASS

ALL-INDIA

MALE

5 TO 9 YEARS

SECTOR :

RURAL

-----------------------------------------------------------------------------------------------------------------------------------M P C E CLASS

LOCATION OF LAST RESIDENCE

PER 1000

NO. OF

MIGRANTS

________________________________________________________________________DISTRI- MIGRANTS

--------------------

SAME DISTRICT

ESTD.(00)

OTHER DISTRICT

OTHER STATE

OTHER

OF SAME STATE

N.R.

ALL

COUN-

--------------- --------------- --------------- TRIES


RURAL

URBAN

RURAL

URBAN

RURAL

BUTION

PER 1000

OF

PERSONS

SAMPLE

MIGRANTS

URBAN

-----------------------------------------------------------------------------------------------------------------------------------(1)

(2)

(3)

(4)

(5)

(6)

(7)

(8)

(9)

(10)

(11)

(12)

(13)

(14)

-----------------------------------------------------------------------------------------------------------------------------------LESS THAN 65

248

160

124

47

420

1000

128

358

50

65

40

714

11

56

219

1000

191

153

19

80

95

652

250

98

1000

160

151

32

95

- 110

649

34

27

61

207

23

1000

22

155

868

78

110

- 125

655

190

131

15

1000

20

156

783

89

125

- 140

604

158

155

24

17

37

1000

61

140

2358

177

140

- 160

719

31

161

17

41

24

1000

85

162

3282

259

160

- 180

548

144

190

20

22

60

16

1000

89

162

3460

267

180

- 215

648

32

139

85

30

60

1000

157

179

6087

517

215

- 280

568

57

123

80

95

37

39

1000

215

208

8333

540

280

- 385

452

87

167

58

154

47

35

1000

167

206

6482

559

385

& ABOVE

400

175

207

111

61

29

1000

166

259

6429

554

N.R.

-----------------------------------------------------------------------------------------------------------------------------------ALL CLASSES

548

87

157

68

71

45

22

1000

1000

190

38745

3141

-----------------------------------------------------------------------------------------------------------------------------------ESTD. MIGRANTS(00)

21244

3372

6102

2621

2744

1749

862

51

38745

-----------------------------------------------------------------------------------------------------------------------------------SAMPLE MIGRANTS

1757

270

482

191

250

140

46

3141

------------------------------------------------------------------------------------------------------------------------------------

Source : National Sample Survey Organisation,49th Round,Schedule 1.2

A - 81

TABLE-16

PER THOUSAND DISTRIBUTION OF MIGRANTS BY LOCATION OF LAST RESIDENCE FOR EACH HOUSEHOLD M P C E CLASS

ALL-INDIA

FEMALE

5 TO 9 YEARS

SECTOR :

RURAL

-----------------------------------------------------------------------------------------------------------------------------------M P C E CLASS

LOCATION OF LAST RESIDENCE

PER 1000

NO. OF

MIGRANTS

________________________________________________________________________DISTRI- MIGRANTS

--------------------

SAME DISTRICT

ESTD.(00)

OTHER DISTRICT

OTHER STATE

OTHER

OF SAME STATE

N.R.

ALL

COUN-

--------------- --------------- --------------- TRIES


RURAL

URBAN

RURAL

URBAN

RURAL

BUTION

PER 1000

OF

PERSONS

SAMPLE

MIGRANTS

URBAN

-----------------------------------------------------------------------------------------------------------------------------------(1)

(2)

(3)

(4)

(5)

(6)

(7)

(8)

(9)

(10)

(11)

(12)

(13)

(14)

-----------------------------------------------------------------------------------------------------------------------------------LESS THAN 65

790

45

111

23

30

1000

12

122

2178

65

40

692

34

273

1000

142

1040

154
72

80

95

777

36

160

17

1000

14

147

2522

155

95

- 110

797

28

118

46

1000

37

142

6637

359

110

- 125

759

23

142

37

35

1000

31

135

5531

361

125

- 140

757

78

138

17

1000

69

138

12184

722

140

- 160

732

22

185

13

30

17

1000

119

147

21113

1218

160

- 180

774

39

133

33

10

1000

121

156

21416

1206

180

- 215

759

37

141

27

32

1000

206

157

36594

2179

215

- 280

705

37

156

25

60

1000

197

173

34896

2134

280

- 385

650

43

216

35

42

1000

132

176

23477

1534

385

& ABOVE

593

105

177

77

37

1000

56

220

9895

768

N.R.

-----------------------------------------------------------------------------------------------------------------------------------ALL CLASSES

725

42

160

24

38

1000

1000

159

177484

10862

-----------------------------------------------------------------------------------------------------------------------------------ESTD. MIGRANTS(00)

128645

7481

28334

4273

6766

1021

785

178

177484

-----------------------------------------------------------------------------------------------------------------------------------SAMPLE MIGRANTS

7934

444

1618

241

485

97

34

10862

------------------------------------------------------------------------------------------------------------------------------------

Source : National Sample Survey Organisation,49th Round,Schedule 1.2

A - 82

TABLE-16

PER THOUSAND DISTRIBUTION OF MIGRANTS BY LOCATION OF LAST RESIDENCE FOR EACH HOUSEHOLD M P C E CLASS

ALL-INDIA

PERSONS

5 TO 9 YEARS

SECTOR :

RURAL

-----------------------------------------------------------------------------------------------------------------------------------M P C E CLASS

LOCATION OF LAST RESIDENCE

PER 1000

NO. OF

MIGRANTS

________________________________________________________________________DISTRI- MIGRANTS

--------------------

SAME DISTRICT

ESTD.(00)

OTHER DISTRICT

OTHER STATE

OTHER

OF SAME STATE

N.R.

ALL

COUN-

--------------- --------------- --------------- TRIES


RURAL

URBAN

RURAL

URBAN

RURAL

BUTION

PER 1000

OF

PERSONS

SAMPLE

MIGRANTS

URBAN

-----------------------------------------------------------------------------------------------------------------------------------(1)

(2)

(3)

(4)

(5)

(6)

(7)

(8)

(9)

(10)

(11)

(12)

(13)

(14)

-----------------------------------------------------------------------------------------------------------------------------------LESS THAN 65

714

39

118

37

32

60

1000

12

123

2536

65

40

695

29

239

28

1000

147

1193

204
91

80

95

770

34

165

22

1000

12

148

2672

187

95

- 110

780

28

107

15

65

1000

35

144

7504

437

110

- 125

746

21

148

49

33

1000

29

137

6315

450

125

- 140

733

91

141

10

15

1000

67

138

14542

899

140

- 160

730

23

182

12

28

17

1000

113

149

24395

1477

160

- 180

743

54

141

31

17

1000

115

157

24876

1473

180

- 215

743

36

141

35

32

12

1000

197

160

42681

2696

215

- 280

679

41

149

35

67

15

11

1000

200

178

43229

2674

280

- 385

608

52

205

40

66

17

12

1000

139

181

29960

2093

& ABOVE

517

133

189

90

46

16

1000

75

234

16324

1322

385

N.R.

-----------------------------------------------------------------------------------------------------------------------------------ALL CLASSES

693

50

159

32

44

13

1000

1000

164

216228

14003

-----------------------------------------------------------------------------------------------------------------------------------ESTD. MIGRANTS(00)

149888

10853

34436

6893

9510

2771

1647

229

216228

-----------------------------------------------------------------------------------------------------------------------------------SAMPLE MIGRANTS

9691

714

2100

432

735

237

80

14

14003

------------------------------------------------------------------------------------------------------------------------------------

Source : National Sample Survey Organisation,49th Round,Schedule 1.2

A - 83

TABLE-16

PER THOUSAND DISTRIBUTION OF MIGRANTS BY LOCATION OF LAST RESIDENCE FOR EACH HOUSEHOLD M P C E CLASS

ALL-INDIA

MALE

10 YEARS & ABOVE

SECTOR :

RURAL

-----------------------------------------------------------------------------------------------------------------------------------M P C E CLASS

LOCATION OF LAST RESIDENCE

PER 1000

NO. OF

MIGRANTS

________________________________________________________________________DISTRI- MIGRANTS

--------------------

SAME DISTRICT

ESTD.(00)

OTHER DISTRICT

OTHER STATE

OTHER

OF SAME STATE

N.R.

ALL

COUN-

--------------- --------------- --------------- TRIES


RURAL

URBAN

RURAL

URBAN

RURAL

BUTION

PER 1000

OF

PERSONS

SAMPLE

MIGRANTS

URBAN

-----------------------------------------------------------------------------------------------------------------------------------(1)

(2)

(3)

(4)

(5)

(6)

(7)

(8)

(9)

(10)

(11)

(12)

(13)

(14)

-----------------------------------------------------------------------------------------------------------------------------------LESS THAN 65

428

40

55

257

195

21

1000

11

167

868

61

65

40

611

293

45

34

1000

142

638

33

80

95

636

86

92

13

20

152

1000

13

158

984

60

95

- 110

463

215

18

191

109

1000

27

160

2111

110

110

- 125

588

14

183

31

24

158

1000

28

135

2206

166

125

- 140

690

47

91

46

37

50

38

1000

55

137

4346

269

140

- 160

659

141

37

65

18

64

1000

74

168

5830

445

160

- 180

573

29

195

27

61

53

57

1000

105

163

8194

516

180

- 215

483

64

143

47

108

62

88

1000

182

175

14266

1004

215

- 280

480

71

172

39

74

73

83

1000

206

183

16155

1188

280

- 385

452

72

256

55

50

59

56

1000

186

193

14558

1290

385

& ABOVE

490

72

115

89

133

61

38

1000

105

220

8214

874

N.R.

-----------------------------------------------------------------------------------------------------------------------------------ALL CLASSES

516

57

170

47

80

60

66

1000

1000

176

78371

6016

-----------------------------------------------------------------------------------------------------------------------------------ESTD. MIGRANTS(00)

40456

4435

13329

3682

6283

4741

5153

292

78371

-----------------------------------------------------------------------------------------------------------------------------------SAMPLE MIGRANTS

3140

341

959

289

599

296

379

13

6016

------------------------------------------------------------------------------------------------------------------------------------

Source : National Sample Survey Organisation,49th Round,Schedule 1.2

A - 84

TABLE-16

PER THOUSAND DISTRIBUTION OF MIGRANTS BY LOCATION OF LAST RESIDENCE FOR EACH HOUSEHOLD M P C E CLASS

ALL-INDIA

FEMALE

10 YEARS & ABOVE

SECTOR :

RURAL

-----------------------------------------------------------------------------------------------------------------------------------M P C E CLASS

LOCATION OF LAST RESIDENCE

PER 1000

NO. OF

MIGRANTS

________________________________________________________________________DISTRI- MIGRANTS

--------------------

SAME DISTRICT

ESTD.(00)

OTHER DISTRICT

OTHER STATE

OTHER

OF SAME STATE

N.R.

ALL

COUN-

--------------- --------------- --------------- TRIES


RURAL

URBAN

RURAL

URBAN

RURAL

BUTION

PER 1000

OF

PERSONS

SAMPLE

MIGRANTS

URBAN

-----------------------------------------------------------------------------------------------------------------------------------(1)

(2)

(3)

(4)

(5)

(6)

(7)

(8)

(9)

(10)

(11)

(12)

(13)

(14)

-----------------------------------------------------------------------------------------------------------------------------------LESS THAN 65

857

21

90

30

1000

15

141

10893

623

65

40

828

76

73

14

1000

138

3851

236

80

95

748

31

166

25

29

1000

13

135

9840

574

95

- 110

817

21

110

11

33

1000

31

152

22748

1226

110

- 125

830

16

114

31

1000

35

134

25761

1456

125

- 140

826

22

112

23

1000

67

139

49793

2596

140

- 160

793

20

138

12

28

1000

114

150

84745

4646

160

- 180

776

22

146

11

31

1000

116

157

86105

4627

180

- 215

753

31

160

13

33

1000

215

162

159193

8726

215

- 280

758

30

151

13

35

1000

189

170

140065

8842

280

- 385

721

29

180

18

34

1000

139

185

102758

6814

385

& ABOVE

644

48

199

33

57

13

1000

61

224

45189

3743

N.R.

-----------------------------------------------------------------------------------------------------------------------------------ALL CLASSES

761

28

151

14

33

1000

1000

163

740942

44109

-----------------------------------------------------------------------------------------------------------------------------------ESTD. MIGRANTS(00)

564209

20730

112242

10252

24594

4152

3854

909

740942

-----------------------------------------------------------------------------------------------------------------------------------SAMPLE MIGRANTS

33540

1250

6467

594

1673

246

278

61

44109

------------------------------------------------------------------------------------------------------------------------------------

Source : National Sample Survey Organisation,49th Round,Schedule 1.2

A - 85

TABLE-16

PER THOUSAND DISTRIBUTION OF MIGRANTS BY LOCATION OF LAST RESIDENCE FOR EACH HOUSEHOLD M P C E CLASS

ALL-INDIA

PERSONS

10 YEARS & ABOVE

SECTOR :

RURAL

-----------------------------------------------------------------------------------------------------------------------------------M P C E CLASS

LOCATION OF LAST RESIDENCE

PER 1000

NO. OF

MIGRANTS

________________________________________________________________________DISTRI- MIGRANTS

--------------------

SAME DISTRICT

ESTD.(00)

OTHER DISTRICT

OTHER STATE

OTHER

OF SAME STATE

N.R.

ALL

COUN-

--------------- --------------- --------------- TRIES


RURAL

URBAN

RURAL

URBAN

RURAL

BUTION

PER 1000

OF

PERSONS

SAMPLE

MIGRANTS

URBAN

-----------------------------------------------------------------------------------------------------------------------------------(1)

(2)

(3)

(4)

(5)

(6)

(7)

(8)

(9)

(10)

(11)

(12)

(13)

(14)

-----------------------------------------------------------------------------------------------------------------------------------LESS THAN 65

826

22

87

46

16

1000

14

143

11761

684

65

40

797

107

69

13

1000

138

4489

269

80

95

738

28

159

31

28

14

1000

13

137

10824

634

95

- 110

787

19

119

12

46

16

1000

30

152

24859

1336

110

- 125

811

16

119

30

13

1000

34

134

27967

1622

125

- 140

815

24

110

24

12

1000

66

139

54139

2865

140

- 160

785

19

138

14

30

11

1000

111

151

90576

5091

160

- 180

758

23

151

13

33

13

1000

115

157

94299

5143

180

- 215

731

34

158

16

39

11

1000

212

163

173459

9730

215

- 280

729

34

153

16

39

14

13

1000

191

172

156220

10030

280

- 385

688

34

189

23

36

15

13

1000

143

186

117317

8104

385

& ABOVE

620

52

186

42

68

21

1000

65

224

53403

4617

N.R.

-----------------------------------------------------------------------------------------------------------------------------------ALL CLASSES

738

31

153

17

38

11

11

1000

1000

164

819313

50125

-----------------------------------------------------------------------------------------------------------------------------------ESTD. MIGRANTS(00)

604665

25165

125571

13934

30877

8893

9008

1200

819313

-----------------------------------------------------------------------------------------------------------------------------------SAMPLE MIGRANTS

36680

1591

7426

883

2272

542

657

74

50125

------------------------------------------------------------------------------------------------------------------------------------

Source : National Sample Survey Organisation,49th Round,Schedule 1.2

A - 86

TABLE-16

PER THOUSAND DISTRIBUTION OF MIGRANTS BY LOCATION OF LAST RESIDENCE FOR EACH HOUSEHOLD M P C E CLASS

ALL-INDIA

MALE

UP TO 1 YEAR

SECTOR :

URBAN

-----------------------------------------------------------------------------------------------------------------------------------M P C E CLASS

LOCATION OF LAST RESIDENCE

PER 1000

NO. OF

MIGRANTS

________________________________________________________________________DISTRI- MIGRANTS

--------------------

SAME DISTRICT

ESTD.(00)

OTHER DISTRICT

OTHER STATE

OTHER

OF SAME STATE

N.R.

ALL

COUN-

--------------- --------------- --------------- TRIES


RURAL

URBAN

RURAL

URBAN

RURAL

BUTION

PER 1000

OF

PERSONS

SAMPLE

MIGRANTS

URBAN

-----------------------------------------------------------------------------------------------------------------------------------(1)

(2)

(3)

(4)

(5)

(6)

(7)

(8)

(9)

(10)

(11)

(12)

(13)

(14)

-----------------------------------------------------------------------------------------------------------------------------------LESS THAN 90

268

299

92

217

112

12

1000

10

229

280

54

90

110

428

65

289

65

61

22

71

1000

12

191

334

53

110

135

379

128

107

209

108

70

1000

175

260

80

135

160

296

200

64

61

284

77

19

1000

21

239

605

122

160

185

328

138

222

130

110

64

1000

26

185

748

189

185

215

285

189

132

191

133

63

1000

80

192

2277

378

215

255

501

148

81

171

55

40

1000

113

257

3217

495

255

310

360

164

134

151

107

81

1000

103

235

2915

585

310

385

244

90

151

323

143

47

1000

108

203

3068

510

385

520

240

109

176

187

149

131

1000

224

270

6377

1235

520

700

131

128

178

274

192

85

1000

120

307

3413

524

700

& ABOVE

68

103

80

286

63

395

1000

173

428

4921

702

N.R.

-----------------------------------------------------------------------------------------------------------------------------------ALL CLASSES

250

129

137

219

122

135

1000

1000

260

28413

4927

-----------------------------------------------------------------------------------------------------------------------------------ESTD. MIGRANTS(00)

7111

3661

3901

6223

3476

3845

83

113

28413

-----------------------------------------------------------------------------------------------------------------------------------SAMPLE MIGRANTS

1319

675

746

917

567

649

26

28

4927

------------------------------------------------------------------------------------------------------------------------------------

Source : National Sample Survey Organisation,49th Round,Schedule 1.2

A - 87

TABLE-16

PER THOUSAND DISTRIBUTION OF MIGRANTS BY LOCATION OF LAST RESIDENCE FOR EACH HOUSEHOLD M P C E CLASS

ALL-INDIA

FEMALE

UP TO 1 YEAR

SECTOR :

URBAN

-----------------------------------------------------------------------------------------------------------------------------------M P C E CLASS

LOCATION OF LAST RESIDENCE

PER 1000

NO. OF

MIGRANTS

________________________________________________________________________DISTRI- MIGRANTS

--------------------

SAME DISTRICT

ESTD.(00)

OTHER DISTRICT

OTHER STATE

OTHER

OF SAME STATE

N.R.

ALL

COUN-

--------------- --------------- --------------- TRIES


RURAL

URBAN

RURAL

URBAN

RURAL

BUTION

PER 1000

OF

PERSONS

SAMPLE

MIGRANTS

URBAN

-----------------------------------------------------------------------------------------------------------------------------------(1)

(2)

(3)

(4)

(5)

(6)

(7)

(8)

(9)

(10)

(11)

(12)

(13)

(14)

-----------------------------------------------------------------------------------------------------------------------------------LESS THAN 90

143

363

152

195

144

1000

13

215

380

65

90

110

611

20

90

107

33

82

57

1000

14

198

415

54

110

135

436

118

285

108

33

21

1000

19

181

564

89

135

160

488

132

69

53

164

91

1000

22

154

666

132

160

185

411

210

156

67

147

10

1000

35

165

1071

182

185

215

415

182

105

162

78

49

1000

106

162

3192

438

215

255

310

242

147

185

50

51

12

1000

101

169

3068

544

255

310

339

153

188

183

55

78

1000

122

184

3703

599

310

385

261

85

158

327

98

55

10

1000

140

193

4222

547

385

520

220

144

163

241

108

119

1000

202

225

6118

980

520

700

166

188

147

258

72

160

1000

91

243

2766

393

700

& ABOVE

68

72

128

259

44

424

1000

135

355

4082

469

N.R.

-----------------------------------------------------------------------------------------------------------------------------------ALL CLASSES

266

148

150

221

80

128

1000

1000

205

30247

4492

-----------------------------------------------------------------------------------------------------------------------------------ESTD. MIGRANTS(00)

8032

4476

4544

6679

2406

3859

93

159

30247

-----------------------------------------------------------------------------------------------------------------------------------SAMPLE MIGRANTS

1304

736

646

842

384

535

20

25

4492

------------------------------------------------------------------------------------------------------------------------------------

Source : National Sample Survey Organisation,49th Round,Schedule 1.2

A - 88

TABLE-16

PER THOUSAND DISTRIBUTION OF MIGRANTS BY LOCATION OF LAST RESIDENCE FOR EACH HOUSEHOLD M P C E CLASS

ALL-INDIA

PERSONS

UP TO 1 YEAR

SECTOR :

URBAN

-----------------------------------------------------------------------------------------------------------------------------------M P C E CLASS

LOCATION OF LAST RESIDENCE

PER 1000

NO. OF

MIGRANTS

________________________________________________________________________DISTRI- MIGRANTS

--------------------

SAME DISTRICT

ESTD.(00)

OTHER DISTRICT

OTHER STATE

OTHER

OF SAME STATE

N.R.

ALL

COUN-

--------------- --------------- --------------- TRIES


RURAL

URBAN

RURAL

URBAN

RURAL

BUTION

PER 1000

OF

PERSONS

SAMPLE

MIGRANTS

URBAN

-----------------------------------------------------------------------------------------------------------------------------------(1)

(2)

(3)

(4)

(5)

(6)

(7)

(8)

(9)

(10)

(11)

(12)

(13)

(14)

-----------------------------------------------------------------------------------------------------------------------------------LESS THAN 90

196

336

127

204

130

1000

11

221

659

119

90

110

530

40

179

88

45

55

63

1000

13

195

749

107

110

135

418

121

229

140

56

37

1000

14

179

824

169

135

160

396

164

67

57

221

84

10

1000

22

185

1271

254

160

185

377

180

183

93

132

32

1000

31

173

1818

371

185

215

361

185

116

174

101

55

1000

93

173

5469

816

215

255

408

194

114

178

53

45

1000

107

205

6286

1039

255

310

348

158

164

169

78

79

1000

113

204

6618

1184

310

385

254

87

155

326

117

52

1000

124

197

7289

1057

385

520

230

126

170

214

129

125

1000

213

246

12495

2215

520

700

147

155

164

267

138

119

1000

105

274

6179

917

700

& ABOVE

68

89

102

273

54

409

1000

153

392

9003

1171

N.R.

-----------------------------------------------------------------------------------------------------------------------------------ALL CLASSES

258

139

144

220

100

131

1000

1000

228

58661

9419

-----------------------------------------------------------------------------------------------------------------------------------ESTD. MIGRANTS(00)

15144

8137

8445

12902

5882

7704

175

272

58661

-----------------------------------------------------------------------------------------------------------------------------------SAMPLE MIGRANTS

2623

1411

1392

1759

951

1184

46

53

9419

------------------------------------------------------------------------------------------------------------------------------------

Source : National Sample Survey Organisation,49th Round,Schedule 1.2

A - 89

TABLE-16

PER THOUSAND DISTRIBUTION OF MIGRANTS BY LOCATION OF LAST RESIDENCE FOR EACH HOUSEHOLD M P C E CLASS

ALL-INDIA

MALE

1 TO 4 YEARS

SECTOR :

URBAN

-----------------------------------------------------------------------------------------------------------------------------------M P C E CLASS

LOCATION OF LAST RESIDENCE

PER 1000

NO. OF

MIGRANTS

________________________________________________________________________DISTRI- MIGRANTS

--------------------

SAME DISTRICT

ESTD.(00)

OTHER DISTRICT

OTHER STATE

OTHER

OF SAME STATE

N.R.

ALL

COUN-

--------------- --------------- --------------- TRIES


RURAL

URBAN

RURAL

URBAN

RURAL

BUTION

PER 1000

OF

PERSONS

SAMPLE

MIGRANTS

URBAN

-----------------------------------------------------------------------------------------------------------------------------------(1)

(2)

(3)

(4)

(5)

(6)

(7)

(8)

(9)

(10)

(11)

(12)

(13)

(14)

-----------------------------------------------------------------------------------------------------------------------------------LESS THAN 90

365

164

65

336

19

43

1000

194

308

90

110

328

65

64

437

56

49

1000

145

253

49

110

135

705

103

41

29

15

94

14

1000

20

166

1014

137

135

160

380

101

222

106

125

59

1000

24

184

1219

200

160

185

349

188

302

76

44

41

1000

34

178

1750

282

185

215

481

210

154

50

50

54

1000

74

197

3769

606

215

255

380

169

183

114

81

69

1000

87

210

4464

752

255

310

328

216

170

149

76

54

1000

122

214

6269

1024

310

385

267

166

142

193

170

62

1000

106

190

5421

834

385

520

211

156

179

182

141

129

1000

239

265

12226

2083

520

700

700

& ABOVE
N.R.

88

143

108

209

261

161

108

1000

127

290

6506

886

105

81

158

245

117

286

1000

156

354

7974

1053

-----------------------------------------------------------------------------------------------------------------------------------ALL CLASSES

261

150

174

177

116

118

1000

1000

238

51172

7994

-----------------------------------------------------------------------------------------------------------------------------------ESTD. MIGRANTS(00)

13353

7668

8908

9054

5917

6022

206

45

51172

-----------------------------------------------------------------------------------------------------------------------------------SAMPLE MIGRANTS

2149

1101

1333

1442

966

942

47

14

7994

------------------------------------------------------------------------------------------------------------------------------------

Source : National Sample Survey Organisation,49th Round,Schedule 1.2

A - 90

TABLE-16

PER THOUSAND DISTRIBUTION OF MIGRANTS BY LOCATION OF LAST RESIDENCE FOR EACH HOUSEHOLD M P C E CLASS

ALL-INDIA

FEMALE

1 TO 4 YEARS

SECTOR :

URBAN

-----------------------------------------------------------------------------------------------------------------------------------M P C E CLASS

LOCATION OF LAST RESIDENCE

PER 1000

NO. OF

MIGRANTS

________________________________________________________________________DISTRI- MIGRANTS

--------------------

SAME DISTRICT

ESTD.(00)

OTHER DISTRICT

OTHER STATE

OTHER

OF SAME STATE

N.R.

ALL

COUN-

--------------- --------------- --------------- TRIES


RURAL

URBAN

RURAL

URBAN

RURAL

BUTION

PER 1000

OF

PERSONS

SAMPLE

MIGRANTS

URBAN

-----------------------------------------------------------------------------------------------------------------------------------(1)

(2)

(3)

(4)

(5)

(6)

(7)

(8)

(9)

(10)

(11)

(12)

(13)

(14)

-----------------------------------------------------------------------------------------------------------------------------------LESS THAN 90

298

91

306

143

116

43

1000

12

172

695

90

110

531

71

41

302

21

34

1000

131

410

60

110

135

512

130

88

139

53

79

1000

25

145

1472

198

135

160

499

129

146

152

26

45

1000

29

153

1702

260

160

185

391

220

194

72

76

47

1000

46

157

2692

359

185

215

481

159

172

115

31

38

1000

119

170

6958

865

215

255

382

181

113

162

110

51

1000

102

180

5979

856

255

310

334

205

152

136

106

66

1000

134

180

7858

1128

310

385

310

159

178

213

83

50

1000

124

184

7254

933

385

520

242

159

174

228

70

126

1000

194

210

11345

1699

520

700

149

143

146

339

62

157

1000

105

240

6129

731

700

& ABOVE

77

96

118

279

143

283

1000

103

278

6036

683

N.R.

109

-----------------------------------------------------------------------------------------------------------------------------------ALL CLASSES

302

159

155

199

81

101

1000

1000

192

58530

7881

-----------------------------------------------------------------------------------------------------------------------------------ESTD. MIGRANTS(00)

17701

9316

9067

11622

4763

5905

94

60

58530

-----------------------------------------------------------------------------------------------------------------------------------SAMPLE MIGRANTS

2389

1262

1238

1514

625

819

22

12

7881

------------------------------------------------------------------------------------------------------------------------------------

Source : National Sample Survey Organisation,49th Round,Schedule 1.2

A - 91

TABLE-16

PER THOUSAND DISTRIBUTION OF MIGRANTS BY LOCATION OF LAST RESIDENCE FOR EACH HOUSEHOLD M P C E CLASS

ALL-INDIA

PERSONS

1 TO 4 YEARS

SECTOR :

URBAN

-----------------------------------------------------------------------------------------------------------------------------------M P C E CLASS

LOCATION OF LAST RESIDENCE

PER 1000

NO. OF

MIGRANTS

________________________________________________________________________DISTRI- MIGRANTS

--------------------

SAME DISTRICT

ESTD.(00)

OTHER DISTRICT

OTHER STATE

OTHER

OF SAME STATE

N.R.

ALL

COUN-

--------------- --------------- --------------- TRIES


RURAL

URBAN

RURAL

URBAN

RURAL

BUTION

PER 1000

OF

PERSONS

SAMPLE

MIGRANTS

URBAN

-----------------------------------------------------------------------------------------------------------------------------------(1)

(2)

(3)

(4)

(5)

(6)

(7)

(8)

(9)

(10)

(11)

(12)

(13)

(14)

-----------------------------------------------------------------------------------------------------------------------------------LESS THAN 90

318

113

232

202

86

43

1000

178

1003

197

90

110

454

69

50

353

34

40

1000

136

663

109

110

135

591

119

69

94

37

85

1000

23

153

2486

335

135

160

449

118

178

133

67

51

1000

27

164

2921

460

160

185

374

207

237

74

64

45

1000

40

164

4441

641

185

215

481

177

165

92

38

44

1000

98

179

10727

1471

215

255

381

176

143

142

98

59

1000

95

192

10443

1608

255

310

331

210

160

142

93

61

1000

129

194

14127

2152

310

385

292

162

162

205

120

55

1000

116

186

12675

1767

385

520

226

157

176

204

107

127

1000

215

235

23571

3782

520

700

146

125

179

299

113

132

1000

115

264

12636

1617

700

& ABOVE

93

87

141

260

128

285

1000

128

317

14010

1736

N.R.

-----------------------------------------------------------------------------------------------------------------------------------ALL CLASSES

283

155

164

188

97

109

1000

1000

211

109702

15875

-----------------------------------------------------------------------------------------------------------------------------------ESTD. MIGRANTS(00)

31054

16984

17975

20676

10680

11927

300

105

109702

-----------------------------------------------------------------------------------------------------------------------------------SAMPLE MIGRANTS

4538

2363

2571

2956

1591

1761

69

26

15875

------------------------------------------------------------------------------------------------------------------------------------

Source : National Sample Survey Organisation,49th Round,Schedule 1.2

A - 92

TABLE-16

PER THOUSAND DISTRIBUTION OF MIGRANTS BY LOCATION OF LAST RESIDENCE FOR EACH HOUSEHOLD M P C E CLASS

ALL-INDIA

MALE

5 TO 9 YEARS

SECTOR :

URBAN

-----------------------------------------------------------------------------------------------------------------------------------M P C E CLASS

LOCATION OF LAST RESIDENCE

PER 1000

NO. OF

MIGRANTS

________________________________________________________________________DISTRI- MIGRANTS

--------------------

SAME DISTRICT

ESTD.(00)

OTHER DISTRICT

OTHER STATE

OTHER

OF SAME STATE

N.R.

ALL

COUN-

--------------- --------------- --------------- TRIES


RURAL

URBAN

RURAL

URBAN

RURAL

BUTION

PER 1000

OF

PERSONS

SAMPLE

MIGRANTS

URBAN

-----------------------------------------------------------------------------------------------------------------------------------(1)

(2)

(3)

(4)

(5)

(6)

(7)

(8)

(9)

(10)

(11)

(12)

(13)

(14)

-----------------------------------------------------------------------------------------------------------------------------------LESS THAN 90

504

128

178

35

71

84

1000

16

154

772

77

90

110

235

285

18

321

116

26

1000

182

113

24

110

135

306

319

132

153

57

33

1000

15

174

724

72

135

160

468

93

169

140

115

14

1000

24

165

1159

141

160

185

387

188

203

91

97

24

10

1000

37

174

1759

189

185

215

427

157

193

89

76

25

34

1000

73

194

3468

424

215

255

322

145

230

76

180

21

27

1000

85

197

4057

466

255

310

337

134

172

125

147

74

12

1000

134

203

6412

635

310

385

157

118

257

171

223

51

20

1000

88

198

4187

504

385

520

194

137

216

141

224

81

1000

266

231

12679

1247

520

700

700

& ABOVE
N.R.

141

156

150

187

211

146

1000

112

278

5345

526

126

94

83

255

151

255

38

1000

147

296

6999

634

-----------------------------------------------------------------------------------------------------------------------------------ALL CLASSES

243

136

182

151

174

96

18

1000

1000

221

47677

4939

-----------------------------------------------------------------------------------------------------------------------------------ESTD. MIGRANTS(00)

11569

6503

8691

7208

8301

4557

838

10

47677

-----------------------------------------------------------------------------------------------------------------------------------SAMPLE MIGRANTS

1344

547

918

696

861

498

72

4939

------------------------------------------------------------------------------------------------------------------------------------

Source : National Sample Survey Organisation,49th Round,Schedule 1.2

A - 93

TABLE-16

PER THOUSAND DISTRIBUTION OF MIGRANTS BY LOCATION OF LAST RESIDENCE FOR EACH HOUSEHOLD M P C E CLASS

ALL-INDIA

FEMALE

5 TO 9 YEARS

SECTOR :

URBAN

-----------------------------------------------------------------------------------------------------------------------------------M P C E CLASS

LOCATION OF LAST RESIDENCE

PER 1000

NO. OF

MIGRANTS

________________________________________________________________________DISTRI- MIGRANTS

--------------------

SAME DISTRICT

ESTD.(00)

OTHER DISTRICT

OTHER STATE

OTHER

OF SAME STATE

N.R.

ALL

COUN-

--------------- --------------- --------------- TRIES


RURAL

URBAN

RURAL

URBAN

RURAL

BUTION

PER 1000

OF

PERSONS

SAMPLE

MIGRANTS

URBAN

-----------------------------------------------------------------------------------------------------------------------------------(1)

(2)

(3)

(4)

(5)

(6)

(7)

(8)

(9)

(10)

(11)

(12)

(13)

(14)

-----------------------------------------------------------------------------------------------------------------------------------LESS THAN 90

311

219

194

69

138

69

1000

17

144

1097

90

110

425

184

137

188

46

20

1000

116

573

73

110

135

602

173

94

66

21

34

10

1000

37

143

2384

163

135

160

376

184

175

172

63

16

1000

38

136

2469

275

160

185

478

154

177

60

95

31

1000

55

164

3508

339

185

215

482

134

174

87

67

35

20

1000

117

160

7509

767

215

255

407

152

224

103

92

16

1000

108

168

6924

730

255

310

393

162

163

151

61

68

1000

139

175

8935

914

310

385

272

115

208

176

163

61

1000

103

168

6619

765

385

520

214

163

177

190

162

91

1000

217

196

13912

1376

520

700

700

& ABOVE
N.R.

112

153

189

164

264

81

140

10

1000

77

210

4928

481

143

80

98

289

66

307

16

1000

84

242

5384

518

-----------------------------------------------------------------------------------------------------------------------------------ALL CLASSES

325

150

172

161

101

83

1000

1000

176

64241

6513

-----------------------------------------------------------------------------------------------------------------------------------ESTD. MIGRANTS(00)

20879

9654

11056

10351

6501

5312

415

74

64241

-----------------------------------------------------------------------------------------------------------------------------------SAMPLE MIGRANTS

2174

917

1143

970

731

536

34

6513

------------------------------------------------------------------------------------------------------------------------------------

Source : National Sample Survey Organisation,49th Round,Schedule 1.2

A - 94

TABLE-16

PER THOUSAND DISTRIBUTION OF MIGRANTS BY LOCATION OF LAST RESIDENCE FOR EACH HOUSEHOLD M P C E CLASS

ALL-INDIA

PERSONS

5 TO 9 YEARS

SECTOR :

URBAN

-----------------------------------------------------------------------------------------------------------------------------------M P C E CLASS

LOCATION OF LAST RESIDENCE

PER 1000

NO. OF

MIGRANTS

________________________________________________________________________DISTRI- MIGRANTS

--------------------

SAME DISTRICT

ESTD.(00)

OTHER DISTRICT

OTHER STATE

OTHER

OF SAME STATE

N.R.

ALL

COUN-

--------------- --------------- --------------- TRIES


RURAL

URBAN

RURAL

URBAN

RURAL

BUTION

PER 1000

OF

PERSONS

SAMPLE

MIGRANTS

URBAN

-----------------------------------------------------------------------------------------------------------------------------------(1)

(2)

(3)

(4)

(5)

(6)

(7)

(8)

(9)

(10)

(11)

(12)

(13)

(14)

-----------------------------------------------------------------------------------------------------------------------------------LESS THAN 90

391

181

187

55

110

75

1000

17

148

1868

90

110

394

200

117

210

58

21

1000

124

687

97

110

135

533

207

103

86

29

26

15

1000

28

150

3109

235

135

160

405

155

173

162

79

11

11

1000

32

144

3628

416

160

185

448

165

185

70

96

28

1000

47

167

5267

528

185

215

465

141

180

88

70

32

25

1000

98

169

10978

1191

215

255

376

149

226

93

125

17

13

1000

98

178

10982

1196

255

310

370

150

167

140

97

70

1000

137

185

15347

1549

310

385

228

116

227

174

186

58

1000

97

178

10806

1269

385

520

204

151

196

167

192

86

1000

238

211

26591

2623

520

700

700

& ABOVE
N.R.

189

147

171

156

224

149

143

10

1000

92

241

10273

1007

134

88

89

269

114

277

28

1000

111

270

12384

1152

-----------------------------------------------------------------------------------------------------------------------------------ALL CLASSES

290

144

176

157

132

88

11

1000

1000

193

111918

11452

-----------------------------------------------------------------------------------------------------------------------------------ESTD. MIGRANTS(00)

32448

16157

19747

17559

14802

9869

1253

84

111918

-----------------------------------------------------------------------------------------------------------------------------------SAMPLE MIGRANTS

3518

1464

2061

1666

1592

1034

106

11

11452

------------------------------------------------------------------------------------------------------------------------------------

Source : National Sample Survey Organisation,49th Round,Schedule 1.2

A - 95

TABLE-16

PER THOUSAND DISTRIBUTION OF MIGRANTS BY LOCATION OF LAST RESIDENCE FOR EACH HOUSEHOLD M P C E CLASS

ALL-INDIA

MALE

10 YEARS & ABOVE

SECTOR :

URBAN

-----------------------------------------------------------------------------------------------------------------------------------M P C E CLASS

LOCATION OF LAST RESIDENCE

PER 1000

NO. OF

MIGRANTS

________________________________________________________________________DISTRI- MIGRANTS

--------------------

SAME DISTRICT

ESTD.(00)

OTHER DISTRICT

OTHER STATE

OTHER

OF SAME STATE

N.R.

ALL

COUN-

--------------- --------------- --------------- TRIES


RURAL

URBAN

RURAL

URBAN

RURAL

BUTION

PER 1000

OF

PERSONS

SAMPLE

MIGRANTS

URBAN

-----------------------------------------------------------------------------------------------------------------------------------(1)

(2)

(3)

(4)

(5)

(6)

(7)

(8)

(9)

(10)

(11)

(12)

(13)

(14)

-----------------------------------------------------------------------------------------------------------------------------------LESS THAN 90

379

30

219

56

233

69

14

1000

13

162

1485

90

110

558

60

145

66

102

70

1000

156

654

81

110

135

435

60

190

76

191

14

33

1000

12

145

1288

184

135

160

339

161

212

74

125

63

26

1000

23

155

2585

288

160

185

341

40

317

54

171

36

41

1000

37

161

4167

444

185

215

327

98

215

94

146

87

33

1000

95

155

10551

1055

215

255

283

66

261

80

220

59

27

1000

94

174

10484

1117

255

310

250

72

280

100

219

49

30

1000

122

183

13667

1462

310

385

220

74

257

88

262

69

24

1000

126

177

14114

1469

385

520

162

75

234

141

269

93

25

1000

254

211

28402

2804

520

700

130

56

176

186

264

157

26

1000

95

227

10653

1139

700

& ABOVE

93

55

148

216

188

270

29

1000

122

256

13572

1393

N.R.

120

-----------------------------------------------------------------------------------------------------------------------------------ALL CLASSES

215

72

229

125

226

104

27

1000

1000

192

111622

11556

-----------------------------------------------------------------------------------------------------------------------------------ESTD. MIGRANTS(00)

23972

7984

25528

13967

25236

11633

3060

242

111622

-----------------------------------------------------------------------------------------------------------------------------------SAMPLE MIGRANTS

2561

829

2562

1420

2652

1157

351

24

11556

------------------------------------------------------------------------------------------------------------------------------------

Source : National Sample Survey Organisation,49th Round,Schedule 1.2

A - 96

TABLE-16

PER THOUSAND DISTRIBUTION OF MIGRANTS BY LOCATION OF LAST RESIDENCE FOR EACH HOUSEHOLD M P C E CLASS

ALL-INDIA

FEMALE

10 YEARS & ABOVE

SECTOR :

URBAN

-----------------------------------------------------------------------------------------------------------------------------------M P C E CLASS

LOCATION OF LAST RESIDENCE

PER 1000

NO. OF

MIGRANTS

________________________________________________________________________DISTRI- MIGRANTS

--------------------

SAME DISTRICT

ESTD.(00)

OTHER DISTRICT

OTHER STATE

OTHER

OF SAME STATE

N.R.

ALL

COUN-

--------------- --------------- --------------- TRIES


RURAL

URBAN

RURAL

URBAN

RURAL

BUTION

PER 1000

OF

PERSONS

SAMPLE

MIGRANTS

URBAN

-----------------------------------------------------------------------------------------------------------------------------------(1)

(2)

(3)

(4)

(5)

(6)

(7)

(8)

(9)

(10)

(11)

(12)

(13)

(14)

-----------------------------------------------------------------------------------------------------------------------------------LESS THAN 90

388

115

251

82

125

34

1000

15

153

2753

260

90

110

516

141

166

67

82

23

1000

13

130

2479

253

110

135

568

154

141

60

57

20

1000

28

138

5384

487

135

160

530

144

170

78

52

16

1000

44

152

8316

773

160

185

473

97

217

93

75

28

16

1000

50

147

9511

955

185

215

465

135

193

78

75

41

1000

138

158

26179

2420

215

255

437

127

218

97

78

29

12

1000

117

159

22208

2208

255

310

394

121

227

115

91

36

16

1000

141

167

26654

2686

310

385

318

124

222

104

142

72

17

1000

109

167

20600

2193

385

520

254

125

205

176

129

94

15

1000

195

198

36935

3697

520

700

174

111

162

250

135

143

25

1000

69

197

13047

1380

700

& ABOVE

144

86

117

297

104

226

25

1000

79

235

14954

1540

N.R.

-----------------------------------------------------------------------------------------------------------------------------------ALL CLASSES

355

122

197

137

101

72

15

1000

1000

172

189022

18852

-----------------------------------------------------------------------------------------------------------------------------------ESTD. MIGRANTS(00)

67028

23125

37246

25840

19149

13554

2807

274

189022

-----------------------------------------------------------------------------------------------------------------------------------SAMPLE MIGRANTS

6753

2344

3576

2406

2050

1388

305

30

18852

------------------------------------------------------------------------------------------------------------------------------------

Source : National Sample Survey Organisation,49th Round,Schedule 1.2

A - 97

TABLE-16

PER THOUSAND DISTRIBUTION OF MIGRANTS BY LOCATION OF LAST RESIDENCE FOR EACH HOUSEHOLD M P C E CLASS

ALL-INDIA

PERSONS

10 YEARS & ABOVE

SECTOR :

URBAN

-----------------------------------------------------------------------------------------------------------------------------------M P C E CLASS

LOCATION OF LAST RESIDENCE

PER 1000

NO. OF

MIGRANTS

________________________________________________________________________DISTRI- MIGRANTS

--------------------

SAME DISTRICT

ESTD.(00)

OTHER DISTRICT

OTHER STATE

OTHER

OF SAME STATE

N.R.

ALL

COUN-

--------------- --------------- --------------- TRIES


RURAL

URBAN

RURAL

URBAN

RURAL

BUTION

PER 1000

OF

PERSONS

SAMPLE

MIGRANTS

URBAN

-----------------------------------------------------------------------------------------------------------------------------------(1)

(2)

(3)

(4)

(5)

(6)

(7)

(8)

(9)

(10)

(11)

(12)

(13)

(14)

-----------------------------------------------------------------------------------------------------------------------------------LESS THAN 90

385

85

240

73

163

46

1000

14

156

4239

90

110

524

124

162

67

86

33

1000

10

135

3134

334

110

135

543

136

151

63

83

18

1000

22

139

6672

671

135

160

484

148

180

77

70

27

12

1000

36

153

10901

1061

160

185

433

79

248

81

105

30

24

1000

45

151

13678

1399

185

215

426

125

199

82

96

54

15

1000

122

157

36730

3475

215

255

388

108

232

91

123

39

17

1000

109

164

32692

3325

255

310

345

105

245

110

134

40

21

1000

134

172

40321

4148

310

385

278

104

236

98

191

71

20

1000

115

171

34715

3662

385

520

214

104

218

161

190

94

20

1000

217

203

65337

6501

520

700

155

86

168

221

193

150

26

1000

79

209

23700

2519

700

& ABOVE

120

71

132

258

144

247

27

1000

95

245

28526

2933

N.R.

380

-----------------------------------------------------------------------------------------------------------------------------------ALL CLASSES

303

103

209

132

148

84

20

1000

1000

179

300644

30408

-----------------------------------------------------------------------------------------------------------------------------------ESTD. MIGRANTS(00)

91000

31109

62774

39807

44384

25186

5867

516

300644

-----------------------------------------------------------------------------------------------------------------------------------SAMPLE MIGRANTS

9314

3173

6138

3826

4702

2545

656

54

30408

------------------------------------------------------------------------------------------------------------------------------------

Source : National Sample Survey Organisation,49th Round,Schedule 1.2

A - 98

TABLE-17

: PER THOUSAND DISTRIBUTION OF MIGRANTS BY REASON

FOR LEAVING LAST USUAL PLACE

OF RESIDENCE(UPR) FOR EACH LOCATION OF LAST RESIDENCE

ALL-INDIA

MALE

UPTO 1 YEARS

SECTOR : RURAL

-----------------------------------------------------------------------------------------------------------------------------------REASON
LOCATION OF

FOR

LEAVING

LAST

UPR

(CODES)

PER

1000

NO. OF

---------------------------------------------------------------------- DISTRIBU-

LAST RESIDENCE

10

11

12

19

ALL TION OF
MIGRANTS

MIGRANTS

MIGRANTS-------------------PER 1000

ESTD.

PERSONS

(00)

SAMPLE

-----------------------------------------------------------------------------------------------------------------------------------(1)

(2)

(3)

(4)

(5)

(6)

(7)

(8)

(9) (10) (11) (12) (13) (14) (15)

(16)

(17)

(18)

(19)

-----------------------------------------------------------------------------------------------------------------------------------SAME DISTRICT

RURAL

60

150

56

88

24

83

46

32

38

54

326

42 1000

369

13399

1971

URBAN

38

106

28

170

43

21

45

96

11

12

319

107 1000

93

3362

477

OTHER DISTRICT

RURAL

77

144

114

131

35

34

30

11

352

58 1000

128

4636

600

OF SAME STATE

URBAN

13

16

598

33

11

30

238

44 1000

258

9369

377

OTHER STATE

RURAL

104

274

174

34

15

288

89 1000

66

2413

318

URBAN

76

227

24

57

14

25

75

166

323 1000

75

2733

355

16

59

64

229

628 1000

11

406

36

OTHER COUNTRIES

-----------------------------------------------------------------------------------------------------------------------------------ALL

52

123

205

81

16

41

26

26

34

23

288

81 1000

1000

36316

4134

-----------------------------------------------------------------------------------------------------------------------------------ESTIMATED MIGRANTS(00)

1879

7457
4472

578
2931

936
1495

1248
933

840
154

2948

10446

36316

-----------------------------------------------------------------------------------------------------------------------------------SAMPLE MIGRANTS

251

343
681

69
416

66
281

128

93

120

26

384
1276

4134

------------------------------------------------------------------------------------------------------------------------------------

TABLE-17

: PER THOUSAND DISTRIBUTION OF MIGRANTS BY REASON

FOR LEAVING LAST USUAL PLACE

OF RESIDENCE(UPR) FOR EACH LOCATION OF LAST RESIDENCE

ALL-INDIA

MALE

1 TO 4 YEARS

SECTOR : RURAL

-----------------------------------------------------------------------------------------------------------------------------------REASON
LOCATION OF

FOR

LEAVING

LAST

UPR

(CODES)

PER

1000

NO. OF

---------------------------------------------------------------------- DISTRIBU-

LAST RESIDENCE

10

11

12

19

ALL TION OF
MIGRANTS

MIGRANTS

MIGRANTS-------------------PER 1000

ESTD.

PERSONS

(00)

SAMPLE

-----------------------------------------------------------------------------------------------------------------------------------(1)

(2)

(3)

(4)

(5)

(6)

(7)

(8)

(9) (10) (11) (12) (13) (14) (15)

(16)

(17)

(18)

(19)

-----------------------------------------------------------------------------------------------------------------------------------SAME DISTRICT

RURAL

70

118

51

69

12

108

32

45

51

87

280

74 1000

512

21090

2785

URBAN

46

65

36

160

35

41

137

67

20

320

63 1000

98

4023

652

OTHER DISTRICT

RURAL

91

152

70

74

179

13

31

43

230

106 1000

200

8229

819

OF SAME STATE

URBAN

38

245

32

154

92

14

10

35

260

109 1000

79

3248

370

OTHER STATE

RURAL

172

259

125

15

41

26

41

234

71 1000

38

1545

367

URBAN

47

330

67

101

64

19

16

193

147 1000

64

2626

307

55

102

55

67

103

12

165

156

283 1000

11

437

48

OTHER COUNTRIES

-----------------------------------------------------------------------------------------------------------------------------------ALL

71

148

56

86

10

108

34

35

36

57

264

89 1000

1000

41197

5348

-----------------------------------------------------------------------------------------------------------------------------------ESTIMATED MIGRANTS(00)

2929

2305
6089

423
3528

1388
4458

1467
1457

2353
270

3669

10861

41197

-----------------------------------------------------------------------------------------------------------------------------------SAMPLE MIGRANTS

355

418
862

52
538

105
475

141
156

191
33

378
1644

5348

------------------------------------------------------------------------------------------------------------------------------------

Source : National Sample Survey Organisation,49th Round,Schedule 1.2

A - 99

TABLE-17

: PER THOUSAND DISTRIBUTION OF MIGRANTS BY REASON

FOR LEAVING LAST USUAL PLACE

OF RESIDENCE(UPR) FOR EACH LOCATION OF LAST RESIDENCE

ALL-INDIA

MALE

5 TO 9 YEARS

SECTOR : RURAL

-----------------------------------------------------------------------------------------------------------------------------------REASON
LOCATION OF

FOR

LEAVING

LAST

UPR

(CODES)

PER

1000

NO. OF

---------------------------------------------------------------------- DISTRIBU-

LAST RESIDENCE

10

11

12

19

ALL TION OF
MIGRANTS

MIGRANTS

MIGRANTS-------------------PER 1000

ESTD.

PERSONS

(00)

SAMPLE

-----------------------------------------------------------------------------------------------------------------------------------(1)

(2)

(3)

(4)

(5)

(6)

(7)

(8)

(9) (10) (11) (12) (13) (14) (15)

(16)

(17)

(18)

(19)

-----------------------------------------------------------------------------------------------------------------------------------SAME DISTRICT

RURAL

24

156

45

63

20

23

45

39

18

122

362

80 1000

550

21295

1762

URBAN

19

88

60

91

25

112

88

35

375

96 1000

87

3372

270

OTHER DISTRICT

RURAL

108

169

34

141

45

14

14

17

107

283

66 1000

157

6102

482

OF SAME STATE

URBAN

33

120

60

52

17

34

105

12

60

12

35

291

169 1000

68

2621

191

OTHER STATE

RURAL

113

151

77

24

19

20

272

307 1000

71

2744

250

URBAN

51

299

94

36

44

154

42

60

213 1000

45

1749

140

65

10

452

11

429

25 1000

22

862

46

OTHER COUNTRIES

-----------------------------------------------------------------------------------------------------------------------------------ALL

44

154

45

73

14

24

45

34

35

91

328

106 1000

1000

38745

3141

-----------------------------------------------------------------------------------------------------------------------------------ESTIMATED MIGRANTS(00)

1715

1755
5963

559
2829

1753
931

1374
1324

3528
222

4101

12690

38745

-----------------------------------------------------------------------------------------------------------------------------------SAMPLE MIGRANTS

184

174
597

43
246

98

93

103

209

79

23

247
1045

3141

------------------------------------------------------------------------------------------------------------------------------------

TABLE-17

: PER THOUSAND DISTRIBUTION OF MIGRANTS BY REASON

FOR LEAVING LAST USUAL PLACE

OF RESIDENCE(UPR) FOR EACH LOCATION OF LAST RESIDENCE

ALL-INDIA

MALE

10 YEARS & ABOVE

SECTOR : RURAL

-----------------------------------------------------------------------------------------------------------------------------------REASON
LOCATION OF

FOR

LEAVING

LAST

UPR

(CODES)

PER

1000

NO. OF

---------------------------------------------------------------------- DISTRIBU-

LAST RESIDENCE

10

11

12

19

ALL TION OF
MIGRANTS

MIGRANTS

MIGRANTS-------------------PER 1000

ESTD.

PERSONS

(00)

SAMPLE

-----------------------------------------------------------------------------------------------------------------------------------(1)

(2)

(3)

(4)

(5)

(6)

(7)

(8)

(9) (10) (11) (12) (13) (14) (15)

(16)

(17)

(18)

(19)

-----------------------------------------------------------------------------------------------------------------------------------SAME DISTRICT

RURAL

44

149

46

25

25

32

41

40

235

258

97 1000

520

40748

3153

URBAN

101

63

82

33

63

46

15

63

419

103 1000

57

4435

341

OTHER DISTRICT

RURAL

80

244

59

32

43

27

25

11

120

296

52 1000

170

13329

959

OF SAME STATE

URBAN

40

182

53

109

17

11

27

46

54

32

235

191 1000

47

3682

289

OTHER STATE

RURAL

127

254

54

14

32

125

306

81 1000

80

6283

599

URBAN

59

398

85

21

42

19

55

16

113

184 1000

60

4741

296

19

529

386

39 1000

66

5153

379

OTHER COUNTRIES

-----------------------------------------------------------------------------------------------------------------------------------ALL

53

179

50

30

18

29

32

69

158

276

94 1000

1000

13

78371

6016

-----------------------------------------------------------------------------------------------------------------------------------ESTIMATED MIGRANTS(00)

4141

3901

13999

1376
2356

2273
526

5397
2471

12379
507

7391

21653

78371

-----------------------------------------------------------------------------------------------------------------------------------SAMPLE MIGRANTS

404

338
1190

95
286

164
53

343
156

766
30

568
1623

6016

------------------------------------------------------------------------------------------------------------------------------------

Source : National Sample Survey Organisation,49th Round,Schedule 1.2

A - 100

TABLE-17

: PER THOUSAND DISTRIBUTION OF MIGRANTS BY REASON

FOR LEAVING LAST USUAL PLACE

OF RESIDENCE(UPR) FOR EACH LOCATION OF LAST RESIDENCE

ALL-INDIA

FEMALE

UPTO 1 YEARS

SECTOR : RURAL

-----------------------------------------------------------------------------------------------------------------------------------REASON
LOCATION OF

FOR

LEAVING

LAST

UPR

(CODES)

PER

1000

NO. OF

---------------------------------------------------------------------- DISTRIBU-

LAST RESIDENCE

10

11

12

19

ALL TION OF
MIGRANTS

MIGRANTS

MIGRANTS-------------------PER 1000

ESTD.

PERSONS

(00)

SAMPLE

-----------------------------------------------------------------------------------------------------------------------------------(1)

(2)

(3)

(4)

(5)

(6)

(7)

(8)

(9) (10) (11) (12) (13) (14) (15)

(16)

(17)

(18)

(19)

-----------------------------------------------------------------------------------------------------------------------------------SAME DISTRICT

RURAL

10

13

13

740

176

19 1000

606

44381

3772

URBAN

29

11

24

40

377

450

47 1000

61

4435

458

OTHER DISTRICT

RURAL

11

14

19

13

21

678

208

28 1000

147

10773

911

OF SAME STATE

URBAN

417

35

124

387

23 1000

111

8156

372

OTHER STATE

RURAL

18

24

14

16

14

499

379

23 1000

50

3631

327

URBAN

22

73

21

65

285

396

122 1000

23

1692

173

12

137

734

113 1000

156

13

OTHER COUNTRIES

-----------------------------------------------------------------------------------------------------------------------------------ALL

13

51

13

11

10

616

237

25 1000

1000

12

73223

6026

-----------------------------------------------------------------------------------------------------------------------------------ESTIMATED MIGRANTS(00)

352

3715
930

75
952

663
806

724
453

45140
184

1844

17386

73223

-----------------------------------------------------------------------------------------------------------------------------------SAMPLE MIGRANTS

69

85
146

19
119

41

87

153

2955

63

228
2054

6026

------------------------------------------------------------------------------------------------------------------------------------

TABLE-17

: PER THOUSAND DISTRIBUTION OF MIGRANTS BY REASON

FOR LEAVING LAST USUAL PLACE

OF RESIDENCE(UPR) FOR EACH LOCATION OF LAST RESIDENCE

ALL-INDIA

FEMALE

1 TO 4 YEARS

SECTOR : RURAL

-----------------------------------------------------------------------------------------------------------------------------------REASON
LOCATION OF

FOR

LEAVING

LAST

UPR

(CODES)

PER

1000

NO. OF

---------------------------------------------------------------------- DISTRIBU-

LAST RESIDENCE

10

11

12

19

ALL TION OF
MIGRANTS

MIGRANTS

MIGRANTS-------------------PER 1000

ESTD.

PERSONS

(00)

SAMPLE

-----------------------------------------------------------------------------------------------------------------------------------(1)

(2)

(3)

(4)

(5)

(6)

(7)

(8)

(9) (10) (11) (12) (13) (14) (15)

(16)

(17)

(18)

(19)

-----------------------------------------------------------------------------------------------------------------------------------SAME DISTRICT

RURAL

11

14

827

101

23 1000

712

18

104190

URBAN

16

26

16

551

320

51 1000

43

6284

640

OTHER DISTRICT

RURAL

11

20

735

131

74 1000

168

24578

1746

OF SAME STATE

URBAN

15

57

10

13

468

385

40 1000

32

4653

357

OTHER STATE

RURAL

27

19

808

114

8 1000

34

4979

476

URBAN

62

16

20

30

32

12

285

458

84 1000

1377

184

92

754

119

24 1000

338

28

OTHER COUNTRIES

7576

-----------------------------------------------------------------------------------------------------------------------------------ALL

11

14

782

129

34 1000

1000

25

146398

11007

-----------------------------------------------------------------------------------------------------------------------------------ESTIMATED MIGRANTS(00)

519

635
971

155
970

436
1620

2086
662

114504
114

4906

18821

146398

-----------------------------------------------------------------------------------------------------------------------------------SAMPLE MIGRANTS

114

93
202

10
116

55
244

151
86

7004
13

326
2593

11007

------------------------------------------------------------------------------------------------------------------------------------

Source : National Sample Survey Organisation,49th Round,Schedule 1.2

A - 101

TABLE-17

: PER THOUSAND DISTRIBUTION OF MIGRANTS BY REASON

FOR LEAVING LAST USUAL PLACE

OF RESIDENCE(UPR) FOR EACH LOCATION OF LAST RESIDENCE

ALL-INDIA

FEMALE

5 TO 9 YEARS

SECTOR : RURAL

-----------------------------------------------------------------------------------------------------------------------------------REASON
LOCATION OF

FOR

LEAVING

LAST

UPR

(CODES)

PER

1000

NO. OF

---------------------------------------------------------------------- DISTRIBU-

LAST RESIDENCE

10

11

12

19

ALL TION OF
MIGRANTS

MIGRANTS

MIGRANTS-------------------PER 1000

ESTD.

PERSONS

(00)

SAMPLE

-----------------------------------------------------------------------------------------------------------------------------------(1)

(2)

(3)

(4)

(5)

(6)

(7)

(8)

(9) (10) (11) (12) (13) (14) (15)

(16)

(17)

(18)

(19)

-----------------------------------------------------------------------------------------------------------------------------------SAME DISTRICT

RURAL

857

92

15 1000

726

22

128823

URBAN

16

21

44

578

266

42 1000

42

7481

444

OTHER DISTRICT

RURAL

10

840

108

14 1000

160

28334

1618

OF SAME STATE

URBAN

17

11

19

604

267

72 1000

24

4273

241

OTHER STATE

RURAL

16

12

24

755

169

21 1000

38

6766

485

URBAN

12

28

10

669

244

27 1000

1021

97

18

187

759

37 1000

785

34

OTHER COUNTRIES

7943

-----------------------------------------------------------------------------------------------------------------------------------ALL

829

113

18 1000

1000

30

177484

10862

-----------------------------------------------------------------------------------------------------------------------------------ESTIMATED MIGRANTS(00)

545

398
1454

203
795

568

1567

902

147098

621

64

3197

20071

177484

-----------------------------------------------------------------------------------------------------------------------------------SAMPLE MIGRANTS

40

34

19

114

43

64

98

65

8527

52

10

233
1563

10862

------------------------------------------------------------------------------------------------------------------------------------

TABLE-17

: PER THOUSAND DISTRIBUTION OF MIGRANTS BY REASON

FOR LEAVING LAST USUAL PLACE

OF RESIDENCE(UPR) FOR EACH LOCATION OF LAST RESIDENCE

ALL-INDIA

FEMALE

10 YEARS & ABOVE

SECTOR : RURAL

-----------------------------------------------------------------------------------------------------------------------------------REASON
LOCATION OF

FOR

LEAVING

LAST

UPR

(CODES)

PER

1000

NO. OF

---------------------------------------------------------------------- DISTRIBU-

LAST RESIDENCE

10

11

12

19

ALL TION OF
MIGRANTS

MIGRANTS

MIGRANTS-------------------PER 1000

ESTD.

PERSONS

(00)

SAMPLE

-----------------------------------------------------------------------------------------------------------------------------------(1)

(2)

(3)

(4)

(5)

(6)

(7)

(8)

(9) (10) (11) (12) (13) (14) (15)

(16)

(17)

(18)

(19)

-----------------------------------------------------------------------------------------------------------------------------------SAME DISTRICT

RURAL

952

27

8 1000

763

96

565117

33601

URBAN

10

842

113

15 1000

28

20730

1250

OTHER DISTRICT

RURAL

934

45

4 1000

151

19

112242

6467

OF SAME STATE

URBAN

765

181

31 1000

14

10252

594

OTHER STATE

RURAL

17

853

93

13 1000

33

24594

1673

URBAN

14

19

39

770

138

9 1000

4152

246

12

199

212

550

24 1000

3854

278

OTHER COUNTRIES

-----------------------------------------------------------------------------------------------------------------------------------ALL

935

40

8 1000

1000

126

740942

44109

-----------------------------------------------------------------------------------------------------------------------------------ESTIMATED MIGRANTS(00)

812

707
2876

196
1787

581
89

3379
1479

693067
289

5972

29708

740942

-----------------------------------------------------------------------------------------------------------------------------------SAMPLE MIGRANTS

81

56
214

17
103

55
23

236
81

40391
15

402
2435

44109

------------------------------------------------------------------------------------------------------------------------------------

Source : National Sample Survey Organisation,49th Round,Schedule 1.2

A - 102

TABLE-17

: PER THOUSAND DISTRIBUTION OF MIGRANTS BY REASON

FOR LEAVING LAST USUAL PLACE

OF RESIDENCE(UPR) FOR EACH LOCATION OF LAST RESIDENCE

ALL-INDIA

PERSONS

UPTO 1 YEARS

SECTOR : RURAL

-----------------------------------------------------------------------------------------------------------------------------------REASON
LOCATION OF

FOR

LEAVING

LAST

UPR

(CODES)

PER

1000

NO. OF

---------------------------------------------------------------------- DISTRIBU-

LAST RESIDENCE

10

11

12

19

ALL TION OF
MIGRANTS

MIGRANTS

MIGRANTS-------------------PER 1000

ESTD.

PERSONS

(00)

SAMPLE

-----------------------------------------------------------------------------------------------------------------------------------(1)

(2)

(3)

(4)

(5)

(6)

(7)

(8)

(9) (10) (11) (12) (13) (14) (15)

(16)

(17)

(18)

(19)

-----------------------------------------------------------------------------------------------------------------------------------SAME DISTRICT

RURAL

18

43

15

26

29

16

10

19

581

211

24 1000

527

10

57780

URBAN

17

62

16

79

22

13

33

64

220

394

73 1000

71

7796

935

OTHER DISTRICT

RURAL

24

51

44

53

20

25

14

476

251

37 1000

141

15408

1511

OF SAME STATE

URBAN

10

514

34

17

58

308

34 1000

160

17524

749

OTHER STATE

RURAL

52

124

71

22

10

306

343

49 1000

55

6045

645

URBAN

56

168

16

38

17

40

48

110

254

246 1000

40

4424

528

12

42

47

165

38

204

485 1000

561

49

OTHER COUNTRIES

5743

-----------------------------------------------------------------------------------------------------------------------------------ALL

20

49

102

35

21

15

13

18

420

254

44 1000

1000

19

109539

10160

-----------------------------------------------------------------------------------------------------------------------------------ESTIMATED MIGRANTS(00)

2231

11172
5402

653
3882

1599
2301

1972
1386

45980
338

4792

27832

109539

-----------------------------------------------------------------------------------------------------------------------------------SAMPLE MIGRANTS

320

428
827

88
535

107
434

215

3048

183

33

612
3330

10160

------------------------------------------------------------------------------------------------------------------------------------

TABLE-17

: PER THOUSAND DISTRIBUTION OF MIGRANTS BY REASON

FOR LEAVING LAST USUAL PLACE

OF RESIDENCE(UPR) FOR EACH LOCATION OF LAST RESIDENCE

ALL-INDIA

PERSONS

1 TO 4 YEARS

SECTOR : RURAL

-----------------------------------------------------------------------------------------------------------------------------------REASON
LOCATION OF

FOR

LEAVING

LAST

UPR

(CODES)

PER

1000

NO. OF

---------------------------------------------------------------------- DISTRIBU-

LAST RESIDENCE

10

11

12

19

ALL TION OF
MIGRANTS

MIGRANTS

MIGRANTS-------------------PER 1000

ESTD.

PERSONS

(00)

SAMPLE

-----------------------------------------------------------------------------------------------------------------------------------(1)

(2)

(3)

(4)

(5)

(6)

(7)

(8)

(9) (10) (11) (12) (13) (14) (15)

(16)

(17)

(18)

(19)

-----------------------------------------------------------------------------------------------------------------------------------SAME DISTRICT

RURAL

14

24

10

17

28

11

21

702

131

32 1000

668

21

125280

URBAN

20

30

17

63

14

26

69

36

344

320

56 1000

55

10306

1292

OTHER DISTRICT

RURAL

24

47

22

25

51

23

561

156

82 1000

175

32806

2565

OF SAME STATE

URBAN

25

103

47

69

40

10

14

276

334

68 1000

42

7901

727

OTHER STATE

RURAL

62

64

31

24

10

626

142

23 1000

35

6524

843

URBAN

31

238

44

67

48

10

23

21

10

100

284

126 1000

21

4003

491

34

57

31

38

98

93

329

140

170 1000

775

76

OTHER COUNTRIES

10361

-----------------------------------------------------------------------------------------------------------------------------------ALL

18

38

16

24

32

10

11

19

623

158

46 1000

1000

32

187595

16355

-----------------------------------------------------------------------------------------------------------------------------------ESTIMATED MIGRANTS(00)

3448

2939
7059

578
4498

1824
6078

3553
2119

116858
384

8575

29682

187595

-----------------------------------------------------------------------------------------------------------------------------------SAMPLE MIGRANTS

469

511
1064

62
654

160
719

292
242

7195
46

704
4237

16355

------------------------------------------------------------------------------------------------------------------------------------

Source : National Sample Survey Organisation,49th Round,Schedule 1.2

A - 103

TABLE-17

: PER THOUSAND DISTRIBUTION OF MIGRANTS BY REASON

FOR LEAVING LAST USUAL PLACE

OF RESIDENCE(UPR) FOR EACH LOCATION OF LAST RESIDENCE

ALL-INDIA

PERSONS

5 TO 9 YEARS

SECTOR : RURAL

-----------------------------------------------------------------------------------------------------------------------------------REASON
LOCATION OF

FOR

LEAVING

LAST

UPR

(CODES)

PER

1000

NO. OF

---------------------------------------------------------------------- DISTRIBU-

LAST RESIDENCE

10

11

12

19

ALL TION OF
MIGRANTS

MIGRANTS

MIGRANTS-------------------PER 1000

ESTD.

PERSONS

(00)

SAMPLE

-----------------------------------------------------------------------------------------------------------------------------------(1)

(2)

(3)

(4)

(5)

(6)

(7)

(8)

(9) (10) (11) (12) (13) (14) (15)

(16)

(17)

(18)

(19)

-----------------------------------------------------------------------------------------------------------------------------------SAME DISTRICT

RURAL

30

11

753

131

25 1000

694

26

150118

URBAN

32

21

40

14

49

58

410

300

59 1000

50

10853

714

OTHER DISTRICT

RURAL

22

35

31

13

11

710

139

23 1000

159

34436

2100

OF SAME STATE

URBAN

12

46

33

21

13

42

11

35

388

276

109 1000

32

6893

432

OTHER STATE

RURAL

33

55

22

11

23

543

198

103 1000

44

9510

735

URBAN

34

193

59

33

28

101

28

247

128

144 1000

13

2771

237

34

245

89

586

30 1000

1647

80

OTHER COUNTRIES

9705

-----------------------------------------------------------------------------------------------------------------------------------ALL

10

34

10

17

11

14

697

152

34 1000

1000

37

216228

14003

-----------------------------------------------------------------------------------------------------------------------------------ESTIMATED MIGRANTS(00)

2260

2154
7418

763
3624

2320
1833

2941
1945

150626
286

7298

32761

216228

-----------------------------------------------------------------------------------------------------------------------------------SAMPLE MIGRANTS

224

208
711

62
310

141
168

191

8736

131

33

480
2608

14003

------------------------------------------------------------------------------------------------------------------------------------

TABLE-17

: PER THOUSAND DISTRIBUTION OF MIGRANTS BY REASON

FOR LEAVING LAST USUAL PLACE

OF RESIDENCE(UPR) FOR EACH LOCATION OF LAST RESIDENCE

ALL-INDIA

PERSONS

10 YEARS & ABOVE

SECTOR : RURAL

-----------------------------------------------------------------------------------------------------------------------------------REASON
LOCATION OF

FOR

LEAVING

LAST

UPR

(CODES)

PER

1000

NO. OF

---------------------------------------------------------------------- DISTRIBU-

LAST RESIDENCE

10

11

12

19

ALL TION OF
MIGRANTS

MIGRANTS

MIGRANTS-------------------PER 1000

ESTD.

PERSONS

(00)

SAMPLE

-----------------------------------------------------------------------------------------------------------------------------------(1)

(2)

(3)

(4)

(5)

(6)

(7)

(8)

(9) (10) (11) (12) (13) (14) (15)

(16)

(17)

(18)

(19)

-----------------------------------------------------------------------------------------------------------------------------------SAME DISTRICT

RURAL

13

904

43

14 1000

739

103

605866

URBAN

21

12

23

13

13

705

167

30 1000

31

25165

1591

OTHER DISTRICT

RURAL

10

31

848

72

9 1000

153

21

125571

7426

OF SAME STATE

URBAN

15

52

16

29

16

15

571

195

73 1000

17

13934

883

OTHER STATE

RURAL

26

65

14

13

705

136

27 1000

38

30877

2272

URBAN

38

221

46

12

23

10

22

31

11

360

125

102 1000

11

8893

542

11

388

91

457

33 1000

11

9008

657

OTHER COUNTRIES

36754

-----------------------------------------------------------------------------------------------------------------------------------ALL

21

11

861

63

16 1000

1000

140

819313

50125

-----------------------------------------------------------------------------------------------------------------------------------ESTIMATED MIGRANTS(00)

4952

4608

16875

1572
4143

2854
615

8776
3950

705445
797

13362

51362

819313

-----------------------------------------------------------------------------------------------------------------------------------SAMPLE MIGRANTS

485

394
1404

112
389

219
76

579
237

41157
45

970
4058

50125

------------------------------------------------------------------------------------------------------------------------------------

Source : National Sample Survey Organisation,49th Round,Schedule 1.2

A - 104

TABLE-17

: PER THOUSAND DISTRIBUTION OF MIGRANTS BY REASON

FOR LEAVING LAST USUAL PLACE

OF RESIDENCE(UPR) FOR EACH LOCATION OF LAST RESIDENCE

ALL-INDIA

MALE

UPTO 1 YEARS

SECTOR : URBAN

-----------------------------------------------------------------------------------------------------------------------------------REASON
LOCATION OF

FOR

LEAVING

LAST

UPR

(CODES)

PER

1000

NO. OF

---------------------------------------------------------------------- DISTRIBU-

LAST RESIDENCE

10

11

12

19

ALL TION OF
MIGRANTS

MIGRANTS

MIGRANTS-------------------PER 1000

ESTD.

PERSONS

(00)

SAMPLE

-----------------------------------------------------------------------------------------------------------------------------------(1)

(2)

(3)

(4)

(5)

(6)

(7)

(8)

(9) (10) (11) (12) (13) (14) (15)

(16)

(17)

(18)

(19)

-----------------------------------------------------------------------------------------------------------------------------------SAME DISTRICT

RURAL

65

114

43

64

27

329

11

23

24

248

43 1000

254

7224

URBAN

31

88

67

144

18

66

86

95

358

31 1000

129

3661

675

OTHER DISTRICT

RURAL

136

172

60

58

33

207

280

39 1000

137

3901

746

OF SAME STATE

URBAN

34

76

51

263

72

48

39

366

40 1000

219

6223

917

OTHER STATE

RURAL

263

262

86

14

60

25

17

236

29 1000

122

3476

567

URBAN

42

118

88

145

11

271

23

15

198

71 1000

135

3845

649

556

170

59

49

23

71

37

36 1000

83

26

OTHER COUNTRIES

1347

-----------------------------------------------------------------------------------------------------------------------------------ALL

86

129

61

122

17

180

31

22

11

283

42 1000

1000

15

28413

4927

-----------------------------------------------------------------------------------------------------------------------------------ESTIMATED MIGRANTS(00)

2449

1745
3666

471
3455

867
5120

185
630

269
303

1202
8051

28413

-----------------------------------------------------------------------------------------------------------------------------------SAMPLE MIGRANTS

474

385
771

96
692

97

57

609

39

69

21

196
1421

4927

------------------------------------------------------------------------------------------------------------------------------------

TABLE-17

: PER THOUSAND DISTRIBUTION OF MIGRANTS BY REASON

FOR LEAVING LAST USUAL PLACE

OF RESIDENCE(UPR) FOR EACH LOCATION OF LAST RESIDENCE

ALL-INDIA

MALE

1 TO 4 YEARS

SECTOR : URBAN

-----------------------------------------------------------------------------------------------------------------------------------REASON
LOCATION OF

FOR

LEAVING

LAST

UPR

(CODES)

PER

1000

NO. OF

---------------------------------------------------------------------- DISTRIBU-

LAST RESIDENCE

10

11

12

19

ALL TION OF
MIGRANTS

MIGRANTS

MIGRANTS-------------------PER 1000

ESTD.

PERSONS

(00)

SAMPLE

-----------------------------------------------------------------------------------------------------------------------------------(1)

(2)

(3)

(4)

(5)

(6)

(7)

(8)

(9) (10) (11) (12) (13) (14) (15)

(16)

(17)

(18)

(19)

-----------------------------------------------------------------------------------------------------------------------------------SAME DISTRICT

RURAL

66

135

75

75

13

168

33

19

11

22

346

36 1000

262

13397

2163

URBAN

31

107

56

163

14

44

52

63

31

389

41 1000

150

7668

1101

OTHER DISTRICT

RURAL

151

162

97

81

179

11

17

247

37 1000

174

8908

1333

OF SAME STATE

URBAN

55

98

69

238

10

68

46

18

340

37 1000

177

9054

1442

OTHER STATE

RURAL

339

258

110

19

64

17

173

11 1000

116

5917

966

URBAN

119

157

52

174

72

15

11

322

55 1000

118

6022

942

160

84

16

197

71

36

223

103

33

77 1000

206

47

OTHER COUNTRIES

-----------------------------------------------------------------------------------------------------------------------------------ALL

112

146

76

124

110

28

18

10

17

310

37 1000

1000

27

51172

7994

-----------------------------------------------------------------------------------------------------------------------------------ESTIMATED MIGRANTS(00)

5727

3905
7449

456
6336

1455
5638

493
940

881
144

1874

15876

51172

-----------------------------------------------------------------------------------------------------------------------------------SAMPLE MIGRANTS

882

661
1308

79
1107

124
763

110
111

86
21

298
2444

7994

------------------------------------------------------------------------------------------------------------------------------------

Source : National Sample Survey Organisation,49th Round,Schedule 1.2

A - 105

TABLE-17

: PER THOUSAND DISTRIBUTION OF MIGRANTS BY REASON

ALL-INDIA

MALE

5 TO 9 YEARS

FOR LEAVING LAST USUAL PLACE

SECTOR : URBAN

-----------------------------------------------------------------------------------------------------------------------------------REASON
LOCATION OF

FOR

LEAVING

LAST

UPR

(CODES)

PER

1000

NO. OF

---------------------------------------------------------------------- DISTRIBU-

LAST RESIDENCE

10

11

12

19

ALL TION OF
MIGRANTS

MIGRANTS

MIGRANTS-------------------PER 1000

ESTD.

PERSONS

(00)

SAMPLE

-----------------------------------------------------------------------------------------------------------------------------------(1)

(2)

(3)

(4)

(5)

(6)

(7)

(8)

(9) (10) (11) (12) (13) (14) (15)

(16)

(17)

(18)

(19)

-----------------------------------------------------------------------------------------------------------------------------------SAME DISTRICT

RURAL

105

169

81

76

17

71

37

12

16

32

318

63 1000

243

11579

1347

URBAN

25

96

76

130

14

30

94

48

13

22

396

56 1000

136

6503

547

OTHER DISTRICT

RURAL

239

233

98

44

75

10

23

234

24 1000

182

8691

918

OF SAME STATE

URBAN

85

111

64

199

51

32

29

34

21

334

36 1000

151

7208

696

OTHER STATE

RURAL

396

268

86

18

11

25

165

23 1000

174

8301

861

URBAN

171

132

81

140

26

36

28

299

82 1000

96

4557

498

123

66

55

47

157

33

430

80 1000

18

838

72

OTHER COUNTRIES

-----------------------------------------------------------------------------------------------------------------------------------ALL

173

174

80

92

48

32

20

18

20

289

46 1000

1000

25

47677

4939

-----------------------------------------------------------------------------------------------------------------------------------ESTIMATED MIGRANTS(00)

8236

3830
8286

351
4377

1508
2281

874

931

955

51

2199

13796

47677

-----------------------------------------------------------------------------------------------------------------------------------SAMPLE MIGRANTS

778

393
957

54
498

119

76

245

72

62

10

216
1459

4939

------------------------------------------------------------------------------------------------------------------------------------

TABLE-17

: PER THOUSAND DISTRIBUTION OF MIGRANTS BY REASON

ALL-INDIA

MALE

FOR LEAVING LAST USUAL PLACE

10 YEARS & ABOVE

SECTOR : URBAN

-----------------------------------------------------------------------------------------------------------------------------------REASON
LOCATION OF

FOR

LEAVING

LAST

UPR

(CODES)

PER

1000

NO. OF

---------------------------------------------------------------------- DISTRIBU-

LAST RESIDENCE

10

11

12

19

ALL TION OF
MIGRANTS

MIGRANTS

MIGRANTS-------------------PER 1000

ESTD.

PERSONS

(00)

SAMPLE

-----------------------------------------------------------------------------------------------------------------------------------(1)

(2)

(3)

(4)

(5)

(6)

(7)

(8)

(9) (10) (11) (12) (13) (14) (15)

(16)

(17)

(18)

(19)

-----------------------------------------------------------------------------------------------------------------------------------SAME DISTRICT

RURAL

131

194

121

60

12

35

22

22

22

48

291

42 1000

217

13

24215

URBAN

64

112

80

107

22

120

30

24

48

313

70 1000

72

7984

829

OTHER DISTRICT

RURAL

259

256

129

27

41

21

209

30 1000

229

13

25528

2562

OF SAME STATE

URBAN

109

169

122

163

24

43

16

14

18

266

49 1000

125

13967

1420

OTHER STATE

RURAL

398

250

102

15

26

13

169

14 1000

226

13

25236

2652

URBAN

218

143

128

106

27

16

16

31

270

28 1000

104

11633

1157

77

31

11

21

428

266

150 1000

27

3060

351

OTHER COUNTRIES

2585

-----------------------------------------------------------------------------------------------------------------------------------ALL

221

202

113

62

30

22

12

27

25

240

37 1000

1000

59

111622

11556

-----------------------------------------------------------------------------------------------------------------------------------ESTIMATED MIGRANTS(00)

24635

12663

22559

744
6969

2468
3388

2962
1318

2776
178

4162

26802

111622

-----------------------------------------------------------------------------------------------------------------------------------SAMPLE MIGRANTS

2559

1216
2454

89
770

209
354

325
123

282
25

403
2747

11556

------------------------------------------------------------------------------------------------------------------------------------

Source : National Sample Survey Organisation,49th Round,Schedule 1.2

A - 106

TABLE-17

: PER THOUSAND DISTRIBUTION OF MIGRANTS BY REASON

FOR LEAVING LAST USUAL PLACE

OF RESIDENCE(UPR) FOR EACH LOCATION OF LAST RESIDENCE

ALL-INDIA

FEMALE

UPTO 1 YEARS

SECTOR : URBAN

-----------------------------------------------------------------------------------------------------------------------------------REASON
LOCATION OF

FOR

LEAVING

LAST

UPR

(CODES)

PER

1000

NO. OF

---------------------------------------------------------------------- DISTRIBU-

LAST RESIDENCE

10

11

12

19

ALL TION OF
MIGRANTS

MIGRANTS

MIGRANTS-------------------PER 1000

ESTD.

PERSONS

(00)

SAMPLE

-----------------------------------------------------------------------------------------------------------------------------------(1)

(2)

(3)

(4)

(5)

(6)

(7)

(8)

(9) (10) (11) (12) (13) (14) (15)

(16)

(17)

(18)

(19)

-----------------------------------------------------------------------------------------------------------------------------------SAME DISTRICT

RURAL

13

10

48

14

428

430

34 1000

271

8191

1329

URBAN

20

29

23

13

26

298

556

16 1000

148

4476

736

OTHER DISTRICT

RURAL

36

24

21

11

109

372

391

33 1000

150

4544

646

OF SAME STATE

URBAN

22

24

20

224

662

17 1000

221

6679

842

OTHER STATE

RURAL

14

46

10

22

13

355

409

120 1000

80

2406

384

URBAN

17

13

253

13

177

454

55 1000

128

3859

535

68

30

52

38

13

331

214

255 1000

93

20

OTHER COUNTRIES

-----------------------------------------------------------------------------------------------------------------------------------ALL

13

14

12

70

12

317

495

38 1000

1000

16

30247

4492

-----------------------------------------------------------------------------------------------------------------------------------ESTIMATED MIGRANTS(00)

408

375
409

120
192

351
2132

206

9586

265

99

1142

14962

30247

-----------------------------------------------------------------------------------------------------------------------------------SAMPLE MIGRANTS

73

51

32

83

57

53

33

212

1080

28

10

166
2614

4492

------------------------------------------------------------------------------------------------------------------------------------

TABLE-17

: PER THOUSAND DISTRIBUTION OF MIGRANTS BY REASON

FOR LEAVING LAST USUAL PLACE

OF RESIDENCE(UPR) FOR EACH LOCATION OF LAST RESIDENCE

ALL-INDIA

FEMALE

1 TO 4 YEARS

SECTOR : URBAN

-----------------------------------------------------------------------------------------------------------------------------------REASON
LOCATION OF

FOR

LEAVING

LAST

UPR

(CODES)

PER

1000

NO. OF

---------------------------------------------------------------------- DISTRIBU-

LAST RESIDENCE

10

11

12

19

ALL TION OF
MIGRANTS

MIGRANTS

MIGRANTS-------------------PER 1000

ESTD.

PERSONS

(00)

SAMPLE

-----------------------------------------------------------------------------------------------------------------------------------(1)

(2)

(3)

(4)

(5)

(6)

(7)

(8)

(9) (10) (11) (12) (13) (14) (15)

(16)

(17)

(18)

(19)

-----------------------------------------------------------------------------------------------------------------------------------SAME DISTRICT

RURAL

17

54

10

470

388

25 1000

303

17762

2401

URBAN

11

17

15

16

11

328

559

28 1000

159

9316

1262

OTHER DISTRICT

RURAL

15

16

88

399

404

44 1000

155

9067

1238

OF SAME STATE

URBAN

13

18

10

37

11

362

500

28 1000

199

11622

1514

OTHER STATE

RURAL

26

17

85

13

420

428

5 1000

81

4763

625

URBAN

18

67

320

531

32 1000

101

5905

819

14

10

36

78

25

92

745

- 1000

94

22

OTHER COUNTRIES

-----------------------------------------------------------------------------------------------------------------------------------ALL

11

11

10

53

10

395

458

28 1000

1000

31

58530

7881

-----------------------------------------------------------------------------------------------------------------------------------ESTIMATED MIGRANTS(00)

652

610
621

140
394

583
3123

448
321

23123
45

1641

26829

58530

-----------------------------------------------------------------------------------------------------------------------------------SAMPLE MIGRANTS

88

80
111

26
98

72
301

82
54

2398
13

251
4307

7881

------------------------------------------------------------------------------------------------------------------------------------

Source : National Sample Survey Organisation,49th Round,Schedule 1.2

A - 107

TABLE-17

: PER THOUSAND DISTRIBUTION OF MIGRANTS BY REASON

FOR LEAVING LAST USUAL PLACE

OF RESIDENCE(UPR) FOR EACH LOCATION OF LAST RESIDENCE

ALL-INDIA

FEMALE

5 TO 9 YEARS

SECTOR : URBAN

-----------------------------------------------------------------------------------------------------------------------------------REASON
LOCATION OF

FOR

LEAVING

LAST

UPR

(CODES)

PER

1000

NO. OF

---------------------------------------------------------------------- DISTRIBU-

LAST RESIDENCE

10

11

12

19

ALL TION OF
MIGRANTS

MIGRANTS

MIGRANTS-------------------PER 1000

ESTD.

PERSONS

(00)

SAMPLE

-----------------------------------------------------------------------------------------------------------------------------------(1)

(2)

(3)

(4)

(5)

(6)

(7)

(8)

(9) (10) (11) (12) (13) (14) (15)

(16)

(17)

(18)

(19)

-----------------------------------------------------------------------------------------------------------------------------------SAME DISTRICT

RURAL

19

592

316

37 1000

326

11

20953

URBAN

11

15

478

446

20 1000

150

9654

917

OTHER DISTRICT

RURAL

16

13

15

11

10

525

382

17 1000

172

11056

1143

OF SAME STATE

URBAN

15

468

448

26 1000

161

10351

970

OTHER STATE

RURAL

12

23

10

461

420

60 1000

101

6501

731

URBAN

29

16

389

469

63 1000

83

5312

536

23

61

98

18

664

136 1000

415

34

OTHER COUNTRIES

2182

-----------------------------------------------------------------------------------------------------------------------------------ALL

10

12

510

394

34 1000

1000

34

64241

6513

-----------------------------------------------------------------------------------------------------------------------------------ESTIMATED MIGRANTS(00)

597

384
639

29
347

349
802

558

32740

240

71

2203

25283

64241

-----------------------------------------------------------------------------------------------------------------------------------SAMPLE MIGRANTS

72

37

71

35

57

65

88

3259

27

10

182
2604

6513

------------------------------------------------------------------------------------------------------------------------------------

TABLE-17

: PER THOUSAND DISTRIBUTION OF MIGRANTS BY REASON

FOR LEAVING LAST USUAL PLACE

OF RESIDENCE(UPR) FOR EACH LOCATION OF LAST RESIDENCE

ALL-INDIA

FEMALE

10 YEARS & ABOVE

SECTOR : URBAN

-----------------------------------------------------------------------------------------------------------------------------------REASON
LOCATION OF

FOR

LEAVING

LAST

UPR

(CODES)

PER

1000

NO. OF

---------------------------------------------------------------------- DISTRIBU-

LAST RESIDENCE

10

11

12

19

ALL TION OF
MIGRANTS

MIGRANTS

MIGRANTS-------------------PER 1000

ESTD.

PERSONS

(00)

SAMPLE

-----------------------------------------------------------------------------------------------------------------------------------(1)

(2)

(3)

(4)

(5)

(6)

(7)

(8)

(9) (10) (11) (12) (13) (14) (15)

(16)

(17)

(18)

(19)

-----------------------------------------------------------------------------------------------------------------------------------SAME DISTRICT

RURAL

10

780

170

14 1000

356

36

67302

6783

URBAN

27

774

165

12 1000

122

12

23125

2344

OTHER DISTRICT

RURAL

19

687

246

18 1000

197

20

37246

3576

OF SAME STATE

URBAN

663

289

13 1000

137

14

25840

2406

OTHER STATE

RURAL

18

16

574

375

7 1000

101

10

19149

2050

URBAN

14

540

399

16 1000

72

13554

1388

268

161

459

102 1000

15

2807

305

OTHER COUNTRIES

-----------------------------------------------------------------------------------------------------------------------------------ALL

11

698

242

15 1000

1000

100

189022

18852

-----------------------------------------------------------------------------------------------------------------------------------ESTIMATED MIGRANTS(00)

1335

548
2134

190
681

1058
343

1689
486

131848
88

2871

45750

189022

-----------------------------------------------------------------------------------------------------------------------------------SAMPLE MIGRANTS

122

65
219

15
84

75
57

164
43

13121
14

270
4603

18852

------------------------------------------------------------------------------------------------------------------------------------

Source : National Sample Survey Organisation,49th Round,Schedule 1.2

A - 108

TABLE-17

: PER THOUSAND DISTRIBUTION OF MIGRANTS BY REASON

FOR LEAVING LAST USUAL PLACE

OF RESIDENCE(UPR) FOR EACH LOCATION OF LAST RESIDENCE

ALL-INDIA

PERSONS

UPTO 1 YEARS

SECTOR : URBAN

-----------------------------------------------------------------------------------------------------------------------------------REASON
LOCATION OF

FOR

LEAVING

LAST

UPR

(CODES)

PER

1000

NO. OF

---------------------------------------------------------------------- DISTRIBU-

LAST RESIDENCE

10

11

12

19

ALL TION OF
MIGRANTS

MIGRANTS

MIGRANTS-------------------PER 1000

ESTD.

PERSONS

(00)

SAMPLE

-----------------------------------------------------------------------------------------------------------------------------------(1)

(2)

(3)

(4)

(5)

(6)

(7)

(8)

(9) (10) (11) (12) (13) (14) (15)

(16)

(17)

(18)

(19)

-----------------------------------------------------------------------------------------------------------------------------------SAME DISTRICT

RURAL

34

60

26

31

16

179

10

14

238

345

38 1000

263

15416

URBAN

25

42

46

68

42

46

57

166

467

23 1000

139

8137

1411

OTHER DISTRICT

RURAL

83

92

39

33

15

154

203

340

36 1000

144

8445

1392

OF SAME STATE

URBAN

18

39

27

129

46

36

29

117

519

28 1000

220

12902

1759

OTHER STATE

RURAL

161

174

55

39

24

10

149

307

66 1000

100

5882

951

URBAN

26

62

44

81

12

262

18

92

326

63 1000

131

7704

1184

298

80

43

23

11

27

53

24

175

113

152 1000

175

46

OTHER COUNTRIES

2676

-----------------------------------------------------------------------------------------------------------------------------------ALL

49

69

36

62

10

124

21

15

168

392

40 1000

1000

31

58661

9419

-----------------------------------------------------------------------------------------------------------------------------------ESTIMATED MIGRANTS(00)

2857

2120
4075

591
3647

1218
7253

391
895

9854
402

2344

23013

58661

-----------------------------------------------------------------------------------------------------------------------------------SAMPLE MIGRANTS

547

436
854

128
749

150

90

821

1119

97

31

362
4035

9419

------------------------------------------------------------------------------------------------------------------------------------

TABLE-17

: PER THOUSAND DISTRIBUTION OF MIGRANTS BY REASON

FOR LEAVING LAST USUAL PLACE

OF RESIDENCE(UPR) FOR EACH LOCATION OF LAST RESIDENCE

ALL-INDIA

PERSONS

1 TO 4 YEARS

SECTOR : URBAN

-----------------------------------------------------------------------------------------------------------------------------------REASON
LOCATION OF

FOR

LEAVING

LAST

UPR

(CODES)

PER

1000

NO. OF

---------------------------------------------------------------------- DISTRIBU-

LAST RESIDENCE

10

11

12

19

ALL TION OF
MIGRANTS

MIGRANTS

MIGRANTS-------------------PER 1000

ESTD.

PERSONS

(00)

SAMPLE

-----------------------------------------------------------------------------------------------------------------------------------(1)

(2)

(3)

(4)

(5)

(6)

(7)

(8)

(9) (10) (11) (12) (13) (14) (15)

(16)

(17)

(18)

(19)

-----------------------------------------------------------------------------------------------------------------------------------SAME DISTRICT

RURAL

32

68

34

38

103

20

10

277

370

30 1000

284

16

31159

4564

URBAN

15

54

35

75

28

32

35

194

483

34 1000

155

16984

2363

OTHER DISTRICT

RURAL

83

83

56

43

133

210

326

41 1000

164

17975

2571

OF SAME STATE

URBAN

31

45

40

110

51

27

211

430

32 1000

188

11

20676

2956

OTHER STATE

RURAL

200

151

63

11

73

15

188

287

8 1000

97

10680

1591

URBAN
OTHER COUNTRIES

69

82

29

91

70

11

161

426

43 1000

109

11927

1761

110

62

11

139

60

49

161

71

29

255

53 1000

300

69

-----------------------------------------------------------------------------------------------------------------------------------ALL

58

74

41

61

80

19

11

219

389

32 1000

1000

58

109702

15875

-----------------------------------------------------------------------------------------------------------------------------------ESTIMATED MIGRANTS(00)

6379

4515
8070

595
6730

2038
8762

941
1261

24004
189

3515

42705

109702

-----------------------------------------------------------------------------------------------------------------------------------SAMPLE MIGRANTS

970

741
1419

105
1205

196
1064

192
165

2484
34

549
6751

15875

------------------------------------------------------------------------------------------------------------------------------------

Source : National Sample Survey Organisation,49th Round,Schedule 1.2

A - 109

TABLE-17

: PER THOUSAND DISTRIBUTION OF MIGRANTS BY REASON

FOR LEAVING LAST USUAL PLACE

OF RESIDENCE(UPR) FOR EACH LOCATION OF LAST RESIDENCE

ALL-INDIA

PERSONS

5 TO 9 YEARS

SECTOR : URBAN

-----------------------------------------------------------------------------------------------------------------------------------REASON
LOCATION OF

FOR

LEAVING

LAST

UPR

(CODES)

PER

1000

NO. OF

---------------------------------------------------------------------- DISTRIBU-

LAST RESIDENCE

10

11

12

19

ALL TION OF
MIGRANTS

MIGRANTS

MIGRANTS-------------------PER 1000

ESTD.

PERSONS

(00)

SAMPLE

-----------------------------------------------------------------------------------------------------------------------------------(1)

(2)

(3)

(4)

(5)

(6)

(7)

(8)

(9) (10) (11) (12) (13) (14) (15)

(16)

(17)

(18)

(19)

-----------------------------------------------------------------------------------------------------------------------------------SAME DISTRICT

RURAL

41

66

32

31

38

14

393

317

47 1000

291

17

32532

3529

URBAN

12

43

33

54

19

47

23

295

425

34 1000

144

16157

1464

OTHER DISTRICT

RURAL

114

110

52

23

39

10

304

317

20 1000

176

10

19747

2061

OF SAME STATE

URBAN

37

49

29

87

26

17

14

22

285

401

30 1000

157

17559

1666

OTHER STATE

RURAL

227

161

49

11

18

205

277

39 1000

132

14802

1592

URBAN

95

63

40

67

15

25

17

210

390

72 1000

88

9869

1034

89

44

37

52

137

28

508

99 1000

11

1253

106

OTHER COUNTRIES

-----------------------------------------------------------------------------------------------------------------------------------ALL

79

80

38

42

28

17

11

13

301

349

39 1000

1000

59

111918

11452

-----------------------------------------------------------------------------------------------------------------------------------ESTIMATED MIGRANTS(00)

8833

4214
8925

380
4724

1857
3083

1432
1195

33671
122

4403

39079

111918

-----------------------------------------------------------------------------------------------------------------------------------SAMPLE MIGRANTS

850

430
1028

60
555

154

141

333

3331

89

20

398
4063

11452

------------------------------------------------------------------------------------------------------------------------------------

TABLE-17

: PER THOUSAND DISTRIBUTION OF MIGRANTS BY REASON

FOR LEAVING LAST USUAL PLACE

OF RESIDENCE(UPR) FOR EACH LOCATION OF LAST RESIDENCE

ALL-INDIA

PERSONS

10 YEARS & ABOVE

SECTOR : URBAN

-----------------------------------------------------------------------------------------------------------------------------------REASON
LOCATION OF

FOR

LEAVING

LAST

UPR

(CODES)

PER

1000

NO. OF

---------------------------------------------------------------------- DISTRIBU-

LAST RESIDENCE

10

11

12

19

ALL TION OF
MIGRANTS

MIGRANTS

MIGRANTS-------------------PER 1000

ESTD.

PERSONS

(00)

SAMPLE

-----------------------------------------------------------------------------------------------------------------------------------(1)

(2)

(3)

(4)

(5)

(6)

(7)

(8)

(9) (10) (11) (12) (13) (14) (15)

(16)

(17)

(18)

(19)

-----------------------------------------------------------------------------------------------------------------------------------SAME DISTRICT

RURAL

39

59

34

18

10

11

586

202

21 1000

304

48

91517

9368

URBAN

17

32

21

32

51

11

10

588

203

27 1000

103

16

31109

3173

OTHER DISTRICT

RURAL

111

115

55

12

18

416

231

23 1000

209

33

62774

6138

OF SAME STATE

URBAN

41

65

46

62

10

19

437

281

25 1000

132

21

39807

3826

OTHER STATE

RURAL

234

149

59

15

255

258

11 1000

148

23

44384

4702

URBAN

105

70

61

51

14

22

294

339

21 1000

84

13

25186

2545

43

19

11

351

78

358

127 1000

20

5867

656

OTHER COUNTRIES

-----------------------------------------------------------------------------------------------------------------------------------ALL

86

82

44

25

12

12

15

448

241

23 1000

1000

159

300644

30408

-----------------------------------------------------------------------------------------------------------------------------------ESTIMATED MIGRANTS(00)

25970

13211

24693

934
7650

3526
3731

4651
1804

134624
266

7033

72552

300644

-----------------------------------------------------------------------------------------------------------------------------------SAMPLE MIGRANTS

2681

1281
2673

104
854

284
411

489
166

13403
39

673
7350

30408

------------------------------------------------------------------------------------------------------------------------------------

Source : National Sample Survey Organisation,49th Round,Schedule 1.2

A - 110

TABLE-18

PER THOUSAND DISTRIBUTION OF MIGRANTS BY LOCATION OF LAST RESIDENCE FOR EACH SOCIAL GROUP
UP TO 1 YEAR

MALE

ALL-INDIA

SECTOR:

RURAL

-----------------------------------------------------------------------------------------------------------------------------------H.H. SOCIAL GROUP

LOCATION OF LAST RESIDENCE

PER 1000

NO. OF

MIGRANTS

________________________________________________________________________DISTRI- MIGRANTS

--------------------

SAME DISTRICT

ESTD.(00)

OTHER DISTRICT

OTHER STATE

OTHER

OF SAME STATE

N.R.

ALL

COUN-

--------------- --------------- --------------- TRIES


RURAL

URBAN

RURAL

URBAN

RURAL

BUTION

PER 1000

OF

PERSONS

SAMPLE

MIGRANTS

URBAN

-----------------------------------------------------------------------------------------------------------------------------------(1)

(2)

(3)

(4)

(5)

(6)

(7)

(8)

(9)

(10)

(11)

(12)

(13)

(14)

-----------------------------------------------------------------------------------------------------------------------------------SCHEDULED TRIBE

159

10

18

786

24

1000

242

107

8785

SCHEDULED CASTE

414

132

178

49

95

123

1000

139

198

5051

598
763

OTHERS

435

116

159

98

76

93

18

1000

619

200

22480

2773

-----------------------------------------------------------------------------------------------------------------------------------TOTAL

365

93

128

258

66

75

11

1000

1000

165

36316

4134

-----------------------------------------------------------------------------------------------------------------------------------ESTD. MIGRANTS(00)

13268

3362

4636

9369

2413

2733

406

131

36316

-----------------------------------------------------------------------------------------------------------------------------------SAMPLE MIGRANTS

1942

477

600

377

318

355

36

29

4134

------------------------------------------------------------------------------------------------------------------------------------

TABLE-18

PER THOUSAND DISTRIBUTION OF MIGRANTS BY LOCATION OF LAST RESIDENCE FOR EACH SOCIAL GROUP
UP TO 1 YEAR

FEMALE

ALL-INDIA

SECTOR:

RURAL

-----------------------------------------------------------------------------------------------------------------------------------H.H. SOCIAL GROUP

LOCATION OF LAST RESIDENCE

PER 1000

NO. OF

MIGRANTS

________________________________________________________________________DISTRI- MIGRANTS

--------------------

SAME DISTRICT

ESTD.(00)

OTHER DISTRICT

OTHER STATE

OTHER

OF SAME STATE

N.R.

ALL

COUN-

--------------- --------------- --------------- TRIES


RURAL

URBAN

RURAL

URBAN

RURAL

BUTION

PER 1000

OF

PERSONS

SAMPLE

MIGRANTS

URBAN

-----------------------------------------------------------------------------------------------------------------------------------(1)

(2)

(3)

(4)

(5)

(6)

(7)

(8)

(9)

(10)

(11)

(12)

(13)

(14)

-----------------------------------------------------------------------------------------------------------------------------------SCHEDULED TRIBE

430

37

493

21

1000

139

114

10208

675

SCHEDULED CASTE

636

63

164

30

64

38

1000

198

172

14527

1293

OTHERS

630

71

165

55

51

22

1000

662

161

48489

4058

-----------------------------------------------------------------------------------------------------------------------------------TOTAL

603

61

147

111

50

23

1000

1000

154

73223

6026

-----------------------------------------------------------------------------------------------------------------------------------ESTD. MIGRANTS(00)

44166

4435

10773

8156

3631

1692

156

215

73223

-----------------------------------------------------------------------------------------------------------------------------------SAMPLE MIGRANTS

3736

458

911

372

327

173

13

36

6026

------------------------------------------------------------------------------------------------------------------------------------

Source : National Sample Survey Organisation,49th Round,Schedule 1.2

A - 111

TABLE-18

PER THOUSAND DISTRIBUTION OF MIGRANTS BY LOCATION OF LAST RESIDENCE FOR EACH SOCIAL GROUP
UP TO 1 YEAR

PERSONS

ALL-INDIA

SECTOR:

RURAL

-----------------------------------------------------------------------------------------------------------------------------------H.H. SOCIAL GROUP

LOCATION OF LAST RESIDENCE

PER 1000

NO. OF

MIGRANTS

________________________________________________________________________DISTRI- MIGRANTS

--------------------

SAME DISTRICT

ESTD.(00)

OTHER DISTRICT

OTHER STATE

OTHER

OF SAME STATE

N.R.

ALL

COUN-

--------------- --------------- --------------- TRIES


RURAL

URBAN

RURAL

URBAN

RURAL

BUTION

PER 1000

OF

PERSONS

SAMPLE

MIGRANTS

URBAN

-----------------------------------------------------------------------------------------------------------------------------------(1)

(2)

(3)

(4)

(5)

(6)

(7)

(8)

(9)

(10)

(11)

(12)

(13)

(14)

-----------------------------------------------------------------------------------------------------------------------------------SCHEDULED TRIBE

305

28

629

22

1000

173

110

18993

1273

SCHEDULED CASTE

579

81

168

35

72

60

1000

179

178

19577

2056

OTHERS

568

85

163

69

59

45

1000

648

172

70969

6831

-----------------------------------------------------------------------------------------------------------------------------------TOTAL

524

71

141

160

55

40

1000

1000

158

109539

10160

-----------------------------------------------------------------------------------------------------------------------------------ESTD. MIGRANTS(00)

57434

7796

15408

17524

6045

4424

561

346

109539

-----------------------------------------------------------------------------------------------------------------------------------SAMPLE MIGRANTS

5678

935

1511

749

645

528

49

65

10160

------------------------------------------------------------------------------------------------------------------------------------

TABLE-18

PER THOUSAND DISTRIBUTION OF MIGRANTS BY LOCATION OF LAST RESIDENCE FOR EACH SOCIAL GROUP
1 TO 4 YEARS

MALE

ALL-INDIA

SECTOR:

RURAL

-----------------------------------------------------------------------------------------------------------------------------------H.H. SOCIAL GROUP

LOCATION OF LAST RESIDENCE

PER 1000

NO. OF

MIGRANTS

________________________________________________________________________DISTRI- MIGRANTS

--------------------

SAME DISTRICT

ESTD.(00)

OTHER DISTRICT

OTHER STATE

OTHER

OF SAME STATE

N.R.

ALL

COUN-

--------------- --------------- --------------- TRIES


RURAL

URBAN

RURAL

URBAN

RURAL

BUTION

PER 1000

OF

PERSONS

SAMPLE

MIGRANTS

URBAN

-----------------------------------------------------------------------------------------------------------------------------------(1)

(2)

(3)

(4)

(5)

(6)

(7)

(8)

(9)

(10)

(11)

(12)

(13)

(14)

-----------------------------------------------------------------------------------------------------------------------------------SCHEDULED TRIBE

670

47

163

65

45

10

1000

93

242

3832

SCHEDULED CASTE

528

96

147

67

47

96

13

1000

177

197

7283

786
971

OTHERS

483

104

217

83

34

63

11

1000

730

200

30083

3591

-----------------------------------------------------------------------------------------------------------------------------------TOTAL

509

98

200

79

38

64

11

1000

1000

203

41197

5348

-----------------------------------------------------------------------------------------------------------------------------------ESTD. MIGRANTS(00)

20949

4023

8229

3248

1545

2626

437

141

41197

-----------------------------------------------------------------------------------------------------------------------------------SAMPLE MIGRANTS

2774

652

819

370

367

307

48

11

5348

------------------------------------------------------------------------------------------------------------------------------------

Source : National Sample Survey Organisation,49th Round,Schedule 1.2

A - 112

TABLE-18

PER THOUSAND DISTRIBUTION OF MIGRANTS BY LOCATION OF LAST RESIDENCE FOR EACH SOCIAL GROUP
1 TO 4 YEARS

FEMALE

ALL-INDIA

SECTOR:

RURAL

-----------------------------------------------------------------------------------------------------------------------------------H.H. SOCIAL GROUP

LOCATION OF LAST RESIDENCE

PER 1000

NO. OF

MIGRANTS

________________________________________________________________________DISTRI- MIGRANTS

--------------------

SAME DISTRICT

ESTD.(00)

OTHER DISTRICT

OTHER STATE

OTHER

OF SAME STATE

N.R.

ALL

COUN-

--------------- --------------- --------------- TRIES


RURAL

URBAN

RURAL

URBAN

RURAL

BUTION

PER 1000

OF

PERSONS

SAMPLE

MIGRANTS

URBAN

-----------------------------------------------------------------------------------------------------------------------------------(1)

(2)

(3)

(4)

(5)

(6)

(7)

(8)

(9)

(10)

(11)

(12)

(13)

(14)

-----------------------------------------------------------------------------------------------------------------------------------SCHEDULED TRIBE

872

11

79

17

21

1000

98

157

14406

1242

SCHEDULED CASTE

741

48

145

25

29

12

1000

216

176

31622

2294

OTHERS

678

46

188

36

37

10

1000

686

154

100369

7471

-----------------------------------------------------------------------------------------------------------------------------------TOTAL

711

43

168

32

34

1000

1000

158

146398

11007

-----------------------------------------------------------------------------------------------------------------------------------ESTD. MIGRANTS(00)

104039

6284

24578

4653

4979

1377

338

151

146398

-----------------------------------------------------------------------------------------------------------------------------------SAMPLE MIGRANTS

7557

640

1746

357

476

184

28

19

11007

------------------------------------------------------------------------------------------------------------------------------------

TABLE-18

PER THOUSAND DISTRIBUTION OF MIGRANTS BY LOCATION OF LAST RESIDENCE FOR EACH SOCIAL GROUP
1 TO 4 YEARS

PERSONS

ALL-INDIA

SECTOR:

RURAL

-----------------------------------------------------------------------------------------------------------------------------------H.H. SOCIAL GROUP

LOCATION OF LAST RESIDENCE

PER 1000

NO. OF

MIGRANTS

________________________________________________________________________DISTRI- MIGRANTS

--------------------

SAME DISTRICT

ESTD.(00)

OTHER DISTRICT

OTHER STATE

OTHER

OF SAME STATE

N.R.

ALL

COUN-

--------------- --------------- --------------- TRIES


RURAL

URBAN

RURAL

URBAN

RURAL

BUTION

PER 1000

OF

PERSONS

SAMPLE

MIGRANTS

URBAN

-----------------------------------------------------------------------------------------------------------------------------------(1)

(2)

(3)

(4)

(5)

(6)

(7)

(8)

(9)

(10)

(11)

(12)

(13)

(14)

-----------------------------------------------------------------------------------------------------------------------------------SCHEDULED TRIBE

829

18

96

27

26

1000

97

170

18238

SCHEDULED CASTE

701

57

145

33

32

28

1000

207

180

38905

2028
3265

OTHERS

633

60

195

47

37

22

1000

695

162

130452

11062

-----------------------------------------------------------------------------------------------------------------------------------TOTAL

666

55

175

42

35

21

1000

1000

166

187595

16355

-----------------------------------------------------------------------------------------------------------------------------------ESTD. MIGRANTS(00)

124988

10306

32806

7901

6524

4003

775

292

187595

-----------------------------------------------------------------------------------------------------------------------------------SAMPLE MIGRANTS

10331

1292

2565

727

843

491

76

30

16355

------------------------------------------------------------------------------------------------------------------------------------

Source : National Sample Survey Organisation,49th Round,Schedule 1.2

A - 113

TABLE-18

PER THOUSAND DISTRIBUTION OF MIGRANTS BY LOCATION OF LAST RESIDENCE FOR EACH SOCIAL GROUP
5 TO 9 YEARS

MALE

ALL-INDIA

SECTOR:

RURAL

-----------------------------------------------------------------------------------------------------------------------------------H.H. SOCIAL GROUP

LOCATION OF LAST RESIDENCE

PER 1000

NO. OF

MIGRANTS

________________________________________________________________________DISTRI- MIGRANTS

--------------------

SAME DISTRICT

ESTD.(00)

OTHER DISTRICT

OTHER STATE

OTHER

OF SAME STATE

N.R.

ALL

COUN-

--------------- --------------- --------------- TRIES


RURAL

URBAN

RURAL

URBAN

RURAL

BUTION

PER 1000

OF

PERSONS

SAMPLE

MIGRANTS

URBAN

-----------------------------------------------------------------------------------------------------------------------------------(1)

(2)

(3)

(4)

(5)

(6)

(7)

(8)

(9)

(10)

(11)

(12)

(13)

(14)

-----------------------------------------------------------------------------------------------------------------------------------SCHEDULED TRIBE

730

51

163

37

10

1000

66

204

2560

SCHEDULED CASTE

592

47

175

76

30

44

36

1000

209

190

8099

298
644

OTHERS

519

102

152

68

88

49

20

1000

725

189

28085

2199

-----------------------------------------------------------------------------------------------------------------------------------TOTAL

548

87

157

68

71

45

22

1000

1000

190

38745

3141

-----------------------------------------------------------------------------------------------------------------------------------ESTD. MIGRANTS(00)

21244

3372

6102

2621

2744

1749

862

51

38745

-----------------------------------------------------------------------------------------------------------------------------------SAMPLE MIGRANTS

1757

270

482

191

250

140

46

3141

---------------------------------------------------------------------------------------------------------------------------------

TABLE-18

PER THOUSAND DISTRIBUTION OF MIGRANTS BY LOCATION OF LAST RESIDENCE FOR EACH SOCIAL GROUP
5 TO 9 YEARS

FEMALE

ALL-INDIA

SECTOR:

RURAL

-----------------------------------------------------------------------------------------------------------------------------------H.H. SOCIAL GROUP

LOCATION OF LAST RESIDENCE

PER 1000

NO. OF

MIGRANTS

________________________________________________________________________DISTRI- MIGRANTS

--------------------

SAME DISTRICT

ESTD.(00)

OTHER DISTRICT

OTHER STATE

OTHER

OF SAME STATE

N.R.

ALL

COUN-

--------------- --------------- --------------- TRIES


RURAL

URBAN

RURAL

URBAN

RURAL

BUTION

PER 1000

OF

PERSONS

SAMPLE

MIGRANTS

URBAN

-----------------------------------------------------------------------------------------------------------------------------------(1)

(2)

(3)

(4)

(5)

(6)

(7)

(8)

(9)

(10)

(11)

(12)

(13)

(14)

-----------------------------------------------------------------------------------------------------------------------------------SCHEDULED TRIBE

867

14

87

24

1000

100

166

17805

SCHEDULED CASTE

735

30

162

18

40

12

1000

211

176

37489

1156
2323

OTHERS

701

50

169

29

40

1000

688

154

122190

7383

-----------------------------------------------------------------------------------------------------------------------------------TOTAL

725

42

160

24

38

1000

1000

159

177484

10862

-----------------------------------------------------------------------------------------------------------------------------------ESTD. MIGRANTS(00)

128645

7481

28334

4273

6766

1021

785

178

177484

-----------------------------------------------------------------------------------------------------------------------------------SAMPLE MIGRANTS

7934

444

1618

241

485

97

34

10862

------------------------------------------------------------------------------------------------------------------------------------

Source : National Sample Survey Organisation,49th Round,Schedule 1.2

A - 114

TABLE-18

PER THOUSAND DISTRIBUTION OF MIGRANTS BY LOCATION OF LAST RESIDENCE FOR EACH SOCIAL GROUP
5 TO 9 YEARS

PERSONS

ALL-INDIA

SECTOR:

RURAL

-----------------------------------------------------------------------------------------------------------------------------------H.H. SOCIAL GROUP

LOCATION OF LAST RESIDENCE

PER 1000

NO. OF

MIGRANTS

________________________________________________________________________DISTRI- MIGRANTS

--------------------

SAME DISTRICT

ESTD.(00)

OTHER DISTRICT

OTHER STATE

OTHER

OF SAME STATE

N.R.

ALL

COUN-

--------------- --------------- --------------- TRIES


RURAL

URBAN

RURAL

URBAN

RURAL

BUTION

PER 1000

OF

PERSONS

SAMPLE

MIGRANTS

URBAN

-----------------------------------------------------------------------------------------------------------------------------------(1)

(2)

(3)

(4)

(5)

(6)

(7)

(8)

(9)

(10)

(11)

(12)

(13)

(14)

-----------------------------------------------------------------------------------------------------------------------------------SCHEDULED TRIBE

850

19

97

22

1000

94

170

20365

1454

SCHEDULED CASTE

709

33

164

29

38

10

16

1000

211

178

45588

2967

OTHERS

667

60

166

36

49

15

1000

695

160

150275

9582

-----------------------------------------------------------------------------------------------------------------------------------TOTAL

693

50

159

32

44

13

1000

1000

164

216228

14003

-----------------------------------------------------------------------------------------------------------------------------------ESTD. MIGRANTS(00)

149888

10853

34436

6893

9510

2771

1647

229

216228

-----------------------------------------------------------------------------------------------------------------------------------SAMPLE MIGRANTS

9691

714

2100

432

735

237

80

14

14003

------------------------------------------------------------------------------------------------------------------------------------

TABLE-18

PER THOUSAND DISTRIBUTION OF MIGRANTS BY LOCATION OF LAST RESIDENCE FOR EACH SOCIAL GROUP
10 YEARS & ABOVE

MALE

ALL-INDIA

SECTOR:

RURAL

-----------------------------------------------------------------------------------------------------------------------------------H.H. SOCIAL GROUP

LOCATION OF LAST RESIDENCE

PER 1000

NO. OF

MIGRANTS

________________________________________________________________________DISTRI- MIGRANTS

--------------------

SAME DISTRICT

ESTD.(00)

OTHER DISTRICT

OTHER STATE

OTHER

OF SAME STATE

N.R.

ALL

COUN-

--------------- --------------- --------------- TRIES


RURAL

URBAN

RURAL

URBAN

RURAL

BUTION

PER 1000

OF

PERSONS

SAMPLE

MIGRANTS

URBAN

-----------------------------------------------------------------------------------------------------------------------------------(1)

(2)

(3)

(4)

(5)

(6)

(7)

(8)

(9)

(10)

(11)

(12)

(13)

(14)

-----------------------------------------------------------------------------------------------------------------------------------SCHEDULED TRIBE

696

12

145

10

131

1000

64

171

5003

532

SCHEDULED CASTE

465

68

138

30

75

56

164

1000

234

184

18366

1328

OTHERS

517

57

183

56

77

67

39

1000

702

174

55002

4156

-----------------------------------------------------------------------------------------------------------------------------------TOTAL

516

57

170

47

80

60

66

1000

1000

176

78371

6016

-----------------------------------------------------------------------------------------------------------------------------------ESTD. MIGRANTS(00)

40456

4435

13329

3682

6283

4741

5153

292

78371

-----------------------------------------------------------------------------------------------------------------------------------SAMPLE MIGRANTS

3140

341

959

289

599

296

379

13

6016

------------------------------------------------------------------------------------------------------------------------------------

Source : National Sample Survey Organisation,49th Round,Schedule 1.2

A - 115

TABLE-18

PER THOUSAND DISTRIBUTION OF MIGRANTS BY LOCATION OF LAST RESIDENCE FOR EACH SOCIAL GROUP
10 YEARS & ABOVE

FEMALE

ALL-INDIA

SECTOR:

RURAL

-----------------------------------------------------------------------------------------------------------------------------------H.H. SOCIAL GROUP

LOCATION OF LAST RESIDENCE

PER 1000

NO. OF

MIGRANTS

________________________________________________________________________DISTRI- MIGRANTS

--------------------

SAME DISTRICT

ESTD.(00)

OTHER DISTRICT

OTHER STATE

OTHER

OF SAME STATE

N.R.

ALL

COUN-

--------------- --------------- --------------- TRIES


RURAL

URBAN

RURAL

URBAN

RURAL

BUTION

PER 1000

OF

PERSONS

SAMPLE

MIGRANTS

URBAN

-----------------------------------------------------------------------------------------------------------------------------------(1)

(2)

(3)

(4)

(5)

(6)

(7)

(8)

(9)

(10)

(11)

(12)

(13)

(14)

-----------------------------------------------------------------------------------------------------------------------------------SCHEDULED TRIBE

876

10

84

26

1000

94

163

69747

4234

SCHEDULED CASTE

772

26

140

11

33

12

1000

222

175

164319

9876

OTHERS

742

31

164

16

34

1000

684

159

506876

29999

-----------------------------------------------------------------------------------------------------------------------------------TOTAL

761

28

151

14

33

1000

1000

163

740942

44109

-----------------------------------------------------------------------------------------------------------------------------------ESTD. MIGRANTS(00)

564209

20730

112242

10252

24594

4152

3854

909

740942

-----------------------------------------------------------------------------------------------------------------------------------SAMPLE MIGRANTS

33540

1250

6467

594

1673

246

278

61

44109

------------------------------------------------------------------------------------------------------------------------------------

TABLE-18

PER THOUSAND DISTRIBUTION OF MIGRANTS BY LOCATION OF LAST RESIDENCE FOR EACH SOCIAL GROUP
10 YEARS & ABOVE

PERSONS

ALL-INDIA

SECTOR:

RURAL

-----------------------------------------------------------------------------------------------------------------------------------H.H. SOCIAL GROUP

LOCATION OF LAST RESIDENCE

PER 1000

NO. OF

MIGRANTS

________________________________________________________________________DISTRI- MIGRANTS

--------------------

SAME DISTRICT

ESTD.(00)

OTHER DISTRICT

OTHER STATE

OTHER

OF SAME STATE

N.R.

ALL

COUN-

--------------- --------------- --------------- TRIES


RURAL

URBAN

RURAL

URBAN

RURAL

BUTION

PER 1000

OF

PERSONS

SAMPLE

MIGRANTS

URBAN

-----------------------------------------------------------------------------------------------------------------------------------(1)

(2)

(3)

(4)

(5)

(6)

(7)

(8)

(9)

(10)

(11)

(12)

(13)

(14)

-----------------------------------------------------------------------------------------------------------------------------------SCHEDULED TRIBE

864

10

88

33

1000

91

164

74751

4766

SCHEDULED CASTE

741

30

140

13

37

10

27

1000

223

176

182684

11204

OTHERS

720

34

166

20

38

13

1000

686

160

561878

34155

-----------------------------------------------------------------------------------------------------------------------------------TOTAL

738

31

153

17

38

11

11

1000

1000

164

819313

50125

-----------------------------------------------------------------------------------------------------------------------------------ESTD. MIGRANTS(00)

604665

25165

125571

13934

30877

8893

9008

1200

819313

-----------------------------------------------------------------------------------------------------------------------------------SAMPLE MIGRANTS

36680

1591

7426

883

2272

542

657

74

50125

------------------------------------------------------------------------------------------------------------------------------------

Source : National Sample Survey Organisation,49th Round,Schedule 1.2

A - 116

TABLE-18

PER THOUSAND DISTRIBUTION OF MIGRANTS BY LOCATION OF LAST RESIDENCE FOR EACH SOCIAL GROUP
UP TO 1 YEAR

MALE

ALL-INDIA

SECTOR:

URBAN

-----------------------------------------------------------------------------------------------------------------------------------H.H. SOCIAL GROUP

LOCATION OF LAST RESIDENCE

PER 1000

NO. OF

MIGRANTS

________________________________________________________________________DISTRI- MIGRANTS

--------------------

SAME DISTRICT

ESTD.(00)

OTHER DISTRICT

OTHER STATE

OTHER

OF SAME STATE

N.R.

ALL

COUN-

--------------- --------------- --------------- TRIES


RURAL

URBAN

RURAL

URBAN

RURAL

BUTION

PER 1000

OF

PERSONS

SAMPLE

MIGRANTS

URBAN

-----------------------------------------------------------------------------------------------------------------------------------(1)

(2)

(3)

(4)

(5)

(6)

(7)

(8)

(9)

(10)

(11)

(12)

(13)

(14)

-----------------------------------------------------------------------------------------------------------------------------------SCHEDULED TRIBE

427

105

242

108

44

69

1000

37

309

1060

317

SCHEDULED CASTE

279

93

185

213

155

71

1000

116

239

3296

565

OTHERS

239

135

126

225

121

147

1000

847

262

24058

4045

-----------------------------------------------------------------------------------------------------------------------------------TOTAL

250

129

137

219

122

135

1000

1000

260

28413

4927

-----------------------------------------------------------------------------------------------------------------------------------ESTD. MIGRANTS(00)

7111

3661

3901

6223

3476

3845

83

113

28413

-----------------------------------------------------------------------------------------------------------------------------------SAMPLE MIGRANTS

1319

675

746

917

567

649

26

28

4927

------------------------------------------------------------------------------------------------------------------------------------

TABLE-18

PER THOUSAND DISTRIBUTION OF MIGRANTS BY LOCATION OF LAST RESIDENCE FOR EACH SOCIAL GROUP
UP TO 1 YEAR

FEMALE

ALL-INDIA

SECTOR:

URBAN

-----------------------------------------------------------------------------------------------------------------------------------H.H. SOCIAL GROUP

LOCATION OF LAST RESIDENCE

PER 1000

NO. OF

MIGRANTS

________________________________________________________________________DISTRI- MIGRANTS

--------------------

SAME DISTRICT

ESTD.(00)

OTHER DISTRICT

OTHER STATE

OTHER

OF SAME STATE

N.R.

ALL

COUN-

--------------- --------------- --------------- TRIES


RURAL

URBAN

RURAL

URBAN

RURAL

BUTION

PER 1000

OF

PERSONS

SAMPLE

MIGRANTS

URBAN

-----------------------------------------------------------------------------------------------------------------------------------(1)

(2)

(3)

(4)

(5)

(6)

(7)

(8)

(9)

(10)

(11)

(12)

(13)

(14)

-----------------------------------------------------------------------------------------------------------------------------------SCHEDULED TRIBE

453

102

93

135

103

105

1000

28

225

854

269

SCHEDULED CASTE

262

107

200

306

93

27

1000

124

187

3757

530

OTHERS

260

156

145

211

77

143

1000

848

207

25636

3693

-----------------------------------------------------------------------------------------------------------------------------------TOTAL

266

148

150

221

80

128

1000

1000

205

30247

4492

-----------------------------------------------------------------------------------------------------------------------------------ESTD. MIGRANTS(00)

8032

4476

4544

6679

2406

3859

93

159

30247

-----------------------------------------------------------------------------------------------------------------------------------SAMPLE MIGRANTS

1304

736

646

842

384

535

20

25

4492

------------------------------------------------------------------------------------------------------------------------------------

Source : National Sample Survey Organisation,49th Round,Schedule 1.2

A - 117

TABLE-18

PER THOUSAND DISTRIBUTION OF MIGRANTS BY LOCATION OF LAST RESIDENCE FOR EACH SOCIAL GROUP
UP TO 1 YEAR

PERSONS

ALL-INDIA

SECTOR:

URBAN

-----------------------------------------------------------------------------------------------------------------------------------H.H. SOCIAL GROUP

LOCATION OF LAST RESIDENCE

PER 1000

NO. OF

MIGRANTS

________________________________________________________________________DISTRI- MIGRANTS

--------------------

SAME DISTRICT

ESTD.(00)

OTHER DISTRICT

OTHER STATE

OTHER

OF SAME STATE

N.R.

ALL

COUN-

--------------- --------------- --------------- TRIES


RURAL

URBAN

RURAL

URBAN

RURAL

BUTION

PER 1000

OF

PERSONS

SAMPLE

MIGRANTS

URBAN

-----------------------------------------------------------------------------------------------------------------------------------(1)

(2)

(3)

(4)

(5)

(6)

(7)

(8)

(9)

(10)

(11)

(12)

(13)

(14)

-----------------------------------------------------------------------------------------------------------------------------------SCHEDULED TRIBE

439

103

176

120

70

85

1000

33

265

1914

586

SCHEDULED CASTE

270

100

193

262

122

47

1000

120

208

7053

1095

OTHERS

250

146

136

218

98

145

1000

847

230

49693

7738

-----------------------------------------------------------------------------------------------------------------------------------TOTAL

258

139

144

220

100

131

1000

1000

228

58661

9419

-----------------------------------------------------------------------------------------------------------------------------------ESTD. MIGRANTS(00)

15144

8137

8445

12902

5882

7704

175

272

58661

-----------------------------------------------------------------------------------------------------------------------------------SAMPLE MIGRANTS

2623

1411

1392

1759

951

1184

46

53

9419

------------------------------------------------------------------------------------------------------------------------------------

TABLE-18

PER THOUSAND DISTRIBUTION OF MIGRANTS BY LOCATION OF LAST RESIDENCE FOR EACH SOCIAL GROUP
1 TO 4 YEARS

MALE

ALL-INDIA

SECTOR:

URBAN

-----------------------------------------------------------------------------------------------------------------------------------H.H. SOCIAL GROUP

LOCATION OF LAST RESIDENCE

PER 1000

NO. OF

MIGRANTS

________________________________________________________________________DISTRI- MIGRANTS

--------------------

SAME DISTRICT

ESTD.(00)

OTHER DISTRICT

OTHER STATE

OTHER

OF SAME STATE

N.R.

ALL

COUN-

--------------- --------------- --------------- TRIES


RURAL

URBAN

RURAL

URBAN

RURAL

BUTION

PER 1000

OF

PERSONS

SAMPLE

MIGRANTS

URBAN

-----------------------------------------------------------------------------------------------------------------------------------(1)

(2)

(3)

(4)

(5)

(6)

(7)

(8)

(9)

(10)

(11)

(12)

(13)

(14)

-----------------------------------------------------------------------------------------------------------------------------------SCHEDULED TRIBE

405

79

299

84

92

39

1000

26

251

1320

SCHEDULED CASTE

301

155

217

186

84

58

1000

111

234

5666

397
947

OTHERS

252

151

165

179

120

128

1000

863

238

44186

6650

-----------------------------------------------------------------------------------------------------------------------------------TOTAL

261

150

174

177

116

118

1000

1000

238

51172

7994

-----------------------------------------------------------------------------------------------------------------------------------ESTD. MIGRANTS(00)

13353

7668

8908

9054

5917

6022

206

45

51172

-----------------------------------------------------------------------------------------------------------------------------------SAMPLE MIGRANTS

2149

1101

1333

1442

966

942

47

14

7994

------------------------------------------------------------------------------------------------------------------------------------

Source : National Sample Survey Organisation,49th Round,Schedule 1.2

A - 118

TABLE-18

PER THOUSAND DISTRIBUTION OF MIGRANTS BY LOCATION OF LAST RESIDENCE FOR EACH SOCIAL GROUP
1 TO 4 YEARS

FEMALE

ALL-INDIA

SECTOR:

URBAN

-----------------------------------------------------------------------------------------------------------------------------------H.H. SOCIAL GROUP

LOCATION OF LAST RESIDENCE

PER 1000

NO. OF

MIGRANTS

________________________________________________________________________DISTRI- MIGRANTS

--------------------

SAME DISTRICT

ESTD.(00)

OTHER DISTRICT

OTHER STATE

OTHER

OF SAME STATE

N.R.

ALL

COUN-

--------------- --------------- --------------- TRIES


RURAL

URBAN

RURAL

URBAN

RURAL

BUTION

PER 1000

OF

PERSONS

SAMPLE

MIGRANTS

URBAN

-----------------------------------------------------------------------------------------------------------------------------------(1)

(2)

(3)

(4)

(5)

(6)

(7)

(8)

(9)

(10)

(11)

(12)

(13)

(14)

-----------------------------------------------------------------------------------------------------------------------------------SCHEDULED TRIBE

601

58

145

125

55

16

1000

27

211

1564

371

SCHEDULED CASTE

343

140

228

148

104

36

1000

127

188

7440

1013

OTHERS

287

165

144

208

79

113

1000

846

193

49526

6497

-----------------------------------------------------------------------------------------------------------------------------------TOTAL

302

159

155

199

81

101

1000

1000

192

58530

7881

-----------------------------------------------------------------------------------------------------------------------------------ESTD. MIGRANTS(00)

17701

9316

9067

11622

4763

5905

94

60

58530

-----------------------------------------------------------------------------------------------------------------------------------SAMPLE MIGRANTS

2389

1262

1238

1514

625

819

22

12

7881

------------------------------------------------------------------------------------------------------------------------------------

TABLE-18

PER THOUSAND DISTRIBUTION OF MIGRANTS BY LOCATION OF LAST RESIDENCE FOR EACH SOCIAL GROUP
1 TO 4 YEARS

PERSONS

ALL-INDIA

SECTOR:

URBAN

-----------------------------------------------------------------------------------------------------------------------------------H.H. SOCIAL GROUP

LOCATION OF LAST RESIDENCE

PER 1000

NO. OF

MIGRANTS

________________________________________________________________________DISTRI- MIGRANTS

--------------------

SAME DISTRICT

ESTD.(00)

OTHER DISTRICT

OTHER STATE

OTHER

OF SAME STATE

N.R.

ALL

COUN-

--------------- --------------- --------------- TRIES


RURAL

URBAN

RURAL

URBAN

RURAL

BUTION

PER 1000

OF

PERSONS

SAMPLE

MIGRANTS

URBAN

-----------------------------------------------------------------------------------------------------------------------------------(1)

(2)

(3)

(4)

(5)

(6)

(7)

(8)

(9)

(10)

(11)

(12)

(13)

(14)

-----------------------------------------------------------------------------------------------------------------------------------SCHEDULED TRIBE

512

67

215

106

72

26

1000

26

228

2884

768

SCHEDULED CASTE

325

147

223

165

95

45

1000

119

205

13106

1960

OTHERS

270

159

154

194

98

120

1000

854

212

93712

13147

-----------------------------------------------------------------------------------------------------------------------------------TOTAL

283

155

164

188

97

109

1000

1000

211

109702

15875

-----------------------------------------------------------------------------------------------------------------------------------ESTD. MIGRANTS(00)

31054

16984

17975

20676

10680

11927

300

105

109702

-----------------------------------------------------------------------------------------------------------------------------------SAMPLE MIGRANTS

4538

2363

2571

2956

1591

1761

69

26

15875

------------------------------------------------------------------------------------------------------------------------------------

Source : National Sample Survey Organisation,49th Round,Schedule 1.2

A - 119

TABLE-18

PER THOUSAND DISTRIBUTION OF MIGRANTS BY LOCATION OF LAST RESIDENCE FOR EACH SOCIAL GROUP
5 TO 9 YEARS

MALE

ALL-INDIA

SECTOR:

URBAN

-----------------------------------------------------------------------------------------------------------------------------------H.H. SOCIAL GROUP

LOCATION OF LAST RESIDENCE

PER 1000

NO. OF

MIGRANTS

________________________________________________________________________DISTRI- MIGRANTS

--------------------

SAME DISTRICT

ESTD.(00)

OTHER DISTRICT

OTHER STATE

OTHER

OF SAME STATE

N.R.

ALL

COUN-

--------------- --------------- --------------- TRIES


RURAL

URBAN

RURAL

URBAN

RURAL

BUTION

PER 1000

OF

PERSONS

SAMPLE

MIGRANTS

URBAN

-----------------------------------------------------------------------------------------------------------------------------------(1)

(2)

(3)

(4)

(5)

(6)

(7)

(8)

(9)

(10)

(11)

(12)

(13)

(14)

-----------------------------------------------------------------------------------------------------------------------------------SCHEDULED TRIBE

307

69

287

162

146

28

1000

23

254

1100

SCHEDULED CASTE

289

61

217

144

236

29

25

1000

130

221

6206

183
616

OTHERS

234

150

174

152

165

108

17

1000

847

220

40370

4140

-----------------------------------------------------------------------------------------------------------------------------------TOTAL

243

136

182

151

174

96

18

1000

1000

221

47677

4939

-----------------------------------------------------------------------------------------------------------------------------------ESTD. MIGRANTS(00)

11569

6503

8691

7208

8301

4557

838

10

47677

-----------------------------------------------------------------------------------------------------------------------------------SAMPLE MIGRANTS

1344

547

918

696

861

498

72

4939

------------------------------------------------------------------------------------------------------------------------------------

TABLE-18

PER THOUSAND DISTRIBUTION OF MIGRANTS BY LOCATION OF LAST RESIDENCE FOR EACH SOCIAL GROUP
5 TO 9 YEARS

FEMALE

ALL-INDIA

SECTOR:

URBAN

-----------------------------------------------------------------------------------------------------------------------------------H.H. SOCIAL GROUP

LOCATION OF LAST RESIDENCE

PER 1000

NO. OF

MIGRANTS

________________________________________________________________________DISTRI- MIGRANTS

--------------------

SAME DISTRICT

ESTD.(00)

OTHER DISTRICT

OTHER STATE

OTHER

OF SAME STATE

N.R.

ALL

COUN-

--------------- --------------- --------------- TRIES


RURAL

URBAN

RURAL

URBAN

RURAL

BUTION

PER 1000

OF

PERSONS

SAMPLE

MIGRANTS

URBAN

-----------------------------------------------------------------------------------------------------------------------------------(1)

(2)

(3)

(4)

(5)

(6)

(7)

(8)

(9)

(10)

(11)

(12)

(13)

(14)

-----------------------------------------------------------------------------------------------------------------------------------SCHEDULED TRIBE

533

46

215

129

57

18

1000

32

188

2088

275

SCHEDULED CASTE

434

90

194

96

124

34

23

1000

126

185

8122

862

OTHERS

301

163

167

172

100

93

1000

841

175

54032

5376

-----------------------------------------------------------------------------------------------------------------------------------TOTAL

325

150

172

161

101

83

1000

1000

176

64241

6513

-----------------------------------------------------------------------------------------------------------------------------------ESTD. MIGRANTS(00)

20879

9654

11056

10351

6501

5312

415

74

64241

-----------------------------------------------------------------------------------------------------------------------------------SAMPLE MIGRANTS

2174

917

1143

970

731

536

34

6513

------------------------------------------------------------------------------------------------------------------------------------

Source : National Sample Survey Organisation,49th Round,Schedule 1.2

A - 120

TABLE-18

PER THOUSAND DISTRIBUTION OF MIGRANTS BY LOCATION OF LAST RESIDENCE FOR EACH SOCIAL GROUP
5 TO 9 YEARS

PERSONS

ALL-INDIA

SECTOR:

URBAN

-----------------------------------------------------------------------------------------------------------------------------------H.H. SOCIAL GROUP

LOCATION OF LAST RESIDENCE

PER 1000

NO. OF

MIGRANTS

________________________________________________________________________DISTRI- MIGRANTS

--------------------

SAME DISTRICT

ESTD.(00)

OTHER DISTRICT

OTHER STATE

OTHER

OF SAME STATE

N.R.

ALL

COUN-

--------------- --------------- --------------- TRIES


RURAL

URBAN

RURAL

URBAN

RURAL

BUTION

PER 1000

OF

PERSONS

SAMPLE

MIGRANTS

URBAN

-----------------------------------------------------------------------------------------------------------------------------------(1)

(2)

(3)

(4)

(5)

(6)

(7)

(8)

(9)

(10)

(11)

(12)

(13)

(14)

-----------------------------------------------------------------------------------------------------------------------------------SCHEDULED TRIBE

455

54

240

140

88

22

1000

28

207

3187

458

SCHEDULED CASTE

371

78

204

117

172

32

24

1000

128

199

14328

1478

OTHERS

272

158

170

164

128

99

10

1000

843

192

94402

9516

-----------------------------------------------------------------------------------------------------------------------------------TOTAL

290

144

176

157

132

88

11

1000

1000

193

111918

11452

-----------------------------------------------------------------------------------------------------------------------------------ESTD. MIGRANTS(00)

32448

16157

19747

17559

14802

9869

1253

84

111918

-----------------------------------------------------------------------------------------------------------------------------------SAMPLE MIGRANTS

3518

1464

2061

1666

1592

1034

106

11

11452

------------------------------------------------------------------------------------------------------------------------------------

TABLE-18

PER THOUSAND DISTRIBUTION OF MIGRANTS BY LOCATION OF LAST RESIDENCE FOR EACH SOCIAL GROUP
10 YEARS & ABOVE

MALE

ALL-INDIA

SECTOR:

URBAN

-----------------------------------------------------------------------------------------------------------------------------------H.H. SOCIAL GROUP

LOCATION OF LAST RESIDENCE

PER 1000

NO. OF

MIGRANTS

________________________________________________________________________DISTRI- MIGRANTS

--------------------

SAME DISTRICT

ESTD.(00)

OTHER DISTRICT

OTHER STATE

OTHER

OF SAME STATE

N.R.

ALL

COUN-

--------------- --------------- --------------- TRIES


RURAL

URBAN

RURAL

URBAN

RURAL

BUTION

PER 1000

OF

PERSONS

SAMPLE

MIGRANTS

URBAN

-----------------------------------------------------------------------------------------------------------------------------------(1)

(2)

(3)

(4)

(5)

(6)

(7)

(8)

(9)

(10)

(11)

(12)

(13)

(14)

-----------------------------------------------------------------------------------------------------------------------------------SCHEDULED TRIBE

419

16

271

51

151

76

11

1000

25

196

2803

340

SCHEDULED CASTE

228

51

255

78

283

68

34

1000

146

188

16285

1542

OTHERS

206

77

223

136

218

111

27

1000

829

192

92534

9674

-----------------------------------------------------------------------------------------------------------------------------------TOTAL

215

72

229

125

226

104

27

1000

1000

192

111622

11556

-----------------------------------------------------------------------------------------------------------------------------------ESTD. MIGRANTS(00)

23972

7984

25528

13967

25236

11633

3060

242

111622

-----------------------------------------------------------------------------------------------------------------------------------SAMPLE MIGRANTS

2561

829

2562

1420

2652

1157

351

24

11556

------------------------------------------------------------------------------------------------------------------------------------

Source : National Sample Survey Organisation,49th Round,Schedule 1.2

A - 121

TABLE-18

PER THOUSAND DISTRIBUTION OF MIGRANTS BY LOCATION OF LAST RESIDENCE FOR EACH SOCIAL GROUP
10 YEARS & ABOVE

FEMALE

ALL-INDIA

SECTOR:

URBAN

-----------------------------------------------------------------------------------------------------------------------------------H.H. SOCIAL GROUP

LOCATION OF LAST RESIDENCE

PER 1000

NO. OF

MIGRANTS

________________________________________________________________________DISTRI- MIGRANTS

--------------------

SAME DISTRICT

ESTD.(00)

OTHER DISTRICT

OTHER STATE

OTHER

OF SAME STATE

N.R.

ALL

COUN-

--------------- --------------- --------------- TRIES


RURAL

URBAN

RURAL

URBAN

RURAL

BUTION

PER 1000

OF

PERSONS

SAMPLE

MIGRANTS

URBAN

-----------------------------------------------------------------------------------------------------------------------------------(1)

(2)

(3)

(4)

(5)

(6)

(7)

(8)

(9)

(10)

(11)

(12)

(13)

(14)

-----------------------------------------------------------------------------------------------------------------------------------SCHEDULED TRIBE

601

50

177

43

70

55

1000

33

176

6211

649

SCHEDULED CASTE

425

92

229

93

115

33

12

1000

153

174

29000

2711

OTHERS

331

131

192

149

100

80

16

1000

814

171

153811

15492

-----------------------------------------------------------------------------------------------------------------------------------TOTAL

355

122

197

137

101

72

15

1000

1000

172

189022

18852

-----------------------------------------------------------------------------------------------------------------------------------ESTD. MIGRANTS(00)

67028

23125

37246

25840

19149

13554

2807

274

189022

-----------------------------------------------------------------------------------------------------------------------------------SAMPLE MIGRANTS

6753

2344

3576

2406

2050

1388

305

30

18852

------------------------------------------------------------------------------------------------------------------------------------

TABLE-18

PER THOUSAND DISTRIBUTION OF MIGRANTS BY LOCATION OF LAST RESIDENCE FOR EACH SOCIAL GROUP
10 YEARS & ABOVE

PERSONS

ALL-INDIA

SECTOR:

URBAN

-----------------------------------------------------------------------------------------------------------------------------------H.H. SOCIAL GROUP

LOCATION OF LAST RESIDENCE

PER 1000

NO. OF

MIGRANTS

________________________________________________________________________DISTRI- MIGRANTS

--------------------

SAME DISTRICT

ESTD.(00)

OTHER DISTRICT

OTHER STATE

OTHER

OF SAME STATE

N.R.

ALL

COUN-

--------------- --------------- --------------- TRIES


RURAL

URBAN

RURAL

URBAN

RURAL

BUTION

PER 1000

OF

PERSONS

SAMPLE

MIGRANTS

URBAN

-----------------------------------------------------------------------------------------------------------------------------------(1)

(2)

(3)

(4)

(5)

(6)

(7)

(8)

(9)

(10)

(11)

(12)

(13)

(14)

-----------------------------------------------------------------------------------------------------------------------------------SCHEDULED TRIBE

544

40

206

45

95

62

1000

30

182

9014

989

SCHEDULED CASTE

354

77

238

88

175

46

20

1000

151

179

45285

4253

OTHERS

284

111

204

144

144

92

20

1000

819

179

246345

25166

-----------------------------------------------------------------------------------------------------------------------------------TOTAL

303

103

209

132

148

84

20

1000

1000

179

300644

30408

-----------------------------------------------------------------------------------------------------------------------------------ESTD. MIGRANTS(00)

91000

31109

62774

39807

44384

25186

5867

516

300644

-----------------------------------------------------------------------------------------------------------------------------------SAMPLE MIGRANTS

9314

3173

6138

3826

4702

2545

656

54

30408

------------------------------------------------------------------------------------------------------------------------------------

Source : National Sample Survey Organisation,49th Round,Schedule 1.2

A - 122

TABLE-19

: PER THOUSAND DISTRIBUTION OF MIGRANTS BY USUAL ACTIVITY CATEGORY AFTER


MIGRATION FOR EACH USUAL ACTIVITY CATEGORY BEFORE MIGRATION

ALL-INDIA

MALE

UPTO 1 YEAR

SECTOR : RURAL

-----------------------------------------------------------------------------------------------------------------------------------USUAL ACTIVITY AFTER MIGRATION


USUAL

ACTIVITY

------------------------------------------------------------------ PER 1000

BEFORE MIGRATION

WORKING

UNEMPLO-

------------------------------------------YED
SELF

REG.

CASUAL

EMPLOYED

EMPLOYEE

LABOUR

----------- ----------- ----------AGRL.

NON- AGRL.
AGRL.

NON- AGRL.
AGRL.

NOT IN

NO.OF

MIGRANTS

DISTRIBU- MIGRANTS --------------------

LABOUR FORCE

TION

------------

MIGRANTS

TOTAL

STUD- OTHERS TOTAL

EMPL-

ENTS

OF

PER 1000

ESTD.

PERSONS

(00)

SAMPLE

NON- OYED
AGRL.

-----------------------------------------------------------------------------------------------------------------------------------(1)

(2)

(3)

(4)

(5)

(6)

(7)

(8)

(9)

(10)

(11) (12)

(13)

(14)

(15)

(16)

-----------------------------------------------------------------------------------------------------------------------------------SELF

AGRI.

513

76

305

28

53

980

18

1000

59

2141

EMPLOYED

NON AGRI.

129

756

20

30

42

980

19

1000

75

2722

264
316

ALL

298

457

13

151

36

25

980

12

1000

134

4863

580

REG.

AGRI.

47

19

853

76

998

1000

166

54

EMPLOYEE

NON AGRI.

70

12

779

16

885

47

25

43

1000

125

4540

648

ALL

69

12

31

752

16

889

45

24

42

1000

130

4706

702

CASUAL

AGRI.

91

56

34

48

651

102

983

10

1000

102

3690

561

LABOUR

NON AGRI.

45

20

20

53

845

987

1000

229

8314

378

ALL

59

31

13

29

237

617

986

1000

331

12004

939

-----------------------------------------------------------------------------------------------------------------------------------EMPLOYED (01-06)

115

123

17

214

142

352

963

14

15

1000

594

21573

2221

-----------------------------------------------------------------------------------------------------------------------------------UNEMPLOYED

29

242

41

360

23

50

745

226

19

11

1000

21

747

NOT IN

STUDENT

30

10

85

14

16

158

45

788

1000

155

5619

111
843

LABOUR

OTHERS

27

17

12

19

21

99

80

819

1000

231

8378

959

FORCE

ALL

28

14

41

17

19

123

19

364

494

1000

385

13997

1802

-----------------------------------------------------------------------------------------------------------------------------------TOTAL

80

83

12

151

91

218

635

20

145

199

1000

1000

36316

4134

-----------------------------------------------------------------------------------------------------------------------------------ESTD. MIGRANTS (00)

2897

445
3032

3315
5468

23061
7903

5278
739

36316

7238

------------------------------------------------------------------------------------------------------------------------------------

SAMPLE MIGRANTS

378

103

511

2435

799

4134

------------------------------------------------------------------------------------------------------------------------------------

Source : National Sample Survey Organisation,49th Round,Schedule 1.2

A - 123

TABLE-19

: PER THOUSAND DISTRIBUTION OF MIGRANTS BY USUAL ACTIVITY CATEGORY AFTER


MIGRATION FOR EACH USUAL ACTIVITY CATEGORY BEFORE MIGRATION

ALL-INDIA

MALE

1 TO 4 YEARS

SECTOR : RURAL

-----------------------------------------------------------------------------------------------------------------------------------USUAL ACTIVITY AFTER MIGRATION


USUAL

ACTIVITY

------------------------------------------------------------------ PER 1000

BEFORE MIGRATION

WORKING

UNEMPLO-

------------------------------------------YED
SELF

REG.

CASUAL

EMPLOYED

EMPLOYEE

LABOUR

----------- ----------- ----------AGRL.

NON- AGRL.
AGRL.

NON- AGRL.
AGRL.

NOT IN

NO.OF

MIGRANTS

DISTRIBU- MIGRANTS --------------------

LABOUR FORCE

TION

------------

MIGRANTS

TOTAL

STUD- OTHERS TOTAL

EMPL-

ENTS

OF

PER 1000

ESTD.

PERSONS

(00)

SAMPLE

NON- OYED
AGRL.

-----------------------------------------------------------------------------------------------------------------------------------(1)

(2)

(3)

(4)

(5)

(6)

(7)

(8)

(9)

(10)

(11) (12)

(13)

(14)

(15)

(16)

-----------------------------------------------------------------------------------------------------------------------------------SELF

AGRI.

EMPLOYED

NON AGRI.
ALL

436

118

285

63

21

928

10

58

1000

85

3485

450

44

851

29

19

34

980

11

1000

69

2849

383

260

448

170

43

27

951

11

36

1000

154

6335

833

REG.

AGRI.

13

729

147

28

920

80

1000

382

53

EMPLOYEE

NON AGRI.

87

53

771

17

12

943

10

48

1000

156

6416

841

ALL

83

50

44

736

17

12

941

49

1000

165

6798

894

CASUAL

AGRI.

69

48

51

31

668

105

971

28

1000

109

4482

670

LABOUR

NON AGRI.

78

41

152

122

556

947

12

38

1000

68

2793

320

ALL

72

45

32

77

458

278

962

32

1000

177

7274

990

-----------------------------------------------------------------------------------------------------------------------------------EMPLOYED (01-06)

134

172

27

325

182

111

952

39

1000

495

20407

2717

-----------------------------------------------------------------------------------------------------------------------------------UNEMPLOYED

24

97

11

548

37

123

840

133

25

1000

33

1376

149

NOT IN

STUDENT

38

28

97

20

11

194

31

744

31

1000

223

9195

1273

LABOUR

OTHERS

52

44

16

28

44

190

371

433

1000

248

10220

1209

FORCE

ALL

46

36

61

33

192

18

548

243

1000

471

19414

2482

-----------------------------------------------------------------------------------------------------------------------------------TOTAL

89

106

18

208

107

63

590

17

259

134

1000

1000

41197

5348

-----------------------------------------------------------------------------------------------------------------------------------ESTD. MIGRANTS (00)

3654

731
4346

4404
8571

24312
2606

10687
693

41197

5506

------------------------------------------------------------------------------------------------------------------------------------

SAMPLE MIGRANTS

526

106

684

3176

1325

5348

------------------------------------------------------------------------------------------------------------------------------------

Source : National Sample Survey Organisation,49th Round,Schedule 1.2

A - 124

TABLE-19

: PER THOUSAND DISTRIBUTION OF MIGRANTS BY USUAL ACTIVITY CATEGORY AFTER


MIGRATION FOR EACH USUAL ACTIVITY CATEGORY BEFORE MIGRATION

ALL-INDIA

MALE

5 TO 9 YEARS

SECTOR : RURAL

-----------------------------------------------------------------------------------------------------------------------------------USUAL ACTIVITY AFTER MIGRATION


USUAL

ACTIVITY

------------------------------------------------------------------ PER 1000

BEFORE MIGRATION

WORKING

UNEMPLO-

------------------------------------------YED
SELF

REG.

CASUAL

EMPLOYED

EMPLOYEE

LABOUR

----------- ----------- ----------AGRL.

NON- AGRL.
AGRL.

NON- AGRL.
AGRL.

NOT IN

NO.OF

MIGRANTS

DISTRIBU- MIGRANTS --------------------

LABOUR FORCE

TION

------------

MIGRANTS

TOTAL

STUD- OTHERS TOTAL

EMPL-

ENTS

OF

PER 1000

ESTD.

PERSONS

(00)

SAMPLE

NON- OYED
AGRL.

-----------------------------------------------------------------------------------------------------------------------------------(1)

(2)

(3)

(4)

(5)

(6)

(7)

(8)

(9)

(10)

(11) (12)

(13)

(14)

(15)

(16)

-----------------------------------------------------------------------------------------------------------------------------------SELF

AGRI.

EMPLOYED

NON AGRI.

592

98

92

86

29

901

90

1000

84

3239

336

65

806

10

14

39

942

51

1000

81

3137

225

ALL

333

446

52

51

34

921

30

47

1000

165

6375

561

REG.

AGRI.

142

270

503

82

1000

1000

10

376

32

EMPLOYEE

NON AGRI.

86

58

739

31

920

12

69

1000

146

5656

421

ALL

90

71

31

693

35

925

11

64

1000

156

6033

453

CASUAL

AGRI.

86

48

23

82

688

42

969

30

1000

132

5098

458

LABOUR

NON AGRI.

128

93

97

86

549

952

47

1000

50

1921

165

97

60

17

86

524

181

965

35

1000

181

7018

623

ALL

-----------------------------------------------------------------------------------------------------------------------------------EMPLOYED (01-06)

172

190

18

263

216

78

938

10

48

1000

501

19427

1637

-----------------------------------------------------------------------------------------------------------------------------------UNEMPLOYED

18

89

698

16

168

990

1000

35

1370

108

NOT IN

STUDENT

55

117

161

37

12

387

27

567

20

1000

210

8150

602

LABOUR

OTHERS

106

53

29

59

28

280

11

507

202

1000

253

9797

794

FORCE

ALL

83

82

89

49

21

328

18

534

119

1000

463

17948

1396

-----------------------------------------------------------------------------------------------------------------------------------TOTAL

125

137

11

198

132

55

657

10

253

80

1000

1000

38745

3141

-----------------------------------------------------------------------------------------------------------------------------------ESTD. MIGRANTS (00)

4856

415
5295

5114
7669

25472
2123

9784
401

38745

3088

------------------------------------------------------------------------------------------------------------------------------------

SAMPLE MIGRANTS

474

45

428

2040

798

3141

------------------------------------------------------------------------------------------------------------------------------------

Source : National Sample Survey Organisation,49th Round,Schedule 1.2

A - 125

TABLE-19

: PER THOUSAND DISTRIBUTION OF MIGRANTS BY USUAL ACTIVITY CATEGORY AFTER


MIGRATION FOR EACH USUAL ACTIVITY CATEGORY BEFORE MIGRATION

ALL-INDIA

MALE

10 YEARS & ABOVE

SECTOR : RURAL

-----------------------------------------------------------------------------------------------------------------------------------USUAL ACTIVITY AFTER MIGRATION


USUAL

ACTIVITY

------------------------------------------------------------------ PER 1000

BEFORE MIGRATION

WORKING

UNEMPLO-

------------------------------------------YED
SELF

REG.

CASUAL

EMPLOYED

EMPLOYEE

LABOUR

----------- ----------- ----------AGRL.

NON- AGRL.
AGRL.

NON- AGRL.
AGRL.

NOT IN

NO.OF

MIGRANTS

DISTRIBU- MIGRANTS --------------------

LABOUR FORCE

TION

------------

MIGRANTS

TOTAL

STUD- OTHERS TOTAL

EMPL-

ENTS

OF

PER 1000

ESTD.

PERSONS

(00)

SAMPLE

NON- OYED
AGRL.

-----------------------------------------------------------------------------------------------------------------------------------(1)

(2)

(3)

(4)

(5)

(6)

(7)

(8)

(9)

(10)

(11) (12)

(13)

(14)

(15)

(16)

-----------------------------------------------------------------------------------------------------------------------------------SELF

AGRI.

640

85

71

89

10

899

97

1000

150

11741

EMPLOYED

NON AGRI.

138

714

47

17

918

76

1000

74

5788

1041
418

ALL

474

293

63

65

905

90

1000

224

17529

1459

REG.

AGRI.

39

98

551

32

47

767

52

180

1000

524

52

EMPLOYEE

NON AGRI.

140

59

629

16

849

142

1000

92

7175

633

ALL

133

61

39

588

15

843

145

1000

98

7699

685

CASUAL

AGRI.

136

45

23

46

545

42

838

161

1000

196

15361

1134

LABOUR

NON AGRI.

152

124

96

61

457

891

108

1000

47

3698

292

ALL

139

60

19

55

451

122

848

151

1000

243

19058

1426

-----------------------------------------------------------------------------------------------------------------------------------EMPLOYED (01-06)

271

153

16

151

221

58

870

126

1000

565

44286

3570

-----------------------------------------------------------------------------------------------------------------------------------UNEMPLOYED

202

384

267

70

21

949

10

42

1000

24

1856

NOT IN

STUDENT

243

249

130

96

72

792

13

169

25

1000

101

7949

192
684

LABOUR

OTHERS

210

107

16

58

182

60

634

22

163

181

1000

310

24280

1570

FORCE

ALL

218

142

13

76

161

63

673

20

165

142

1000

411

32229

2254

-----------------------------------------------------------------------------------------------------------------------------------TOTAL

248

154

14

123

193

59

791

10

69

131

1000

1000

13

78371

6016

-----------------------------------------------------------------------------------------------------------------------------------ESTD. MIGRANTS (00)

19407

1126
12050

15117
9628

61980
4652

5408
752

78371

10230

------------------------------------------------------------------------------------------------------------------------------------

SAMPLE MIGRANTS

1692

125

1086

4867

417

6016

------------------------------------------------------------------------------------------------------------------------------------

Source : National Sample Survey Organisation,49th Round,Schedule 1.2

A - 126

TABLE-19

: PER THOUSAND DISTRIBUTION OF MIGRANTS BY USUAL ACTIVITY CATEGORY AFTER


MIGRATION FOR EACH USUAL ACTIVITY CATEGORY BEFORE MIGRATION

ALL-INDIA

FEMALE

UPTO 1 YEAR

SECTOR : RURAL

-----------------------------------------------------------------------------------------------------------------------------------USUAL ACTIVITY AFTER MIGRATION


USUAL

ACTIVITY

------------------------------------------------------------------ PER 1000

BEFORE MIGRATION

WORKING

UNEMPLO-

------------------------------------------YED
SELF

REG.

CASUAL

EMPLOYED

EMPLOYEE

LABOUR

----------- ----------- ----------AGRL.

NON- AGRL.
AGRL.

NON- AGRL.
AGRL.

NOT IN

NO.OF

MIGRANTS

DISTRIBU- MIGRANTS --------------------

LABOUR FORCE

TION

------------

MIGRANTS

TOTAL

STUD- OTHERS TOTAL

EMPL-

ENTS

OF

PER 1000

ESTD.

PERSONS

(00)

SAMPLE

NON- OYED
AGRL.

-----------------------------------------------------------------------------------------------------------------------------------(1)

(2)

(3)

(4)

(5)

(6)

(7)

(8)

(9)

(10)

(11) (12)

(13)

(14)

(15)

(16)

-----------------------------------------------------------------------------------------------------------------------------------SELF

AGRI.

EMPLOYED

NON AGRI.
ALL

560

63

47

675

324

1000

72

5276

58

790

35

57

943

11

46

1000

11

797

410
75

494

107

62

41

710

287

1000

83

6074

485

REG.

AGRI.

206

28

234

766

1000

82

EMPLOYEE

NON AGRI.

718

718

14

22

246

1000

587

99

CASUAL

AGRI.

LABOUR

NON AGRI.

ALL

ALL

25

630

659

13

19

310

1000

669

108

111

22

693

26

854

143

1000

86

6285

581

30

931

967

29

1000

53

3850

106

70

14

441

369

897

100

1000

138

10136

687

-----------------------------------------------------------------------------------------------------------------------------------EMPLOYED (01-06)

220

47

27

287

237

820

175

1000

231

16879

1280

-----------------------------------------------------------------------------------------------------------------------------------UNEMPLOYED

82

55

10

150

596

254

1000

467

34

NOT IN

STUDENT

57

10

82

602

310

1000

67

4914

675

LABOUR

OTHERS

48

10

36

12

113

20

865

1000

696

50964

4037

FORCE

ALL

49

33

12

111

71

816

1000

763

10

55878

4712

-----------------------------------------------------------------------------------------------------------------------------------TOTAL

89

18

10

91

64

274

55

665

1000

1000

12

73223

6026

-----------------------------------------------------------------------------------------------------------------------------------ESTD. MIGRANTS (00)

6499

191
1327

6682
738

20091
4654

4022
412

73223

48698

------------------------------------------------------------------------------------------------------------------------------------

SAMPLE MIGRANTS

492

15

601

1485

583

6026

------------------------------------------------------------------------------------------------------------------------------------

Source : National Sample Survey Organisation,49th Round,Schedule 1.2

A - 127

TABLE-19

: PER THOUSAND DISTRIBUTION OF MIGRANTS BY USUAL ACTIVITY CATEGORY AFTER


MIGRATION FOR EACH USUAL ACTIVITY CATEGORY BEFORE MIGRATION

ALL-INDIA

FEMALE

1 TO 4 YEARS

SECTOR : RURAL

-----------------------------------------------------------------------------------------------------------------------------------USUAL ACTIVITY AFTER MIGRATION


USUAL

ACTIVITY

------------------------------------------------------------------ PER 1000

BEFORE MIGRATION

WORKING

UNEMPLO-

------------------------------------------YED
SELF

REG.

CASUAL

EMPLOYED

EMPLOYEE

LABOUR

----------- ----------- ----------AGRL.

NON- AGRL.
AGRL.

NON- AGRL.
AGRL.

NOT IN

NO.OF

MIGRANTS

DISTRIBU- MIGRANTS --------------------

LABOUR FORCE

TION

------------

MIGRANTS

TOTAL

STUD- OTHERS TOTAL

EMPL-

ENTS

OF

PER 1000

ESTD.

PERSONS

(00)

SAMPLE

NON- OYED
AGRL.

-----------------------------------------------------------------------------------------------------------------------------------(1)

(2)

(3)

(4)

(5)

(6)

(7)

(8)

(9)

(10)

(11) (12)

(13)

(14)

(15)

(16)

-----------------------------------------------------------------------------------------------------------------------------------SELF

AGRI.

EMPLOYED

NON AGRI.
ALL

653

12

50

43

760

240

1000

103

15104

13

688

32

14

746

254

1000

1274

1070
131

603

64

48

41

759

241

1000

112

16378

1201

REG.

AGRI.

26

593

23

651

349

1000

213

17

EMPLOYEE

NON AGRI.

760

28

799

13

188

1000

1201

166

CASUAL

AGRI.

LABOUR

NON AGRI.

ALL

ALL

91

646

27

777

11

212

1000

10

1414

183

77

12

703

31

835

165

1000

98

14303

990

154

157

568

888

16

96

1000

1192

97

83

12

661

72

839

159

1000

106

15494

1087

-----------------------------------------------------------------------------------------------------------------------------------EMPLOYED (01-06)

336

37

32

333

54

797

202

1000

227

33286

2471

-----------------------------------------------------------------------------------------------------------------------------------UNEMPLOYED

74

178

177

429

399

173

1000

434

40

NOT IN

STUDENT

26

13

20

67

10

581

342

1000

60

8799

975

LABOUR

OTHERS

62

11

55

141

35

822

1000

710

18

103878

7521

FORCE

ALL

59

11

51

135

78

785

1000

770

19

112677

8496

-----------------------------------------------------------------------------------------------------------------------------------TOTAL

122

17

14

115

16

286

60

650

1000

1000

25

146398

11007

-----------------------------------------------------------------------------------------------------------------------------------ESTD. MIGRANTS (00)

17833

344
2493

16818
2102

41926
2336

8774
494

146398

95202

------------------------------------------------------------------------------------------------------------------------------------

SAMPLE MIGRANTS

1294

28

1128

3066

973

11007

------------------------------------------------------------------------------------------------------------------------------------

Source : National Sample Survey Organisation,49th Round,Schedule 1.2

A - 128

TABLE-19

: PER THOUSAND DISTRIBUTION OF MIGRANTS BY USUAL ACTIVITY CATEGORY AFTER


MIGRATION FOR EACH USUAL ACTIVITY CATEGORY BEFORE MIGRATION

ALL-INDIA

FEMALE

5 TO 9 YEARS

SECTOR : RURAL

-----------------------------------------------------------------------------------------------------------------------------------USUAL ACTIVITY AFTER MIGRATION


USUAL

ACTIVITY

------------------------------------------------------------------ PER 1000

BEFORE MIGRATION

WORKING

UNEMPLO-

------------------------------------------YED
SELF

REG.

CASUAL

EMPLOYED

EMPLOYEE

LABOUR

----------- ----------- ----------AGRL.

NON- AGRL.
AGRL.

NON- AGRL.
AGRL.

NOT IN

NO.OF

MIGRANTS

DISTRIBU- MIGRANTS --------------------

LABOUR FORCE

TION

------------

MIGRANTS

TOTAL

STUD- OTHERS TOTAL

EMPL-

ENTS

OF

PER 1000

ESTD.

PERSONS

(00)

SAMPLE

NON- OYED
AGRL.

-----------------------------------------------------------------------------------------------------------------------------------(1)

(2)

(3)

(4)

(5)

(6)

(7)

(8)

(9)

(10)

(11) (12)

(13)

(14)

(15)

(16)

-----------------------------------------------------------------------------------------------------------------------------------SELF

AGRI.

EMPLOYED

NON AGRI.

696

11

79

14

805

195

1000

102

18142

17

695

53

82

846

78

75

1000

12

2057

1259
87

ALL

627

81

10

79

12

809

183

1000

114

20199

1346

REG.

AGRI.

486

43

60

589

411

1000

110

10

EMPLOYEE

NON AGRI.

73

781

19

877

123

1000

1089

68

ALL

111

709

23

850

150

1000

1199

78

CASUAL

AGRI.

120

26

672

826

174

1000

104

18462

1019

LABOUR

NON AGRI.

115

44

106

480

745

254

1000

1604

70

ALL

119

27

627

42

819

180

1000

113

20066

1089

-----------------------------------------------------------------------------------------------------------------------------------EMPLOYED (01-06)

366

53

27

343

26

815

181

1000

234

41465

2513

-----------------------------------------------------------------------------------------------------------------------------------UNEMPLOYED

166

33

194

163

113

668

29

303

1000

100

17

NOT IN

STUDENT

65

10

40

26

143

311

539

1000

42

7458

558

LABOUR

OTHERS

82

14

92

206

40

753

1000

724

22

128462

7774

FORCE

ALL

81

13

88

203

55

742

1000

766

23

135919

8332

-----------------------------------------------------------------------------------------------------------------------------------TOTAL

148

23

12

148

13

346

43

610

1000

1000

30

177484

10862

-----------------------------------------------------------------------------------------------------------------------------------ESTD. MIGRANTS (00)

26219

621
4007

26182
2082

61429
2318

7639
91

177484

108324

------------------------------------------------------------------------------------------------------------------------------------

SAMPLE MIGRANTS

1695

40

1305

3493

577

10862

------------------------------------------------------------------------------------------------------------------------------------

Source : National Sample Survey Organisation,49th Round,Schedule 1.2

A - 129

TABLE-19

: PER THOUSAND DISTRIBUTION OF MIGRANTS BY USUAL ACTIVITY CATEGORY AFTER


MIGRATION FOR EACH USUAL ACTIVITY CATEGORY BEFORE MIGRATION

ALL-INDIA

FEMALE

10 YEARS & ABOVE

SECTOR : RURAL

-----------------------------------------------------------------------------------------------------------------------------------USUAL ACTIVITY AFTER MIGRATION


USUAL

ACTIVITY

------------------------------------------------------------------ PER 1000

BEFORE MIGRATION

WORKING

UNEMPLO-

------------------------------------------YED
SELF

REG.

CASUAL

EMPLOYED

EMPLOYEE

LABOUR

----------- ----------- ----------AGRL.

NON- AGRL.
AGRL.

NON- AGRL.
AGRL.

NOT IN

NO.OF

MIGRANTS

DISTRIBU- MIGRANTS --------------------

LABOUR FORCE

TION

------------

MIGRANTS

TOTAL

STUD- OTHERS TOTAL

EMPL-

ENTS

OF

PER 1000

ESTD.

PERSONS

(00)

SAMPLE

NON- OYED
AGRL.

-----------------------------------------------------------------------------------------------------------------------------------(1)

(2)

(3)

(4)

(5)

(6)

(7)

(8)

(9)

(10)

(11) (12)

(13)

(14)

(15)

(16)

-----------------------------------------------------------------------------------------------------------------------------------SELF

AGRI.

EMPLOYED

NON AGRI.

672

71

14

769

231

1000

134

17

98952

79

714

21

823

177

1000

5119

263

ALL

643

43

69

14

772

228

1000

140

18

104071

6440

REG.

AGRI.

157

94

470

48

774

226

1000

995

40

EMPLOYEE

NON AGRI.

70

37

504

38

649

351

1000

1395

125

ALL

106

61

196

296

42

701

299

1000

2390

165

CASUAL

AGRI.

125

18

630

795

204

1000

106

13

78202

3929

LABOUR

NON AGRI.

86

35

27

90

416

654

346

1000

4118

197

123

18

603

30

788

211

1000

111

14

82319

4126

ALL

6177

-----------------------------------------------------------------------------------------------------------------------------------EMPLOYED (01-06)

410

33

302

20

778

221

1000

255

32

188780

10731

-----------------------------------------------------------------------------------------------------------------------------------UNEMPLOYED

223

125

80

82

12

523

31

446

1000

1019

70

NOT IN

STUDENT

72

20

55

31

17

204

12

62

723

1000

10

7590

634

LABOUR

OTHERS

118

15

84

236

759

1000

734

93

543553

32674

FORCE

ALL

117

15

84

236

758

1000

744

94

551143

33308

-----------------------------------------------------------------------------------------------------------------------------------TOTAL

192

19

139

11

374

621

1000

1000

126

740942

44109

-----------------------------------------------------------------------------------------------------------------------------------ESTD. MIGRANTS (00)

142046

2773
14448

103131
6481

277258
8378

3017
621

740942

460046

------------------------------------------------------------------------------------------------------------------------------------

SAMPLE MIGRANTS

8659

161

5191

15656

279

44109

------------------------------------------------------------------------------------------------------------------------------------

Source : National Sample Survey Organisation,49th Round,Schedule 1.2

A - 130

TABLE-19

: PER THOUSAND DISTRIBUTION OF MIGRANTS BY USUAL ACTIVITY CATEGORY AFTER


MIGRATION FOR EACH USUAL ACTIVITY CATEGORY BEFORE MIGRATION

ALL-INDIA

PERSONS

UPTO 1 YEAR

SECTOR : RURAL

-----------------------------------------------------------------------------------------------------------------------------------USUAL ACTIVITY AFTER MIGRATION


USUAL

ACTIVITY

------------------------------------------------------------------ PER 1000

BEFORE MIGRATION

WORKING

UNEMPLO-

------------------------------------------YED
SELF

REG.

CASUAL

EMPLOYED

EMPLOYEE

LABOUR

----------- ----------- ----------AGRL.

NON- AGRL.
AGRL.

NON- AGRL.
AGRL.

NOT IN

NO.OF

MIGRANTS

DISTRIBU- MIGRANTS --------------------

LABOUR FORCE

TION

------------

MIGRANTS

TOTAL

STUD- OTHERS TOTAL

EMPL-

ENTS

OF

PER 1000

ESTD.

PERSONS

(00)

SAMPLE

NON- OYED
AGRL.

-----------------------------------------------------------------------------------------------------------------------------------(1)

(2)

(3)

(4)

(5)

(6)

(7)

(8)

(9)

(10)

(11) (12)

(13)

(14)

(15)

(16)

-----------------------------------------------------------------------------------------------------------------------------------SELF

AGRI.

547

25

89

52

49

763

236

1000

68

7417

EMPLOYED

NON AGRI.

113

764

24

24

45

972

17

11

1000

32

3519

674
391

ALL

407

262

68

50

34

830

163

1000

100

10936

1065

REG.

AGRI.

32

13

640

60

746

253

1000

247

63

EMPLOYEE

NON AGRI.

62

10

772

15

866

43

25

66

1000

47

5128

747

CASUAL

AGRI.

LABOUR

ALL

61

11

30

737

14

860

41

24

75

1000

49

5375

810

104

35

14

18

677

54

902

92

1000

91

9975

1142

NON AGRI.

32

14

15

46

872

981

14

1000

111

12165

484

ALL

64

23

16

330

503

945

49

1000

202

22140

1626

-----------------------------------------------------------------------------------------------------------------------------------EMPLOYED (01-06)

161

89

11

132

206

301

900

85

1000

351

38451

3501

-----------------------------------------------------------------------------------------------------------------------------------UNEMPLOYED

50

170

25

222

14

35

516

368

11

104

1000

11

1213

145

NOT IN

STUDENT

42

50

10

12

123

27

702

149

1000

96

10533

1518

LABOUR

OTHERS

45

11

33

13

111

29

859

1000

542

10

59342

4996

FORCE

ALL

45

10

12

30

13

113

130

752

1000

638

12

69875

6514

-----------------------------------------------------------------------------------------------------------------------------------TOTAL

86

40

57

91

115

394

11

85

511

1000

1000

19

109539

10160

-----------------------------------------------------------------------------------------------------------------------------------ESTD. MIGRANTS (00)

9396

636
4359

9997
6206

43151
12557

9301
1151

109539

55936

------------------------------------------------------------------------------------------------------------------------------------

SAMPLE MIGRANTS

870

118

1112

3920

1382

10160

------------------------------------------------------------------------------------------------------------------------------------

Source : National Sample Survey Organisation,49th Round,Schedule 1.2

A - 131

TABLE-19

: PER THOUSAND DISTRIBUTION OF MIGRANTS BY USUAL ACTIVITY CATEGORY AFTER


MIGRATION FOR EACH USUAL ACTIVITY CATEGORY BEFORE MIGRATION

ALL-INDIA

PERSONS

1 TO 4 YEARS

SECTOR : RURAL

-----------------------------------------------------------------------------------------------------------------------------------USUAL ACTIVITY AFTER MIGRATION


USUAL

ACTIVITY

------------------------------------------------------------------ PER 1000

BEFORE MIGRATION

WORKING

UNEMPLO-

------------------------------------------YED
SELF

REG.

CASUAL

EMPLOYED

EMPLOYEE

LABOUR

----------- ----------- ----------AGRL.

NON- AGRL.
AGRL.

NON- AGRL.
AGRL.

NOT IN

NO.OF

MIGRANTS

DISTRIBU- MIGRANTS --------------------

LABOUR FORCE

TION

------------

MIGRANTS

TOTAL

STUD- OTHERS TOTAL

EMPL-

ENTS

OF

PER 1000

ESTD.

PERSONS

(00)

SAMPLE

NON- OYED
AGRL.

-----------------------------------------------------------------------------------------------------------------------------------(1)

(2)

(3)

(4)

(5)

(6)

(7)

(8)

(9)

(10)

(11) (12)

(13)

(14)

(15)

(16)

-----------------------------------------------------------------------------------------------------------------------------------SELF

AGRI.

EMPLOYED

NON AGRI.
ALL

612

32

55

52

39

792

206

1000

99

18589

34

800

20

23

28

908

84

1000

22

4123

1520
514

507

171

49

47

37

813

184

1000

121

22713

2034

REG.

AGRI.

11

12

681

95

26

824

176

1000

595

70

EMPLOYEE

NON AGRI.

75

45

769

18

10

920

10

70

1000

41

7617

1007

ALL

70

43

52

720

19

10

913

78

1000

44

8211

1077

CASUAL

AGRI.

75

21

15

14

694

48

868

132

1000

100

18784

1660

LABOUR

NON AGRI.
ALL

100

31

107

132

559

929

56

1000

21

3984

417

80

23

13

30

596

138

878

119

1000

121

22769

2077

-----------------------------------------------------------------------------------------------------------------------------------EMPLOYED (01-06)

259

88

14

144

275

76

856

140

1000

286

53693

5188

-----------------------------------------------------------------------------------------------------------------------------------UNEMPLOYED

36

74

459

28

136

741

197

19

43

1000

10

1811

189

NOT IN

STUDENT

32

20

60

14

132

21

664

183

1000

96

17994

2248

LABOUR

OTHERS

61

14

54

145

65

787

1000

608

19

114098

8730

FORCE

ALL

57

15

16

48

143

147

705

1000

704

23

132092

10978

-----------------------------------------------------------------------------------------------------------------------------------TOTAL

115

36

57

113

26

353

104

537

1000

1000

32

187595

16355

-----------------------------------------------------------------------------------------------------------------------------------ESTD. MIGRANTS (00)

21487

1075
6839

21222
10672

66238
4942

19461
1187

187595

100708

------------------------------------------------------------------------------------------------------------------------------------

SAMPLE MIGRANTS

1820

134

1812

6242

2298

16355

------------------------------------------------------------------------------------------------------------------------------------

Source : National Sample Survey Organisation,49th Round,Schedule 1.2

A - 132

TABLE-19

: PER THOUSAND DISTRIBUTION OF MIGRANTS BY USUAL ACTIVITY CATEGORY AFTER


MIGRATION FOR EACH USUAL ACTIVITY CATEGORY BEFORE MIGRATION

ALL-INDIA

PERSONS

5 TO 9 YEARS

SECTOR : RURAL

-----------------------------------------------------------------------------------------------------------------------------------USUAL ACTIVITY AFTER MIGRATION


USUAL

ACTIVITY

------------------------------------------------------------------ PER 1000

BEFORE MIGRATION

WORKING

UNEMPLO-

------------------------------------------YED
SELF

REG.

CASUAL

EMPLOYED

EMPLOYEE

LABOUR

----------- ----------- ----------AGRL.

NON- AGRL.
AGRL.

NON- AGRL.
AGRL.

NOT IN

NO.OF

MIGRANTS

DISTRIBU- MIGRANTS --------------------

LABOUR FORCE

TION

------------

MIGRANTS

TOTAL

STUD- OTHERS TOTAL

EMPL-

ENTS

OF

PER 1000

ESTD.

PERSONS

(00)

SAMPLE

NON- OYED
AGRL.

-----------------------------------------------------------------------------------------------------------------------------------(1)

(2)

(3)

(4)

(5)

(6)

(7)

(8)

(9)

(10)

(11) (12)

(13)

(14)

(15)

(16)

-----------------------------------------------------------------------------------------------------------------------------------SELF

AGRI.

EMPLOYED

NON AGRI.

680

24

18

80

16

820

179

1000

99

21381

46

762

27

41

24

904

62

32

1000

24

5194

312

ALL

556

168

20

72

17

836

13

150

1000

123

26575

1907

REG.

AGRI.

220

209

399

77

907

93

1000

486

42

EMPLOYEE

NON AGRI.

84

49

746

30

913

10

77

1000

31

6745

489

93

60

27

696

33

912

78

1000

33

7232

531

CASUAL

AGRI.

112

31

20

676

12

857

143

1000

109

23560

1477

LABOUR

NON AGRI.

122

70

53

95

517

858

141

1000

16

3525

235

ALL

114

36

25

600

78

857

143

1000

125

27085

1712

ALL

1595

-----------------------------------------------------------------------------------------------------------------------------------EMPLOYED (01-06)

304

97

102

302

43

854

138

1000

282

10

60891

4150

-----------------------------------------------------------------------------------------------------------------------------------UNEMPLOYED

28

83

664

26

164

968

28

1000

1470

125

NOT IN

STUDENT

60

66

103

32

270

17

444

268

1000

72

15608

1160

LABOUR

OTHERS

84

16

89

11

211

73

714

1000

639

24

138259

8568

FORCE

ALL

81

21

17

83

10

217

111

669

1000

712

26

153867

9728

-----------------------------------------------------------------------------------------------------------------------------------TOTAL

144

43

45

145

21

402

81

515

1000

1000

37

216228

14003

-----------------------------------------------------------------------------------------------------------------------------------ESTD. MIGRANTS (00)

31075

1036
9302

31296
9751

86901
4441

17422
493

216228

111413

------------------------------------------------------------------------------------------------------------------------------------

SAMPLE MIGRANTS

2169

85

1733

5533

1375

14003

------------------------------------------------------------------------------------------------------------------------------------

Source : National Sample Survey Organisation,49th Round,Schedule 1.2

A - 133

TABLE-19

: PER THOUSAND DISTRIBUTION OF MIGRANTS BY USUAL ACTIVITY CATEGORY AFTER


MIGRATION FOR EACH USUAL ACTIVITY CATEGORY BEFORE MIGRATION

ALL-INDIA

PERSONS

10 YEARS & ABOVE

SECTOR : RURAL

-----------------------------------------------------------------------------------------------------------------------------------USUAL ACTIVITY AFTER MIGRATION


USUAL

ACTIVITY

------------------------------------------------------------------ PER 1000

BEFORE MIGRATION

WORKING

UNEMPLO-

------------------------------------------YED
SELF

REG.

CASUAL

EMPLOYED

EMPLOYEE

LABOUR

----------- ----------- ----------AGRL.

NON- AGRL.
AGRL.

NON- AGRL.
AGRL.

NOT IN

NO.OF

MIGRANTS

DISTRIBU- MIGRANTS --------------------

LABOUR FORCE

TION

------------

MIGRANTS

TOTAL

STUD- OTHERS TOTAL

EMPL-

ENTS

OF

PER 1000

ESTD.

PERSONS

(00)

SAMPLE

NON- OYED
AGRL.

-----------------------------------------------------------------------------------------------------------------------------------(1)

(2)

(3)

(4)

(5)

(6)

(7)

(8)

(9)

(10)

(11) (12)

(13)

(14)

(15)

(16)

-----------------------------------------------------------------------------------------------------------------------------------SELF

AGRI.

669

17

10

73

14

783

216

1000

135

19

110693

EMPLOYED

NON AGRI.

110

714

25

19

874

124

1000

13

10907

7218
681

ALL

619

79

11

68

13

791

208

1000

148

21

121600

7899

REG.

AGRI.

116

95

498

15

47

772

18

210

1000

1519

92

EMPLOYEE

NON AGRI.

129

55

608

14

816

176

1000

10

8570

758

ALL

127

61

76

519

15

12

810

181

1000

12

10089

850

CASUAL

AGRI.

127

22

14

616

15

802

197

1000

114

16

93562

5063

LABOUR

NON AGRI.

117

77

60

76

435

766

233

1000

10

7815

489

ALL

126

26

17

575

47

799

200

1000

124

17

101378

5552

-----------------------------------------------------------------------------------------------------------------------------------EMPLOYED (01-06)

383

55

36

286

28

795

203

1000

284

40

233066

14301

-----------------------------------------------------------------------------------------------------------------------------------UNEMPLOYED

210

292

201

74

18

798

17

185

1000

2875

262

NOT IN

STUDENT

159

137

93

64

45

505

13

117

366

1000

19

15539

1318

LABOUR

OTHERS

122

19

10

89

10

253

11

734

1000

693

97

567833

34244

FORCE

ALL

123

22

12

88

11

260

14

724

1000

712

100

583372

35562

-----------------------------------------------------------------------------------------------------------------------------------TOTAL

197

32

20

144

16

414

10

574

1000

1000

140

819313

50125

-----------------------------------------------------------------------------------------------------------------------------------ESTD. MIGRANTS (00)

161453

3899
26498

118248
16110

339238
13031

8425
1373

819313

470277

------------------------------------------------------------------------------------------------------------------------------------

SAMPLE MIGRANTS

10351

286

6277

20523

696

50125

------------------------------------------------------------------------------------------------------------------------------------

Source : National Sample Survey Organisation,49th Round,Schedule 1.2

A - 134

TABLE-19

: PER THOUSAND DISTRIBUTION OF MIGRANTS BY USUAL ACTIVITY CATEGORY AFTER


MIGRATION FOR EACH USUAL ACTIVITY CATEGORY BEFORE MIGRATION

ALL-INDIA

MALE

UPTO 1 YEAR

SECTOR : URBAN

-----------------------------------------------------------------------------------------------------------------------------------USUAL ACTIVITY AFTER MIGRATION


USUAL

ACTIVITY

------------------------------------------------------------------ PER 1000

BEFORE MIGRATION

WORKING

UNEMPLO-

------------------------------------------YED
SELF

REG.

CASUAL

EMPLOYED

EMPLOYEE

LABOUR

----------- ----------- ----------AGRL.

NON- AGRL.
AGRL.

NON- AGRL.
AGRL.

NOT IN

NO.OF

MIGRANTS

DISTRIBU- MIGRANTS --------------------

LABOUR FORCE

TION

------------

MIGRANTS

TOTAL

STUD- OTHERS TOTAL

EMPL-

ENTS

OF

PER 1000

ESTD.

PERSONS

(00)

SAMPLE

NON- OYED
AGRL.

-----------------------------------------------------------------------------------------------------------------------------------(1)

(2)

(3)

(4)

(5)

(6)

(7)

(8)

(9)

(10)

(11) (12)

(13)

(14)

(15)

(16)

-----------------------------------------------------------------------------------------------------------------------------------SELF

AGRI.

126

257

18

326

156

886

104

1000

48

1363

247

EMPLOYED

NON AGRI.

14

783

92

68

957

25

16

1000

62

1759

406

ALL

63

554

194

106

926

14

54

1000

110

3121

653

REG.

AGRI.

69

411

41

523

477

1000

257

21

EMPLOYEE

NON AGRI.

22

926

14

973

22

1000

198

5627

1057

24

18

888

13

953

24

21

1000

207

5884

1078

CASUAL

AGRI.

13

123

357

163

308

971

29

1000

38

1074

260

LABOUR

NON AGRI.

14

45

106

791

961

25

12

1000

49

1390

270

ALL

14

79

215

74

580

965

14

14

1000

87

2465

530

ALL

-----------------------------------------------------------------------------------------------------------------------------------EMPLOYED (01-06)

24

180

12

555

18

160

948

19

29

1000

404

11470

2261

-----------------------------------------------------------------------------------------------------------------------------------UNEMPLOYED

164

512

55

736

229

27

1000

59

1678

317

NOT IN

STUDENT

25

82

18

125

21

835

19

1000

346

9838

1425

LABOUR

OTHERS

32

57

14

114

167

714

1000

191

5427

924

FORCE

ALL

27

73

16

121

15

598

266

1000

537

15265

2349

-----------------------------------------------------------------------------------------------------------------------------------TOTAL

10

97

293

77

491

30

323

156

1000

1000

15

28413

4927

-----------------------------------------------------------------------------------------------------------------------------------ESTD. MIGRANTS (00)

289

146
2756

253
8334

13961
2182

9176
838

28413

4438

------------------------------------------------------------------------------------------------------------------------------------

SAMPLE MIGRANTS

77

19

55

2763

1301

4927

------------------------------------------------------------------------------------------------------------------------------------

Source : National Sample Survey Organisation,49th Round,Schedule 1.2

A - 135

TABLE-19

: PER THOUSAND DISTRIBUTION OF MIGRANTS BY USUAL ACTIVITY CATEGORY AFTER


MIGRATION FOR EACH USUAL ACTIVITY CATEGORY BEFORE MIGRATION

ALL-INDIA

MALE

1 TO 4 YEARS

SECTOR : URBAN

-----------------------------------------------------------------------------------------------------------------------------------USUAL ACTIVITY AFTER MIGRATION


USUAL

ACTIVITY

------------------------------------------------------------------ PER 1000

BEFORE MIGRATION

WORKING

UNEMPLO-

------------------------------------------YED
SELF

REG.

CASUAL

EMPLOYED

EMPLOYEE

LABOUR

----------- ----------- ----------AGRL.

NON- AGRL.
AGRL.

NON- AGRL.
AGRL.

NOT IN

NO.OF

MIGRANTS

DISTRIBU- MIGRANTS --------------------

LABOUR FORCE

TION

------------

MIGRANTS

TOTAL

STUD- OTHERS TOTAL

EMPL-

ENTS

OF

PER 1000

ESTD.

PERSONS

(00)

SAMPLE

NON- OYED
AGRL.

-----------------------------------------------------------------------------------------------------------------------------------(1)

(2)

(3)

(4)

(5)

(6)

(7)

(8)

(9)

(10)

(11) (12)

(13)

(14)

(15)

(16)

-----------------------------------------------------------------------------------------------------------------------------------SELF

AGRI.

EMPLOYED

NON AGRI.

REG.

AGRI.

EMPLOYEE

NON AGRI.
ALL

CASUAL

AGRI.

LABOUR

NON AGRI.
ALL

ALL

123

192

11

461

27

126

939

26

31

1000

54

2755

430

787

118

34

941

19

36

1000

74

3806

577

51

537

262

12

73

940

22

34

1000

128

6562

1007

63

390

398

61

913

15

73

1000

293

44

45

909

963

37

1000

209

10709

1666

45

11

895

961

38

1000

215

11002

1710

234

238

165

323

970

22

1000

47

2409

442

96

104

777

984

12

1000

50

2581

500

163

169

80

558

977

11

1000

98

4990

942

-----------------------------------------------------------------------------------------------------------------------------------EMPLOYED (01-06)

19

214

550

21

146

959

31

1000

441

12

22553

3659

-----------------------------------------------------------------------------------------------------------------------------------UNEMPLOYED

154

659

118

935

60

1000

68

3486

541

NOT IN

STUDENT

44

131

17

198

31

758

14

1000

319

16337

2459

LABOUR

OTHERS

60

81

41

189

378

423

1000

172

8796

1335

FORCE

ALL

50

114

26

195

23

625

157

1000

491

13

25133

3794

-----------------------------------------------------------------------------------------------------------------------------------TOTAL

10

129

343

10

85

582

19

308

91

1000

1000

27

51172

7994

-----------------------------------------------------------------------------------------------------------------------------------ESTD. MIGRANTS (00)

537

206
6619

506
17571

29778
4339

15763
974

51172

4657

------------------------------------------------------------------------------------------------------------------------------------

SAMPLE MIGRANTS

105

45

99

4739

2395

7994

------------------------------------------------------------------------------------------------------------------------------------

Source : National Sample Survey Organisation,49th Round,Schedule 1.2

A - 136

TABLE-19

: PER THOUSAND DISTRIBUTION OF MIGRANTS BY USUAL ACTIVITY CATEGORY AFTER


MIGRATION FOR EACH USUAL ACTIVITY CATEGORY BEFORE MIGRATION

ALL-INDIA

MALE

5 TO 9 YEARS

SECTOR : URBAN

-----------------------------------------------------------------------------------------------------------------------------------USUAL ACTIVITY AFTER MIGRATION


USUAL

ACTIVITY

------------------------------------------------------------------ PER 1000

BEFORE MIGRATION

WORKING

UNEMPLO-

------------------------------------------YED
SELF

REG.

CASUAL

EMPLOYED

EMPLOYEE

LABOUR

----------- ----------- ----------AGRL.

NON- AGRL.
AGRL.

NON- AGRL.
AGRL.

NOT IN

NO.OF

MIGRANTS

DISTRIBU- MIGRANTS --------------------

LABOUR FORCE

TION

------------

MIGRANTS

TOTAL

STUD- OTHERS TOTAL

EMPL-

ENTS

OF

PER 1000

ESTD.

PERSONS

(00)

SAMPLE

NON- OYED
AGRL.

-----------------------------------------------------------------------------------------------------------------------------------(1)

(2)

(3)

(4)

(5)

(6)

(7)

(8)

(9)

(10)

(11) (12)

(13)

(14)

(15)

(16)

-----------------------------------------------------------------------------------------------------------------------------------SELF

AGRI.

71

381

387

112

961

31

1000

78

3740

358

EMPLOYED

NON AGRI.

22

783

111

57

976

23

1000

74

3538

400

ALL

47

577

253

85

968

27

1000

153

7278

758

REG.

AGRI.

20

360

523

87

991

1000

127

23

EMPLOYEE

NON AGRI.

45

891

944

52

1000

185

8819

907

ALL

44

885

945

51

1000

188

8946

930

CASUAL

AGRI.

219

245

63

440

974

19

1000

59

2804

321

LABOUR

NON AGRI.

112

158

684

961

38

1000

57

2714

277

ALL

167

202

33

560

968

28

1000

116

5518

598

-----------------------------------------------------------------------------------------------------------------------------------EMPLOYED (01-06)

20

253

500

10

172

958

37

1000

456

11

21742

2286

-----------------------------------------------------------------------------------------------------------------------------------UNEMPLOYED

191

10

640

116

959

37

1000

101

4825

487

NOT IN

119

205

38

371

39

563

27

1000

264

12568

1258

STUDENT

LABOUR

OTHERS

61

144

10

80

300

534

163

1000

179

8542

908

FORCE

ALL

96

180

55

342

24

551

82

1000

443

11

21110

2166

-----------------------------------------------------------------------------------------------------------------------------------TOTAL

12

177

373

115

686

16

245

54

1000

1000

25

47677

4939

-----------------------------------------------------------------------------------------------------------------------------------ESTD. MIGRANTS (00)

552

111
8457

327
17769

32685
5469

11681
746

47677

2566

------------------------------------------------------------------------------------------------------------------------------------

SAMPLE MIGRANTS

70

16

61

3320

1241

4939

------------------------------------------------------------------------------------------------------------------------------------

Source : National Sample Survey Organisation,49th Round,Schedule 1.2

A - 137

TABLE-19

: PER THOUSAND DISTRIBUTION OF MIGRANTS BY USUAL ACTIVITY CATEGORY AFTER


MIGRATION FOR EACH USUAL ACTIVITY CATEGORY BEFORE MIGRATION

ALL-INDIA

MALE

10 YEARS & ABOVE

SECTOR : URBAN

-----------------------------------------------------------------------------------------------------------------------------------USUAL ACTIVITY AFTER MIGRATION


USUAL

ACTIVITY

------------------------------------------------------------------ PER 1000

BEFORE MIGRATION

WORKING

UNEMPLO-

------------------------------------------YED
SELF

REG.

CASUAL

EMPLOYED

EMPLOYEE

LABOUR

----------- ----------- ----------AGRL.

NON- AGRL.
AGRL.

NON- AGRL.
AGRL.

NOT IN

NO.OF

MIGRANTS

DISTRIBU- MIGRANTS --------------------

LABOUR FORCE

TION

------------

MIGRANTS

TOTAL

STUD- OTHERS TOTAL

EMPL-

ENTS

OF

PER 1000

ESTD.

PERSONS

(00)

SAMPLE

NON- OYED
AGRL.

-----------------------------------------------------------------------------------------------------------------------------------(1)

(2)

(3)

(4)

(5)

(6)

(7)

(8)

(9)

(10)

(11) (12)

(13)

(14)

(15)

(16)

-----------------------------------------------------------------------------------------------------------------------------------SELF

AGRI.

108

211

480

88

894

102

1000

109

12221

EMPLOYED

NON AGRI.

11

691

112

30

848

147

1000

82

9177

1304
955

ALL

66

417

322

63

874

121

1000

192

11

21398

2259

135

200

540

19

13

912

88

1000

522

54

20

94

689

810

187

1000

131

14645

1535

REG.

AGRI.

EMPLOYEE

NON AGRI.
ALL

19

96

684

813

183

1000

136

15166

1589

CASUAL

AGRI.

10

204

17

310

73

297

912

83

1000

93

10370

1068

LABOUR

NON AGRI.

14

139

267

516

937

57

1000

58

6461

691

ALL

11

179

11

294

45

381

921

73

1000

151

16831

1759

-----------------------------------------------------------------------------------------------------------------------------------EMPLOYED (01-06)

36

251

416

16

147

872

123

1000

478

28

53396

5607

-----------------------------------------------------------------------------------------------------------------------------------UNEMPLOYED

207

11

613

75

923

68

1000

109

12148

1332

NOT IN

STUDENT

20

251

436

68

785

52

98

64

1000

232

14

25931

2523

LABOUR

OTHERS

16

201

226

17

132

596

28

231

145

1000

180

11

20147

2094

FORCE

ALL

18

229

344

12

96

702

42

156

100

1000

413

24

46079

4617

-----------------------------------------------------------------------------------------------------------------------------------TOTAL

26

237

408

13

118

807

20

65

108

1000

1000

59

111622

11556

-----------------------------------------------------------------------------------------------------------------------------------ESTD. MIGRANTS (00)

2851

686
26455

1451
45529

90133
13161

7261
2215

111622

12013

------------------------------------------------------------------------------------------------------------------------------------

SAMPLE MIGRANTS

319

59

175

9306

765

11556

------------------------------------------------------------------------------------------------------------------------------------

Source : National Sample Survey Organisation,49th Round,Schedule 1.2

A - 138

TABLE-19

: PER THOUSAND DISTRIBUTION OF MIGRANTS BY USUAL ACTIVITY CATEGORY AFTER


MIGRATION FOR EACH USUAL ACTIVITY CATEGORY BEFORE MIGRATION

ALL-INDIA

FEMALE

UPTO 1 YEAR

SECTOR : URBAN

-----------------------------------------------------------------------------------------------------------------------------------USUAL ACTIVITY AFTER MIGRATION


USUAL

ACTIVITY

------------------------------------------------------------------ PER 1000

BEFORE MIGRATION

WORKING

UNEMPLO-

------------------------------------------YED
SELF

REG.

CASUAL

EMPLOYED

EMPLOYEE

LABOUR

----------- ----------- ----------AGRL.

NON- AGRL.
AGRL.

NON- AGRL.
AGRL.

NOT IN

NO.OF

MIGRANTS

DISTRIBU- MIGRANTS --------------------

LABOUR FORCE

TION

------------

MIGRANTS

TOTAL

STUD- OTHERS TOTAL

EMPL-

ENTS

OF

PER 1000

ESTD.

PERSONS

(00)

SAMPLE

NON- OYED
AGRL.

-----------------------------------------------------------------------------------------------------------------------------------(1)

(2)

(3)

(4)

(5)

(6)

(7)

(8)

(9)

(10)

(11) (12)

(13)

(14)

(15)

(16)

-----------------------------------------------------------------------------------------------------------------------------------SELF

AGRI.

EMPLOYED

NON AGRI.

REG.

AGRI.

EMPLOYEE

NON AGRI.
ALL

CASUAL

AGRI.

LABOUR

NON AGRI.
ALL

ALL

267

15

91

84

466

534

1000

10

316

53

614

21

647

19

15

320

1000

280

56

142

296

58

48

551

433

1000

20

596

109

28

28

911

61

1000

67

729

733

11

63

194

1000

19

587

105

657

660

104

56

180

1000

22

654

109

26

71

243

287

626

374

1000

29

877

132

24

19

20

801

864

136

1000

17

506

58

25

52

161

475

713

287

1000

46

1383

190

-----------------------------------------------------------------------------------------------------------------------------------EMPLOYED (01-06)

32

81

204

86

260

663

28

16

293

1000

87

2633

408

-----------------------------------------------------------------------------------------------------------------------------------UNEMPLOYED

12

504

52

23

591

258

151

1000

204

47

NOT IN

STUDENT

37

46

22

764

168

1000

211

6386

906

LABOUR

OTHERS

12

16

10

43

36

918

1000

695

11

21025

3131

FORCE

ALL

10

21

43

206

743

1000

906

14

27410

4037

-----------------------------------------------------------------------------------------------------------------------------------TOTAL

16

40

31

101

11

188

700

1000

1000

16

30247

4492

-----------------------------------------------------------------------------------------------------------------------------------ESTD. MIGRANTS (00)

157

0
488

255
1219

3058
940

5678
337

30247

21175

-----------------------------------------------------------------------------------------------------------------------------------SAMPLE MIGRANTS

15

87

56

193

483

132

808

52

4492

3149

Source : National Sample Survey Organisation,49th Round,Schedule 1.2

A - 139

TABLE-19

: PER THOUSAND DISTRIBUTION OF MIGRANTS BY USUAL ACTIVITY CATEGORY AFTER


MIGRATION FOR EACH USUAL ACTIVITY CATEGORY BEFORE MIGRATION

ALL-INDIA

FEMALE

1 TO 4 YEARS

SECTOR : URBAN

-----------------------------------------------------------------------------------------------------------------------------------USUAL ACTIVITY AFTER MIGRATION


USUAL

ACTIVITY

------------------------------------------------------------------ PER 1000

BEFORE MIGRATION

WORKING

UNEMPLO-

------------------------------------------YED
SELF

REG.

CASUAL

EMPLOYED

EMPLOYEE

LABOUR

----------- ----------- ----------AGRL.

NON- AGRL.
AGRL.

NON- AGRL.
AGRL.

NOT IN

NO.OF

MIGRANTS

DISTRIBU- MIGRANTS --------------------

LABOUR FORCE

TION

------------

MIGRANTS

TOTAL

STUD- OTHERS TOTAL

EMPL-

ENTS

OF

PER 1000

ESTD.

PERSONS

(00)

SAMPLE

NON- OYED
AGRL.

-----------------------------------------------------------------------------------------------------------------------------------(1)

(2)

(3)

(4)

(5)

(6)

(7)

(8)

(9)

(10)

(11) (12)

(13)

(14)

(15)

(16)

-----------------------------------------------------------------------------------------------------------------------------------SELF

AGRI.

EMPLOYED

NON AGRI.
ALL

73

56

43

22

53

250

749

1000

16

925

614

29

653

22

326

1000

499

125
87

47

252

31

14

45

391

600

1000

24

1425

212

REG.

AGRI.

571

33

605

395

1000

36

EMPLOYEE

NON AGRI.

767

10

780

217

1000

23

1337

207

CASUAL

AGRI.

LABOUR

NON AGRI.

ALL

ALL

15

746

11

776

221

1000

23

1373

213

15

32

38

207

326

619

364

1000

20

1186

200

67

533

610

386

1000

544

94

10

24

47

142

391

616

371

1000

30

1730

294

-----------------------------------------------------------------------------------------------------------------------------------EMPLOYED (01-06)

19

89

254

62

164

594

398

1000

77

4528

719

-----------------------------------------------------------------------------------------------------------------------------------UNEMPLOYED

674

678

52

61

210

1000

360

38

NOT IN

48

57

14

725

204

1000

197

11515

1589

STUDENT

LABOUR

OTHERS

16

20

11

55

67

876

1000

720

22

42126

5535

FORCE

ALL

13

26

55

208

732

1000

916

28

53641

7124

-----------------------------------------------------------------------------------------------------------------------------------TOTAL

19

48

21

101

191

703

1000

1000

31

58530

7881

-----------------------------------------------------------------------------------------------------------------------------------ESTD. MIGRANTS (00)

321

30
1118

398
2789

5887
1232

11201
316

58530

41125

------------------------------------------------------------------------------------------------------------------------------------

SAMPLE MIGRANTS

64

83

879

1626

7881

------------------------------------------------------------------------------------------------------------------------------------

Source : National Sample Survey Organisation,49th Round,Schedule 1.2

A - 140

TABLE-19

: PER THOUSAND DISTRIBUTION OF MIGRANTS BY USUAL ACTIVITY CATEGORY AFTER


MIGRATION FOR EACH USUAL ACTIVITY CATEGORY BEFORE MIGRATION

ALL-INDIA

FEMALE

5 TO 9 YEARS

SECTOR : URBAN

-----------------------------------------------------------------------------------------------------------------------------------USUAL ACTIVITY AFTER MIGRATION


USUAL

ACTIVITY

------------------------------------------------------------------ PER 1000

BEFORE MIGRATION

WORKING

UNEMPLO-

------------------------------------------YED
SELF

REG.

CASUAL

EMPLOYED

EMPLOYEE

LABOUR

----------- ----------- ----------AGRL.

NON- AGRL.
AGRL.

NON- AGRL.
AGRL.

NOT IN

NO.OF

MIGRANTS

DISTRIBU- MIGRANTS --------------------

LABOUR FORCE

TION

------------

MIGRANTS

TOTAL

STUD- OTHERS TOTAL

EMPL-

ENTS

OF

PER 1000

ESTD.

PERSONS

(00)

SAMPLE

NON- OYED
AGRL.

-----------------------------------------------------------------------------------------------------------------------------------(1)

(2)

(3)

(4)

(5)

(6)

(7)

(8)

(9)

(10)

(11) (12)

(13)

(14)

(15)

(16)

-----------------------------------------------------------------------------------------------------------------------------------SELF

AGRI.

EMPLOYED

NON AGRI.
ALL

105

109

60

283

716

1000

15

971

726

738

18

244

1000

10

621

132
72

64

349

38

460

532

1000

25

1592

204

REG.

AGRI.

227

227

773

1000

32

EMPLOYEE

NON AGRI.

25

725

19

769

231

1000

21

1371

157

CASUAL

AGRI.

LABOUR

NON AGRI.

ALL

ALL

24

708

19

757

243

1000

22

1402

161

17

16

71

284

173

563

437

1000

35

2248

202

73

11

689

773

227

1000

441

54

14

25

62

237

257

598

402

1000

42

2689

256

-----------------------------------------------------------------------------------------------------------------------------------EMPLOYED (01-06)

25

116

205

118

133

598

399

1000

88

5684

621

-----------------------------------------------------------------------------------------------------------------------------------UNEMPLOYED

18

223

44

285

174

541

1000

391

42

NOT IN

STUDENT

28

74

119

15

493

372

1000

142

9126

887

LABOUR

OTHERS

13

23

13

60

86

852

1000

763

26

49041

4963

FORCE

ALL

15

31

12

69

150

777

1000

905

31

58166

5850

-----------------------------------------------------------------------------------------------------------------------------------TOTAL

24

47

14

23

117

136

742

1000

1000

34

64241

6513

-----------------------------------------------------------------------------------------------------------------------------------ESTD. MIGRANTS (00)

471

33
1564

930
3049

7537
1489

8737
288

64241

47680

------------------------------------------------------------------------------------------------------------------------------------

SAMPLE MIGRANTS

74

101

853

891

6513

------------------------------------------------------------------------------------------------------------------------------------

Source : National Sample Survey Organisation,49th Round,Schedule 1.2

A - 141

TABLE-19

: PER THOUSAND DISTRIBUTION OF MIGRANTS BY USUAL ACTIVITY CATEGORY AFTER


MIGRATION FOR EACH USUAL ACTIVITY CATEGORY BEFORE MIGRATION

ALL-INDIA

FEMALE

10 YEARS & ABOVE

SECTOR : URBAN

-----------------------------------------------------------------------------------------------------------------------------------USUAL ACTIVITY AFTER MIGRATION


USUAL

ACTIVITY

------------------------------------------------------------------ PER 1000

BEFORE MIGRATION

WORKING

UNEMPLO-

------------------------------------------YED
SELF

REG.

CASUAL

EMPLOYED

EMPLOYEE

LABOUR

----------- ----------- ----------AGRL.

NON- AGRL.
AGRL.

NON- AGRL.
AGRL.

NOT IN

NO.OF

MIGRANTS

DISTRIBU- MIGRANTS --------------------

LABOUR FORCE

TION

------------

MIGRANTS

TOTAL

STUD- OTHERS TOTAL

EMPL-

ENTS

OF

PER 1000

ESTD.

PERSONS

(00)

SAMPLE

NON- OYED
AGRL.

-----------------------------------------------------------------------------------------------------------------------------------(1)

(2)

(3)

(4)

(5)

(6)

(7)

(8)

(9)

(10)

(11) (12)

(13)

(14)

(15)

(16)

-----------------------------------------------------------------------------------------------------------------------------------SELF

AGRI.

EMPLOYED

NON AGRI.

REG.

AGRI.

EMPLOYEE

NON AGRI.

CASUAL

AGRI.

26

LABOUR

NON AGRI.

17

ALL

24

ALL

ALL

276

44

45

17

35

418

582

1000

23

4424

511

622

20

24

10

686

314

1000

10

1864

161

197

216

38

19

28

498

502

1000

33

6288

672

35

46

548

76

705

10

285

1000

137

11

15

593

618

381

1000

13

2412

273

17

29

561

622

376

1000

13

2549

284

93

12

50

287

133

600

396

1000

40

7623

697

24

104

585

730

268

1000

10

1933

163

79

61

229

224

626

370

1000

51

9555

860

-----------------------------------------------------------------------------------------------------------------------------------EMPLOYED (01-06)

80

117

122

126

127

582

416

1000

97

10

18392

1816

-----------------------------------------------------------------------------------------------------------------------------------UNEMPLOYED

10

44

371

425

567

1000

801

89

NOT IN

STUDENT

18

142

10

178

16

193

614

1000

62

11763

1172

LABOUR

OTHERS

15

31

29

11

26

112

25

861

1000

836

83

158066

15775

FORCE

ALL

14

30

37

10

25

117

37

844

1000

898

90

169828

16947

-----------------------------------------------------------------------------------------------------------------------------------TOTAL

21

39

47

21

35

163

33

801

1000

1000

100

189022

18852

-----------------------------------------------------------------------------------------------------------------------------------ESTD. MIGRANTS (00)

3927

324
7302

4001
8816

30895
6526

6271
474

189022

151382

------------------------------------------------------------------------------------------------------------------------------------

SAMPLE MIGRANTS

389

37

393

3077

600

18852

------------------------------------------------------------------------------------------------------------------------------------

Source : National Sample Survey Organisation,49th Round,Schedule 1.2

A - 142

TABLE-19

: PER THOUSAND DISTRIBUTION OF MIGRANTS BY USUAL ACTIVITY CATEGORY AFTER


MIGRATION FOR EACH USUAL ACTIVITY CATEGORY BEFORE MIGRATION

ALL-INDIA

PERSONS

UPTO 1 YEAR

SECTOR : URBAN

-----------------------------------------------------------------------------------------------------------------------------------USUAL ACTIVITY AFTER MIGRATION


USUAL

ACTIVITY

------------------------------------------------------------------ PER 1000

BEFORE MIGRATION

WORKING

UNEMPLO-

------------------------------------------YED
SELF

REG.

CASUAL

EMPLOYED

EMPLOYEE

LABOUR

----------- ----------- ----------AGRL.

NON- AGRL.
AGRL.

NON- AGRL.
AGRL.

NOT IN

NO.OF

MIGRANTS

DISTRIBU- MIGRANTS --------------------

LABOUR FORCE

TION

------------

MIGRANTS

TOTAL

STUD- OTHERS TOTAL

EMPL-

ENTS

OF

PER 1000

ESTD.

PERSONS

(00)

SAMPLE

NON- OYED
AGRL.

-----------------------------------------------------------------------------------------------------------------------------------(1)

(2)

(3)

(4)

(5)

(6)

(7)

(8)

(9)

(10)

(11) (12)

(13)

(14)

(15)

(16)

-----------------------------------------------------------------------------------------------------------------------------------SELF

AGRI.

153

212

14

282

142

807

184

1000

29

1678

300

EMPLOYED

NON AGRI.

12

760

82

60

915

24

58

1000

35

2039

462

ALL

76

512

172

97

866

13

115

1000

63

3717

762

REG.

AGRI.

55

326

38

420

567

13

1000

324

25

EMPLOYEE

NON AGRI.

20

908

12

950

39

1000

106

6214

1162

ALL

22

16

865

12

924

32

37

1000

111

6538

1187

CASUAL

AGRI.

79

229

199

298

816

184

1000

33

1952

392

LABOUR

NON AGRI.

10

39

83

793

935

18

38

1000

32

1896

328

60

157

106

542

874

112

1000

66

3848

720

ALL

-----------------------------------------------------------------------------------------------------------------------------------EMPLOYED (01-06)

26

161

10

489

30

179

895

21

78

1000

240

14103

2669

-----------------------------------------------------------------------------------------------------------------------------------UNEMPLOYED

148

511

52

721

232

40

1000

32

1882

364

NOT IN

16

64

13

94

21

807

78

1000

277

16224

2331

STUDENT

LABOUR

OTHERS

16

25

11

57

63

876

1000

451

14

26452

4055

FORCE

ALL

16

40

12

71

10

346

573

1000

727

23

42675

6386

-----------------------------------------------------------------------------------------------------------------------------------TOTAL

55

163

53

290

20

253

437

1000

1000

31

58661

9419

-----------------------------------------------------------------------------------------------------------------------------------ESTD. MIGRANTS (00)

446

146
3244

508
9553

17019
3122

14854
1175

58661

25612

------------------------------------------------------------------------------------------------------------------------------------

SAMPLE MIGRANTS

92

19

111

3246

2109

9419

------------------------------------------------------------------------------------------------------------------------------------

Source : National Sample Survey Organisation,49th Round,Schedule 1.2

A - 143

TABLE-19

: PER THOUSAND DISTRIBUTION OF MIGRANTS BY USUAL ACTIVITY CATEGORY AFTER


MIGRATION FOR EACH USUAL ACTIVITY CATEGORY BEFORE MIGRATION

ALL-INDIA

PERSONS

1 TO 4 YEARS

SECTOR : URBAN

-----------------------------------------------------------------------------------------------------------------------------------USUAL ACTIVITY AFTER MIGRATION


USUAL

ACTIVITY

------------------------------------------------------------------ PER 1000

BEFORE MIGRATION

WORKING

UNEMPLO-

------------------------------------------YED
SELF

REG.

CASUAL

EMPLOYED

EMPLOYEE

LABOUR

----------- ----------- ----------AGRL.

NON- AGRL.
AGRL.

NON- AGRL.
AGRL.

NOT IN

NO.OF

MIGRANTS

DISTRIBU- MIGRANTS --------------------

LABOUR FORCE

TION

------------

MIGRANTS

TOTAL

STUD- OTHERS TOTAL

EMPL-

ENTS

OF

PER 1000

ESTD.

PERSONS

(00)

SAMPLE

NON- OYED
AGRL.

-----------------------------------------------------------------------------------------------------------------------------------(1)

(2)

(3)

(4)

(5)

(6)

(7)

(8)

(9)

(10)

(11) (12)

(13)

(14)

(15)

(16)

-----------------------------------------------------------------------------------------------------------------------------------SELF

AGRI.

EMPLOYED

NON AGRI.

REG.

AGRI.

EMPLOYEE

NON AGRI.
ALL

CASUAL

AGRI.

LABOUR

NON AGRI.
ALL

ALL

110

158

356

25

108

766

20

211

1000

34

3681

555

767

105

34

907

17

70

1000

39

4306

664

51

486

221

12

68

842

18

135

1000

73

7986

1219

57

410

354

55

879

13

108

1000

329

50

40

893

942

57

1000

110

12046

1873

41

11

879

941

58

1000

113

12375

1923

167

172

179

324

854

135

1000

33

3595

642

80

98

735

919

10

68

1000

28

3125

594

127

138

96

515

884

104

1000

61

6720

1236

-----------------------------------------------------------------------------------------------------------------------------------EMPLOYED (01-06)

19

193

501

28

149

898

92

1000

247

14

27082

4378

-----------------------------------------------------------------------------------------------------------------------------------UNEMPLOYED

140

661

107

911

59

23

1000

35

3847

579

NOT IN

STUDENT

27

97

11

140

24

744

93

1000

254

15

27852

4048

LABOUR

OTHERS

24

31

16

78

120

798

1000

464

27

50922

6870

FORCE

ALL

25

54

14

100

11

341

548

1000

718

42

78774

10918

-----------------------------------------------------------------------------------------------------------------------------------TOTAL

71

186

51

325

12

246

417

1000

1000

58

109702

15875

-----------------------------------------------------------------------------------------------------------------------------------ESTD. MIGRANTS (00)

858

236
7737

904
20360

35665
5571

26964
1290

109702

45783

------------------------------------------------------------------------------------------------------------------------------------

SAMPLE MIGRANTS

169

50

182

5618

4021

15875

------------------------------------------------------------------------------------------------------------------------------------

Source : National Sample Survey Organisation,49th Round,Schedule 1.2

A - 144

TABLE-19

: PER THOUSAND DISTRIBUTION OF MIGRANTS BY USUAL ACTIVITY CATEGORY AFTER


MIGRATION FOR EACH USUAL ACTIVITY CATEGORY BEFORE MIGRATION

ALL-INDIA

PERSONS

5 TO 9 YEARS

SECTOR : URBAN

-----------------------------------------------------------------------------------------------------------------------------------USUAL ACTIVITY AFTER MIGRATION


USUAL

ACTIVITY

------------------------------------------------------------------ PER 1000

BEFORE MIGRATION

WORKING

UNEMPLO-

------------------------------------------YED
SELF

REG.

CASUAL

EMPLOYED

EMPLOYEE

LABOUR

----------- ----------- ----------AGRL.

NON- AGRL.
AGRL.

NON- AGRL.
AGRL.

NOT IN

NO.OF

MIGRANTS

DISTRIBU- MIGRANTS --------------------

LABOUR FORCE

TION

------------

MIGRANTS

TOTAL

STUD- OTHERS TOTAL

EMPL-

ENTS

OF

PER 1000

ESTD.

PERSONS

(00)

SAMPLE

NON- OYED
AGRL.

-----------------------------------------------------------------------------------------------------------------------------------(1)

(2)

(3)

(4)

(5)

(6)

(7)

(8)

(9)

(10)

(11) (12)

(13)

(14)

(15)

(16)

-----------------------------------------------------------------------------------------------------------------------------------SELF

AGRI.

78

325

307

101

822

173

1000

42

4711

EMPLOYED

NON AGRI.

19

774

96

49

940

56

1000

37

4159

490
472

ALL

50

536

208

77

877

118

1000

79

8870

962

REG.

AGRI.

16

333

419

70

839

161

1000

159

27

EMPLOYEE

NON AGRI.

42

868

920

76

1000

91

10190

1064

CASUAL

AGRI.

LABOUR

ALL

41

861

919

77

1000

92

10348

1091

12

129

168

161

321

791

205

1000

45

5052

523

NON AGRI.

107

138

685

934

64

1000

28

3156

331

ALL

120

156

100

461

846

151

1000

73

8207

854

-----------------------------------------------------------------------------------------------------------------------------------EMPLOYED (01-06)

21

225

439

33

164

884

112

1000

245

14

27426

2907

-----------------------------------------------------------------------------------------------------------------------------------UNEMPLOYED

178

608

110

908

48

44

1000

47

5216

529

NOT IN

STUDENT

81

150

25

265

29

534

172

1000

194

11

21694

2145

LABOUR

OTHERS

20

41

23

96

153

750

1000

515

30

57582

5871

FORCE

ALL

37

71

24

142

257

592

1000

708

42

79276

8016

-----------------------------------------------------------------------------------------------------------------------------------TOTAL

90

186

11

62

359

182

449

1000

1000

59

111918

11452

-----------------------------------------------------------------------------------------------------------------------------------ESTD. MIGRANTS (00)

1023

144
10022

1257
20818

40221
6958

20418
1033

111918

50246

------------------------------------------------------------------------------------------------------------------------------------

SAMPLE MIGRANTS

144

24

162

4173

2132

11452

------------------------------------------------------------------------------------------------------------------------------------

Source : National Sample Survey Organisation,49th Round,Schedule 1.2

A - 145

TABLE-19

: PER THOUSAND DISTRIBUTION OF MIGRANTS BY USUAL ACTIVITY CATEGORY AFTER


MIGRATION FOR EACH USUAL ACTIVITY CATEGORY BEFORE MIGRATION

ALL-INDIA

PERSONS

10 YEARS & ABOVE

SECTOR : URBAN

-----------------------------------------------------------------------------------------------------------------------------------USUAL ACTIVITY AFTER MIGRATION


USUAL

ACTIVITY

------------------------------------------------------------------ PER 1000

BEFORE MIGRATION

WORKING

UNEMPLO-

------------------------------------------YED
SELF

REG.

CASUAL

EMPLOYED

EMPLOYEE

LABOUR

----------- ----------- ----------AGRL.

NON- AGRL.
AGRL.

NON- AGRL.
AGRL.

NOT IN

NO.OF

MIGRANTS

DISTRIBU- MIGRANTS --------------------

LABOUR FORCE

TION

------------

MIGRANTS

TOTAL

STUD- OTHERS TOTAL

EMPL-

ENTS

OF

PER 1000

ESTD.

PERSONS

(00)

SAMPLE

NON- OYED
AGRL.

-----------------------------------------------------------------------------------------------------------------------------------(1)

(2)

(3)

(4)

(5)

(6)

(7)

(8)

(9)

(10)

(11) (12)

(13)

(14)

(15)

(16)

-----------------------------------------------------------------------------------------------------------------------------------SELF

AGRI.

152

167

364

74

767

229

1000

55

16645

1815

EMPLOYED

NON AGRI.

11

679

96

26

821

175

1000

37

11042

1116

ALL

96

371

257

55

788

208

1000

92

15

27686

2931

REG.

AGRI.

11

117

272

428

31

11

869

129

1000

658

65

EMPLOYEE

NON AGRI.

17

83

676

783

214

1000

57

17057

1808

ALL

17

84

10

667

786

211

1000

59

17715

1873

CASUAL

AGRI.

17

157

15

200

164

228

780

215

1000

60

17992

1765

LABOUR

NON AGRI.

14

113

229

532

889

106

1000

28

8394

854

ALL

16

143

10

209

112

324

815

180

1000

88

14

26386

2619

-----------------------------------------------------------------------------------------------------------------------------------EMPLOYED (01-06)

47

217

341

44

142

797

198

1000

239

38

71788

7423

-----------------------------------------------------------------------------------------------------------------------------------UNEMPLOYED
NOT IN

STUDENT

197

10

598

71

892

99

1000

43

12949

1421

16

178

344

50

596

41

128

236

1000

125

20

37694

3695

LABOUR

OTHERS

15

50

51

11

38

167

48

780

1000

593

94

178213

17869

FORCE

ALL

15

73

103

10

40

242

11

62

685

1000

718

114

215907

21564

-----------------------------------------------------------------------------------------------------------------------------------TOTAL

23

112

181

18

65

403

45

543

1000

1000

159

300644

30408

-----------------------------------------------------------------------------------------------------------------------------------ESTD. MIGRANTS (00)

6778

1009
33757

5452
54345

121029
19687

13532
2689

300644

163394

-----------------------------------------------------------------------------------------------------------------------------------SAMPLE MIGRANTS

708

96
3546

568
5568

12383
1897

1365
283

30408

16377

------------------------------------------------------------------------------------------------------------------------------------

Source : National Sample Survey Organisation,49th Round,Schedule 1.2

A - 146

TABLE-20 :

PER THOUSAND DISTRIBUTION OF EMPLOYED MIGRANTS BY REASON FOR LEAVING LAST USUAL
FOR EACH PRINCIPAL USUAL

PLACE OF RESIDENCE (UPR)

STATUS AND OCCUPATION

ALL-INDIA

MALE

SECTOR : RURAL

-----------------------------------------------------------------------------------------------------------------------------------REASON FOR LEAVING LAST UPR (CODES)


STATUS

OCCUPATION

MIGRANTS

---------------------------------------------------------------------------- ---------------------01

02

03

04

05

OTHERS

ALL

ESTD(00).

SAMPLE

(06-19)
-----------------------------------------------------------------------------------------------------------------------------------(1)

(2)

(3)

(4)

(5)

(6)

(7)

(8)

(9)

(10)

(11)

-----------------------------------------------------------------------------------------------------------------------------------SELF-EMPLOYED

26

223

66

12

20

652

1000

2728

255

23

499

166

32

275

1000

518

50

261

268

10

459

1000

56

13

43

397

83

21

455

1000

4122

433

40

452

62

29

411

1000

1161

110

81

211

55

48

601

1000

19871

2035

53

430

59

81

374

1000

6644

536

1000

1000

-----------------------------------------------------------------------------------------------------------------------------------ALL

65

288

61

47

533

1000

35102

3433

-----------------------------------------------------------------------------------------------------------------------------------REG.-EMPLOYED

21

54

82

558

281

1000

6920

23

25

738

214

1000

465

55

113

76

488

21

300

1000

4277

477

37

127

131

131

570

1000

713

74

19

66

41

390

41

442

1000

3688

404

6
7

761

182

93

363

353

1000

1542

238

20

298

87

224

45

327

1000

7627

724

1000

1000

-----------------------------------------------------------------------------------------------------------------------------------ALL

16

146

77

400

28

333

1000

25235

2734

-----------------------------------------------------------------------------------------------------------------------------------CASUAL

LABOUR

128

181

85

10

591

1000

1881

1000

1000

70

167

59

461

311

1000

316

21

10

213

16

750

1000

985

58

333

323

32

301

1000

861

62

101

407

88

20

374

1000

28195

2746

22

234

437

293

1000

13048

922

1000

1000

164

-----------------------------------------------------------------------------------------------------------------------------------ALL

76

339

190

19

367

1000

45355

3978

-----------------------------------------------------------------------------------------------------------------------------------ALL

40

114

79

339

419

1000

11530

12

255

93

329

16

296

1000

1053

109

13

111

70

484

20

302

1000

4649

511

33

322

75

18

33

519

1000

5820

565

21

185

88

259

33

415

1000

5710

576

90

321

75

25

25

464

1000

49608

5019

29

299

247

67

35

322

1000

27319

2182

94

906

1000

6
7

1180

-----------------------------------------------------------------------------------------------------------------------------------ALL

58

276

121

105

26

414

1000

105692

10145

-----------------------------------------------------------------------------------------------------------------------------------ESTD. MIGRANTS (00)

6100

29157

12746

11143

2791

43755

105692

-----------------------------------------------------------------------------------------------------------------------------------SAMPLE MIGRANTS

680

3175

966

1437

232

3655

10145

------------------------------------------------------------------------------------------------------------------------------------

TABLE-20 :

PER THOUSAND DISTRIBUTION OF EMPLOYED MIGRANTS BY REASON FOR LEAVING LAST USUAL
FOR EACH PRINCIPAL USUAL

PLACE OF RESIDENCE (UPR)

STATUS AND OCCUPATION

Source : National Sample Survey Organisation,49th Round,Schedule 1.2

A - 147

ALL-INDIA

FEMALE

SECTOR : RURAL

-----------------------------------------------------------------------------------------------------------------------------------REASON FOR LEAVING LAST UPR (CODES)


STATUS

OCCUPATION

MIGRANTS

---------------------------------------------------------------------------- ---------------------01

02

03

04

05

OTHERS

ALL

ESTD(00).

SAMPLE

(06-19)
-----------------------------------------------------------------------------------------------------------------------------------(1)

(2)

(3)

(4)

(5)

(6)

(7)

(8)

(9)

(10)

(11)

-----------------------------------------------------------------------------------------------------------------------------------SELF-EMPLOYED

23

970

1000

2852

373

627

1000

51

1000

1000

10

44

167

31

750

1000

1029

98

18

18

952

1000

1886

108

992

1000

135943

8817

64

38

889

1000

4951

271

6
7

170

-----------------------------------------------------------------------------------------------------------------------------------ALL

986

1000

146721

9472

-----------------------------------------------------------------------------------------------------------------------------------REG.-EMPLOYED

14

30

25

295

11

625

1000

3050

165

835

1000

25

11

299

16

674

1000

378

44

1000

1000

12

24

25

530

228

181

1000

414

30

10

48

10

930

1000

1146

64

16

974

1000

656

44

6
7

349

-----------------------------------------------------------------------------------------------------------------------------------ALL

11

28

18

220

24

699

1000

5672

534

-----------------------------------------------------------------------------------------------------------------------------------CASUAL

LABOUR

26

15

953

1000

2557

151

1000

1000

104

1000

1000

439

561

1000

11

987

1000

601

34

32

950

1000

116052

6433

58

371

566

1000

8689

360

-----------------------------------------------------------------------------------------------------------------------------------ALL

33

29

924

1000

128016

6989

-----------------------------------------------------------------------------------------------------------------------------------ALL

14

23

11

107

841

1000

8458

670

106

23

871

1000

180

17

10

290

16

684

1000

390

46

44

169

31

749

1000

1042

101

16

10

87

33

849

1000

2902

172

17

973

1000

253141

15314

58

227

14

697

1000

14296

675

-----------------------------------------------------------------------------------------------------------------------------------ALL

20

14

952

1000

280409

16995

-----------------------------------------------------------------------------------------------------------------------------------ESTD. MIGRANTS (00)

1343

5494

4050

2042

500

266981

280409

-----------------------------------------------------------------------------------------------------------------------------------SAMPLE MIGRANTS

173

594

161

242

41

15784

16995

------------------------------------------------------------------------------------------------------------------------------------

Source : National Sample Survey Organisation,49th Round,Schedule 1.2

A - 148

TABLE-20 :

PER THOUSAND DISTRIBUTION OF EMPLOYED MIGRANTS BY REASON FOR LEAVING LAST USUAL
FOR EACH PRINCIPAL USUAL

PLACE OF RESIDENCE (UPR)

STATUS AND OCCUPATION

ALL-INDIA

PERSONS

SECTOR : RURAL

-----------------------------------------------------------------------------------------------------------------------------------REASON FOR LEAVING LAST UPR (CODES)


STATUS

OCCUPATION

MIGRANTS

---------------------------------------------------------------------------- ---------------------01

02

03

04

05

OTHERS

ALL

ESTD(00).

SAMPLE

(06-19)
-----------------------------------------------------------------------------------------------------------------------------------(1)

(2)

(3)

(4)

(5)

(6)

(7)

(8)

(9)

(10)

(11)

-----------------------------------------------------------------------------------------------------------------------------------SELF-EMPLOYED

14

121

34

10

814

1000

5580

425

21

487

151

29

306

1000

569

57

222

228

541

1000

66

14

44

351

72

18

514

1000

5151

531

18

184

28

22

746

1000

3047

218

12

30

942

1000

155814

10852

33

274

35

63

594

1000

11594

807

1000

1000

-----------------------------------------------------------------------------------------------------------------------------------ALL

14

61

13

11

899

1000

181823

12905

-----------------------------------------------------------------------------------------------------------------------------------REG.-EMPLOYED

19

46

65

477

386

1000

9970

21

24

709

246

1000

491

57

104

71

473

21

330

1000

4655

521

37

127

130

131

572

1000

715

75

19

62

40

404

60

416

1000

4103

434

6
7

1110

125

57

209

599

1000

2688

302

18

275

80

207

41

378

1000

8284

768

1000

1000

-----------------------------------------------------------------------------------------------------------------------------------ALL

15

125

67

367

27

400

1000

30907

3268

-----------------------------------------------------------------------------------------------------------------------------------CASUAL

LABOUR

69

86

38

800

1000

4438

315

1000

1000

174

12

165

59

457

316

1000

318

22

10

215

16

748

1000

996

60

198

193

20

583

1000

1462

96

26

105

21

838

1000

144247

9179

15

163

411

402

1000

21737

1282

1000

1000

6
7

-----------------------------------------------------------------------------------------------------------------------------------ALL

26

113

71

779

1000

173371

10967

-----------------------------------------------------------------------------------------------------------------------------------ALL

29

76

50

241

597

1000

19988

1850

10

233

79

284

14

380

1000

1233

126

12

102

65

469

19

332

1000

5039

557

34

299

68

15

30

554

1000

6862

666

16

128

62

201

33

561

1000

8612

748

18

67

14

889

1000

302749

20333

21

216

240

45

28

451

1000

41615

2857

94

906

1000

-----------------------------------------------------------------------------------------------------------------------------------ALL

19

90

44

34

805

1000

386101

27140

-----------------------------------------------------------------------------------------------------------------------------------ESTD. MIGRANTS (00)

7443

34651

16796

13185

3290

310736

386101

-----------------------------------------------------------------------------------------------------------------------------------SAMPLE MIGRANTS

853

3769

1127

1679

273

19439

27140

-----------------------------------------------------------------------------------------------------------------------------------TABLE-20 :

PER THOUSAND DISTRIBUTION OF EMPLOYED MIGRANTS BY REASON FOR LEAVING LAST USUAL
FOR EACH PRINCIPAL USUAL

ALL-INDIA

PLACE OF RESIDENCE (UPR)

STATUS AND OCCUPATION


MALE

SECTOR:URBAN

Source : National Sample Survey Organisation,49th Round,Schedule 1.2

A - 149

-----------------------------------------------------------------------------------------------------------------------------------REASON FOR LEAVING LAST UPR (CODES)


STATUS

OCCUPATION

MIGRANTS

---------------------------------------------------------------------------- ---------------------01

02

03

04

05

OTHERS

ALL

ESTD(00).

SAMPLE

(06-19)
-----------------------------------------------------------------------------------------------------------------------------------(1)

(2)

(3)

(4)

(5)

(6)

(7)

(8)

(9)

(10)

(11)

-----------------------------------------------------------------------------------------------------------------------------------SELF-EMPLOYED

104

408

150

36

17

285

1000

4293

475

39

481

114

38

64

265

1000

1179

188

99

499

105

92

13

191

1000

282

29

81

340

150

16

411

1000

7060

909

42

541

104

308

1000

1471

149

229

452

145

165

1000

18711

2210

89

436

113

14

28

319

1000

5354

714

1000

1000

10

-----------------------------------------------------------------------------------------------------------------------------------ALL

154

429

139

10

14

254

1000

38359

4677

-----------------------------------------------------------------------------------------------------------------------------------REG.-EMPLOYED

17

89

114

521

17

243

1000

10287

54

62

724

12

147

1000

3133

369

16

95

74

570

33

212

1000

11253

1427

23

456

165

136

14

206

1000

2021

250

37

125

45

571

30

192

1000

4361

596

172

424

55

176

173

1000

1317

147

25

220

132

342

31

250

1000

8588

1109

1000

1000

39

1407

-----------------------------------------------------------------------------------------------------------------------------------ALL

24

148

96

488

25

219

1000

40998

5307

-----------------------------------------------------------------------------------------------------------------------------------CASUAL

LABOUR

228

304

113

12

343

1000

1655

1000

1000

42

222
5

169

71

214

546

1000

309

24
83

55

338

146

102

359

1000

446

172

456

65

37

270

1000

749

77

194

582

114

106

1000

17049

2151

139

479

107

15

255

1000

9554

1267

-----------------------------------------------------------------------------------------------------------------------------------ALL

173

523

110

179

1000

29804

3829

---------------------------------------------------------------------------------------------------------------------------------ALL

61

195

123

341

15

264

1000

16234

11

179

76

531

26

177

1000

4353

562

17

107

75

549

32

220

1000

11843

1480

67

364

153

36

15

365

1000

9527

1242

54

255

60

384

20

227

1000

6580

822

211

511

128

138

1000

37076

4508

86

374

118

130

24

268

1000

23497

3090

205

796

1000

49

2104

-----------------------------------------------------------------------------------------------------------------------------------ALL

111

349

115

189

16

220

1000

109161

13813

-----------------------------------------------------------------------------------------------------------------------------------ESTD. MIGRANTS (00)

12090

38098

12578

20628

1713

24054

109161

-----------------------------------------------------------------------------------------------------------------------------------SAMPLE MIGRANTS

1416

4997

1592

2966

268

2574

13813

------------------------------------------------------------------------------------------------------------------------------------

TABLE-20 :

PER THOUSAND DISTRIBUTION OF EMPLOYED MIGRANTS BY REASON FOR LEAVING LAST USUAL
FOR EACH PRINCIPAL USUAL

ALL-INDIA

PLACE OF RESIDENCE (UPR)

STATUS AND OCCUPATION


FEMALE

SECTOR:URBAN

-----------------------------------------------------------------------------------------------------------------------------------REASON FOR LEAVING LAST UPR (CODES)


STATUS

OCCUPATION

MIGRANTS

---------------------------------------------------------------------------- ----------------------

Source : National Sample Survey Organisation,49th Round,Schedule 1.2

A - 150

01

02

03

04

05

OTHERS

ALL

ESTD(00).

SAMPLE

(06-19)
-----------------------------------------------------------------------------------------------------------------------------------(1)

(2)

(3)

(4)

(5)

(6)

(7)

(8)

(9)

(10)

(11)

-----------------------------------------------------------------------------------------------------------------------------------SELF-EMPLOYED

24

71

26

876

1000

837

118

367

84

549

1000

92

16

1000

1000

150

11

91

892

1000

525

58

17

182

79

722

1000

480

50

19

42

927

1000

6036

763

25

66

32

876

1000

1781

189

-----------------------------------------------------------------------------------------------------------------------------------ALL

20

61

16

899

1000

9901

1197

-----------------------------------------------------------------------------------------------------------------------------------REG.-EMPLOYED

19

45

214

54

661

1000

3800

248

319

433

1000

88

10

89

32

211

21

647

1000

1101

130

236

31

12

720

1000

81

91

141

409

352

1000

282

54

448

552

1000

340

26

21

13

959

1000

286

34

6
7

504

-----------------------------------------------------------------------------------------------------------------------------------ALL

65

42

200

38

649

1000

5978

767

-----------------------------------------------------------------------------------------------------------------------------------CASUAL

LABOUR

23

10

16

29

921

1000

1000

1000

124

876

1000

25

20

144

143

693

1000

168

30

31

112

15

840

1000

11928

1235

22

158

815

1000

2010

239

6
7

1227

90

-----------------------------------------------------------------------------------------------------------------------------------ALL

27

111

15

842

1000

15358

1600

-----------------------------------------------------------------------------------------------------------------------------------ALL

10

27

31

142

44

746

1000

5864

309

43

156

492

1000

181

26

78

28

185

19

690

1000

1252

134

10

111

870

1000

631

72

13

147

109

124

605

1000

930

134

27

96

13

863

1000

18303

2024

22

107

18

852

1000

4076

462

6
7

712

-----------------------------------------------------------------------------------------------------------------------------------ALL

21

87

20

39

10

823

1000

31237

3564

-----------------------------------------------------------------------------------------------------------------------------------ESTD. MIGRANTS (00)

653

2702

631

1227

311

25714

31237

-----------------------------------------------------------------------------------------------------------------------------------SAMPLE MIGRANTS

84

338

85

229

25

2803

3564

------------------------------------------------------------------------------------------------------------------------------------

Source : National Sample Survey Organisation,49th Round,Schedule 1.2

A - 151

TABLE-20 :

PER THOUSAND DISTRIBUTION OF EMPLOYED MIGRANTS BY REASON FOR LEAVING LAST USUAL
FOR EACH PRINCIPAL USUAL

PLACE OF RESIDENCE (UPR)

STATUS AND OCCUPATION

ALL-INDIA

PERSONS

SECTOR:URBAN

-----------------------------------------------------------------------------------------------------------------------------------REASON FOR LEAVING LAST UPR (CODES)


STATUS

OCCUPATION

MIGRANTS

---------------------------------------------------------------------------- ---------------------01

02

03

04

05

OTHERS

ALL

ESTD(00).

SAMPLE

(06-19)
-----------------------------------------------------------------------------------------------------------------------------------(1)

(2)

(3)

(4)

(5)

(6)

(7)

(8)

(9)

(10)

(11)

-----------------------------------------------------------------------------------------------------------------------------------SELF-EMPLOYED

91

353

126

31

18

381

1000

5129

593

36

473

112

35

59

285

1000

1271

204

65

326

69

60

472

1000

432

32

76

322

140

15

444

1000

7586

967

36

452

98

410

1000

1951

199

178

352

112

351

1000

24746

2973

73

343

93

11

22

458

1000

7135

903

1000

1000

10

-----------------------------------------------------------------------------------------------------------------------------------ALL

127

353

114

12

386

1000

48260

5874

-----------------------------------------------------------------------------------------------------------------------------------REG.-EMPLOYED

15

70

95

438

27

356

1000

14087

59

61

713

11

155

1000

3221

379

14

95

71

538

32

250

1000

12354

1557

22

447

159

132

14

226

1000

2102

259

35

123

51

561

29

202

1000

4643

650

136

429

44

140

251

1000

1657

173

24

213

129

331

30

273

1000

8875

1143

1000

1000

39

1911

-----------------------------------------------------------------------------------------------------------------------------------ALL

22

137

89

451

26

274

1000

46976

6074

-----------------------------------------------------------------------------------------------------------------------------------CASUAL

LABOUR

132

184

69

14

12

589

1000

2882

1000

1000

42

168

71

213

548

1000

310

25

52

327

139

96

386

1000

471

88

145

399

79

30

347

1000

917

107

127

389

73

408

1000

28977

3386

118

423

89

12

353

1000

11564

1506

6
7

312

-----------------------------------------------------------------------------------------------------------------------------------ALL

124

383

78

405

1000

45162

5429

-----------------------------------------------------------------------------------------------------------------------------------ALL

48

150

99

288

23

392

1000

22099

11

184

74

516

25

190

1000

4534

588

16

104

70

514

31

265

1000

13095

1614

64

348

144

34

14

396

1000

10158

1314

49

242

66

351

18

274

1000

7510

956

150

374

90

378

1000

55380

6532

76

335

103

111

20

354

1000

27573

3552

205

796

1000

49

2816

-----------------------------------------------------------------------------------------------------------------------------------ALL

91

291

94

156

14

354

1000

140398

17377

-----------------------------------------------------------------------------------------------------------------------------------ESTD. MIGRANTS (00)

12742

40800

13210

21855

2023

49767

140398

-----------------------------------------------------------------------------------------------------------------------------------SAMPLE MIGRANTS

1500

5335

1677

3195

293

5377

17377

------------------------------------------------------------------------------------------------------------------------------------

Source : National Sample Survey Organisation,49th Round,Schedule 1.2

A - 152

TABLE-21 :

PER THOUSAND DISTRIBUTION OF MIGRANTS BY OCCUPATION AFTER MIGRATION FOR EACH OCCUPATION BEFORE MIGRATION

ALL-INDIA

MALE

SECTOR:RURAL

-----------------------------------------------------------------------------------------------------------------------------------STATUS/OCCUPATION AFTER MIGRATION


STATUS/OCCUPATION

--------------------------------------------------------------------------------------------------------------

BEFORE MIGRATION

UN

NOT IN

--------------------------------------------------------------------------------------

EMPLOYED

EMP-

LABOUR

STATUS

LOYED

FORCE

OCCUPATION

0-1

7-9

MIGRANTS
---------------------TOTAL ESTD. (00)

SAMPLE

-----------------------------------------------------------------------------------------------------------------------------------(1)

(2)

(3)

(4)

(5)

(6)

(7)

(8)

(9)

(10)

(11)

(12)

(13)

(14)

(15)

-----------------------------------------------------------------------------------------------------------------------------------0

EMPLOYED

517

44

42

24

160

27

23

63

96

1000

11530

1180

815

156

14

1000

1053

109

763

33

90

32

55

1000

4649

511

19

13

600

19

216

19

47

54

1000

5820

565

31

22

532

221

39

24

117

1000

5710

576

31

21

708

33

38

58

93

1000

49608

5019

27322

2185

- 9
X

11

12

123

125

194

473

40

1000

-----------------------------------------------------------------------------------------------------------------------------------ALL

64

13

45

57

46

411

52

74

162

76

1000

105692

10145

-----------------------------------------------------------------------------------------------------------------------------------UNEMP.

NOT IN LF.

149

22

75

113

58

135

53

218

149

28

1000

5349

560

29

32

15

204

41

30

50

586

1000

83588

7934

-----------------------------------------------------------------------------------------------------------------------------------TOTAL

52

10

30

48

33

314

47

59

113

294

1000

194629

18639

-----------------------------------------------------------------------------------------------------------------------------------ESTD. MIGRANTS (00)

10033

1870

5844

9328

6420

61185

9218

11471

22082

57178

194629

-----------------------------------------------------------------------------------------------------------------------------------SAMPLE MIGRANTS

1157

170

605

892

631

6197

640

794

1762

5791

18639

------------------------------------------------------------------------------------------------------------------------------------

Source : National Sample Survey Organisation,49th Round,Schedule 1.2

A - 153

TABLE-21 :

PER THOUSAND DISTRIBUTION OF MIGRANTS BY OCCUPATION AFTER MIGRATION FOR EACH OCCUPATION BEFORE MIGRATION

ALL-INDIA

FEMALE

SECTOR:RURAL

-----------------------------------------------------------------------------------------------------------------------------------STATUS/OCCUPATION AFTER MIGRATION


STATUS/OCCUPATION

--------------------------------------------------------------------------------------------------------------

BEFORE MIGRATION

UN

NOT IN

--------------------------------------------------------------------------------------

EMPLOYED

EMP-

LABOUR

STATUS

LOYED

FORCE

OCCUPATION

0-1

7-9

MIGRANTS
---------------------TOTAL ESTD. (00)

SAMPLE

-----------------------------------------------------------------------------------------------------------------------------------(1)

(2)

(3)

(4)

(5)

(6)

(7)

(8)

(9)

(10)

(11)

(12)

(13)

(14)

(15)

-----------------------------------------------------------------------------------------------------------------------------------0

EMPLOYED

260

14

18

229

27

30

419

1000

8458

670

824

173

1000

180

17

79

808

112

1000

390

46

11

617

19

212

140

1000

1042

101

755

85

158

1000

2902

172

758

13

209

1000

253141

15314

14296

675

- 9

19

100

269

37

416

150

1000

-----------------------------------------------------------------------------------------------------------------------------------ALL

10

13

698

21

34

211

1000

280409

16995

-----------------------------------------------------------------------------------------------------------------------------------UNEMP.

NOT IN LF.

75

34

17

211

45

277

336

1000

2019

161

180

790

1000

855618

54848

-----------------------------------------------------------------------------------------------------------------------------------TOTAL

307

10

13

646

1000

1138046

72004

-----------------------------------------------------------------------------------------------------------------------------------ESTD. MIGRANTS (00)

8956

611

814

5644

7587

349754

11771

2658

14705

735547 1138046

-----------------------------------------------------------------------------------------------------------------------------------SAMPLE MIGRANTS

820

51

94

368

419

20551

686

148

745

48122

72004

------------------------------------------------------------------------------------------------------------------------------------

Source : National Sample Survey Organisation,49th Round,Schedule 1.2

A - 154

TABLE-21 :

PER THOUSAND DISTRIBUTION OF MIGRANTS BY OCCUPATION AFTER MIGRATION FOR EACH OCCUPATION BEFORE MIGRATION

ALL-INDIA

PERSONS

SECTOR:RURAL

-----------------------------------------------------------------------------------------------------------------------------------STATUS/OCCUPATION AFTER MIGRATION


STATUS/OCCUPATION

--------------------------------------------------------------------------------------------------------------

BEFORE MIGRATION

UN

NOT IN

--------------------------------------------------------------------------------------

EMPLOYED

EMP-

LABOUR

STATUS

LOYED

FORCE

OCCUPATION

0-1

7-9

MIGRANTS
---------------------TOTAL ESTD. (00)

SAMPLE

-----------------------------------------------------------------------------------------------------------------------------------(1)

(2)

(3)

(4)

(5)

(6)

(7)

(8)

(9)

(10)

(11)

(12)

(13)

(14)

(15)

-----------------------------------------------------------------------------------------------------------------------------------0

EMPLOYED

408

26

30

21

189

27

14

49

233

1000

19988

1850

816

159

12

1000

1233

126

767

31

83

29

59

1000

5039

557

18

11

603

19

215

16

40

67

1000

6862

666

20

14

607

175

26

17

131

1000

8612

748

750

11

20

190

1000

302749

20333

41618

2860

- 9

12

115

174

140

453

78

1000

-----------------------------------------------------------------------------------------------------------------------------------ALL

25

13

21

22

619

29

23

69

174

1000

386101

27140

-----------------------------------------------------------------------------------------------------------------------------------UNEMP.

NOT IN LF.

129

18

54

91

47

156

51

158

184

112

1000

7369

721

182

10

10

772

1000

939206

62782

-----------------------------------------------------------------------------------------------------------------------------------TOTAL

14

11

11

308

16

11

28

595

1000

1332675

90643

-----------------------------------------------------------------------------------------------------------------------------------ESTD. MIGRANTS (00)

18989

2481

6658

14972

14007

410939

20989

14129

36787

792725 1332675

-----------------------------------------------------------------------------------------------------------------------------------SAMPLE MIGRANTS

1977

221

699

1260

1050

26748

1326

942

2507

53913

90643

------------------------------------------------------------------------------------------------------------------------------------

Source : National Sample Survey Organisation,49th Round,Schedule 1.2

A - 155

TABLE-21 :

PER THOUSAND DISTRIBUTION OF MIGRANTS BY OCCUPATION AFTER MIGRATION FOR EACH OCCUPATION BEFORE MIGRATION

ALL-INDIA

MALE

SECTOR:URBAN

-----------------------------------------------------------------------------------------------------------------------------------STATUS/OCCUPATION AFTER MIGRATION


STATUS/OCCUPATION

--------------------------------------------------------------------------------------------------------------

BEFORE MIGRATION

UN

NOT IN

--------------------------------------------------------------------------------------

EMPLOYED

EMP-

LABOUR

STATUS

LOYED

FORCE

OCCUPATION

0-1

7-9

MIGRANTS
---------------------TOTAL ESTD. (00)

SAMPLE

-----------------------------------------------------------------------------------------------------------------------------------(1)

(2)

(3)

(4)

(5)

(6)

(7)

(8)

(9)

(10)

(11)

(12)

(13)

(14)

(15)

-----------------------------------------------------------------------------------------------------------------------------------0

EMPLOYED

508

41

55

78

36

25

22

58

71

106

1000

16234

801

22

142

1000

4353

562

27

23

783

19

14

10

105

1000

11843

1480

14

42

56

671

27

19

28

12

45

87

1000

9527

1242

12

801

12

25

13

59

64

1000

6580

822

24

31

54

119

125

118

100

86

273

70

1000

37076

4508

- 9

11

12

58

36

11

178

225

411

50

1000

23546

3095

2104

-----------------------------------------------------------------------------------------------------------------------------------ALL

90

57

120

127

108

50

81

88

201

79

1000

109161

13813

-----------------------------------------------------------------------------------------------------------------------------------UNEMP.

NOT IN LF.

75

35

143

113

112

17

120

150

194

42

1000

22137

2677

58

26

54

72

40

16

32

51

112

539

1000

107587

12926

-----------------------------------------------------------------------------------------------------------------------------------TOTAL

74

41

92

101

78

32

62

77

160

283

1000

238885

29416

-----------------------------------------------------------------------------------------------------------------------------------ESTD. MIGRANTS (00)

17689

9856

22024

24057

18569

7543

14898

18425

38297

67526

238885

-----------------------------------------------------------------------------------------------------------------------------------SAMPLE MIGRANTS

2191

1194

2631

3096

2054

1060

1822

2116

4523

8729

29416

------------------------------------------------------------------------------------------------------------------------------------

Source : National Sample Survey Organisation,49th Round,Schedule 1.2

A - 156

TABLE-21 :

PER THOUSAND DISTRIBUTION OF MIGRANTS BY OCCUPATION AFTER MIGRATION FOR EACH OCCUPATION BEFORE MIGRATION

ALL-INDIA

FEMALE

SECTOR:URBAN

-----------------------------------------------------------------------------------------------------------------------------------STATUS/OCCUPATION AFTER MIGRATION


STATUS/OCCUPATION

--------------------------------------------------------------------------------------------------------------

BEFORE MIGRATION

UN

NOT IN

--------------------------------------------------------------------------------------

EMPLOYED

EMP-

LABOUR

STATUS

LOYED

FORCE

OCCUPATION

0-1

7-9

MIGRANTS
---------------------TOTAL ESTD. (00)

SAMPLE

-----------------------------------------------------------------------------------------------------------------------------------(1)

(2)

(3)

(4)

(5)

(6)

(7)

(8)

(9)

(10)

(11)

(12)

(13)

(14)

(15)

-----------------------------------------------------------------------------------------------------------------------------------0

EMPLOYED

458

28

34

12

42

410

1000

5864

36

549

16

88

22

30

260

1000

181

712
26

17

13

669

11

290

1000

1252

134

560

65

16

14

27

310

1000

631

72

27

781

12

180

1000

930

134

29

77

281

50

78

461

1000

18303

2024

- 9

12

30

17

456

35

208

238

1000

4076

462

-----------------------------------------------------------------------------------------------------------------------------------ALL

92

36

32

76

174

91

82

403

1000

31237

3564

-----------------------------------------------------------------------------------------------------------------------------------UNEMP.

NOT IN LF.

148

13

201

65

11

15

87

452

1000

1757

216

18

15

16

16

15

905

1000

309046

33958

-----------------------------------------------------------------------------------------------------------------------------------TOTAL

25

10

21

30

23

21

857

1000

342040

37738

-----------------------------------------------------------------------------------------------------------------------------------ESTD. MIGRANTS (00)

8542

817

3253

3103

7159

10316

7904

618

7205

293123

342040

-----------------------------------------------------------------------------------------------------------------------------------SAMPLE MIGRANTS

1047

88

373

326

813

1154

783

94

799

32261

37738

------------------------------------------------------------------------------------------------------------------------------------

Source : National Sample Survey Organisation,49th Round,Schedule 1.2

A - 157

TABLE-21 :

PER THOUSAND DISTRIBUTION OF MIGRANTS BY OCCUPATION AFTER MIGRATION FOR EACH OCCUPATION BEFORE MIGRATION

ALL-INDIA

PERSONS

SECTOR:URBAN

-----------------------------------------------------------------------------------------------------------------------------------STATUS/OCCUPATION AFTER MIGRATION


STATUS/OCCUPATION

--------------------------------------------------------------------------------------------------------------

BEFORE MIGRATION

UN

NOT IN

--------------------------------------------------------------------------------------

EMPLOYED

EMP-

LABOUR

STATUS

LOYED

FORCE

OCCUPATION

0-1

7-9

MIGRANTS
---------------------TOTAL ESTD. (00)

SAMPLE

-----------------------------------------------------------------------------------------------------------------------------------(1)

(2)

(3)

(4)

(5)

(6)

(7)

(8)

(9)

(10)

(11)

(12)

(13)

(14)

(15)

-----------------------------------------------------------------------------------------------------------------------------------0

EMPLOYED

495

30

48

59

29

28

19

43

63

187

1000

22099

791

24

147

1000

4534

588

26

22

772

17

14

123

1000

13095

1614

14

40

52

664

29

17

27

12

44

101

1000

10158

1314

14

799

11

22

12

53

78

1000

7510

956

18

22

38

89

110

172

84

60

208

199

1000

55380

6532

- 9

10

10

51

35

12

219

196

381

77

1000

27622

3557

2816

-----------------------------------------------------------------------------------------------------------------------------------ALL

91

46

101

106

100

78

83

71

174

151

1000

140398

17377

-----------------------------------------------------------------------------------------------------------------------------------UNEMP.

NOT IN LF.

80

34

147

105

109

17

112

139

187

72

1000

23894

2893

28

18

24

22

16

20

14

40

811

1000

416633

46884

-----------------------------------------------------------------------------------------------------------------------------------TOTAL

45

18

44

47

44

31

39

33

78

621

1000

580925

67154

-----------------------------------------------------------------------------------------------------------------------------------ESTD. MIGRANTS (00)

26231

10673

25277

27160

25729

17859

22801

19043

45502

360650

580925

-----------------------------------------------------------------------------------------------------------------------------------SAMPLE MIGRANTS

3238

1282

3004

3422

2867

2214

2605

2210

5322

40990

67154

------------------------------------------------------------------------------------------------------------------------------------

Source : National Sample Survey Organisation,49th Round,Schedule 1.2

A - 158

TABLE-22

PER THOUSAND DISTRIBUTION OF RETURN MIGRANTS BY LOCATION OF LAST RESIDENCE FOR EACH PERIOD SINCE MIGRATED

ALL-INDIA

MALE

SECTOR : RURAL

-----------------------------------------------------------------------------------------------------------------------------------PERIOD SINCE
MIGRATED

LOCATION OF LAST RESIDENCE

NO. OF

RETURN MIGRANTS

__________________________________________________________________________________ RETURN -------------------SAME DISTRICT

OTHER DISTRICT

OTHER STATE

OTHER

OF SAME STATE
----------------- ----------------- ----------------RURAL

URBAN

RURAL

URBAN

RURAL

N.R.

ALL MIGRANTS

COUN-

PER 1000

TRIES

MIGRANTS

ESTD.

SAMPLE

URBAN

-----------------------------------------------------------------------------------------------------------------------------------(1)

(2)

(3)

(4)

(5)

(6)

(7)

(8)

(9)

(10)

(11)

(12)

(13)

-----------------------------------------------------------------------------------------------------------------------------------0

136

24

69

654

25

73

18

1000

507

1180938

669

271

112

72

165

30

331

19

1000

243

316188

470

239

130

32

220

65

229

84

1000

228

338329

528

321

82

140

126

295

27

1000

142

191266

312

397

110

56

194

213

22

1000

150

192993

248

244

34

272

96

138

206

10

1000

164

165915

126

321

39

165

213

230

22

1000

165

471673

324

10 - 15

275

82

91

135

39

350

22

1000

143

419946

328

16 & ABOVE

223

66

97

202

14

357

40

1000

115

564847

376

6 -

N.R.

-----------------------------------------------------------------------------------------------------------------------------------ALL YEARS

234

63

96

325

30

223

28

1000

197

3842097

3381

-----------------------------------------------------------------------------------------------------------------------------------ESTD. RETURN MIGRANTS

898781

240729

368293

1247704

115820

857463

109331

3976

3842097

-----------------------------------------------------------------------------------------------------------------------------------SAMPLE RETURN MIGRANTS

1075

459

370

559

171

657

78

12

3381

------------------------------------------------------------------------------------------------------------------------------------

ALL-INDIA

FEMALE

SECTOR : RURAL

-----------------------------------------------------------------------------------------------------------------------------------PERIOD SINCE
MIGRATED

LOCATION OF LAST RESIDENCE

NO. OF

RETURN MIGRANTS

__________________________________________________________________________________ RETURN -------------------SAME DISTRICT

OTHER DISTRICT

OTHER STATE

OTHER

OF SAME STATE
----------------- ----------------- ----------------RURAL

URBAN

RURAL

URBAN

RURAL

N.R.

ALL MIGRANTS

COUN-

PER 1000

TRIES

MIGRANTS

ESTD.

SAMPLE

URBAN

-----------------------------------------------------------------------------------------------------------------------------------(1)

(2)

(3)

(4)

(5)

(6)

(7)

(8)

(9)

(10)

(11)

(12)

(13)

-----------------------------------------------------------------------------------------------------------------------------------0

186

31

93

644

21

21

1000

267

775074

463

618

51

103

70

32

125

1000

90

397810

366

627

53

157

86

20

42

17

1000

60

341022

441

667

40

137

88

62

1000

55

268705

299

494

66

201

179

19

39

1000

61

246761

236

537

53

256

24

127

1000

66

286433

173

585

60

218

62

39

29

1000

52

698154

436

10 - 15

685

44

147

67

36

16

1000

33

637497

457

16 & ABOVE

685

25

192

43

35

18

1000

23

1241781

808

6 -

N.R.

-----------------------------------------------------------------------------------------------------------------------------------ALL YEARS

563

42

166

157

35

33

1000

43

4893237

3679

-----------------------------------------------------------------------------------------------------------------------------------ESTD. RETURN MIGRANTS

2755091

205970

811127

770340

172253

160794

14932

2730

4893237

-----------------------------------------------------------------------------------------------------------------------------------SAMPLE RETURN MIGRANTS

2185

283

560

288

151

183

17

12

3679

------------------------------------------------------------------------------------------------------------------------------------

Source : National Sample Survey Organisation,49th Round,Schedule 1.2

A - 159

TABLE-22

PER THOUSAND DISTRIBUTION OF RETURN MIGRANTS BY LOCATION OF LAST RESIDENCE FOR EACH PERIOD SINCE MIGRATED

ALL-INDIA

PERSONS

SECTOR : RURAL

-----------------------------------------------------------------------------------------------------------------------------------PERIOD SINCE
MIGRATED

LOCATION OF LAST RESIDENCE

NO. OF

RETURN MIGRANTS

__________________________________________________________________________________ RETURN -------------------SAME DISTRICT

OTHER DISTRICT

OTHER STATE

OTHER

OF SAME STATE
----------------- ----------------- ----------------RURAL

URBAN

RURAL

URBAN

RURAL

N.R.

ALL MIGRANTS

COUN-

PER 1000

TRIES

MIGRANTS

ESTD.

SAMPLE

URBAN

-----------------------------------------------------------------------------------------------------------------------------------(1)

(2)

(3)

(4)

(5)

(6)

(7)

(8)

(9)

(10)

(11)

(12)

(13)

-----------------------------------------------------------------------------------------------------------------------------------0

156

27

78

650

23

53

11

1000

374

1956012

1132

464

78

90

112

31

216

1000

125

713998

836

434

92

95

152

42

135

50

1000

95

679351

969

523

57

138

104

159

11

1000

73

459972

611

451

85

137

185

15

115

12

1000

82

439753

484

429

47

262

51

131

77

1000

84

452348

299

479

51

197

123

27

110

13

1000

72

1169827

760

10 - 15

522

59

125

94

37

149

11

1000

48

1057443

785

16 & ABOVE

541

38

162

93

28

124

13

1000

30

1806629

1184

6 -

N.R.

-----------------------------------------------------------------------------------------------------------------------------------ALL YEARS

418

51

135

231

33

117

14

1000

66

8735334

7060

-----------------------------------------------------------------------------------------------------------------------------------ESTD. RETURN MIGRANTS

3653872

446699

1179420

2018045

288073

1018257

124263

6706

8735334

-----------------------------------------------------------------------------------------------------------------------------------SAMPLE RETURN MIGRANTS

3260

742

930

847

322

840

95

24

7060

------------------------------------------------------------------------------------------------------------------------------------

ALL-INDIA

MALE

SECTOR : URBAN

-----------------------------------------------------------------------------------------------------------------------------------PERIOD SINCE
MIGRATED

LOCATION OF LAST RESIDENCE

NO. OF

RETURN MIGRANTS

__________________________________________________________________________________ RETURN -------------------SAME DISTRICT

OTHER DISTRICT

OTHER STATE

OTHER

OF SAME STATE
----------------- ----------------- ----------------RURAL

URBAN

RURAL

URBAN

RURAL

N.R.

ALL MIGRANTS

COUN-

PER 1000

TRIES

MIGRANTS

ESTD.

SAMPLE

URBAN

-----------------------------------------------------------------------------------------------------------------------------------(1)

(2)

(3)

(4)

(5)

(6)

(7)

(8)

(9)

(10)

(11)

(12)

(13)

-----------------------------------------------------------------------------------------------------------------------------------0

140

77

131

308

52

244

16

31

1000

71

92556

302

171

157

135

308

34

182

1000

93

142629

335

215

170

123

239

80

142

31

1000

88

170786

404

188

133

139

331

62

108

38

1000

48

86864

236

173

128

223

294

29

121

32

1000

95

128795

223

194

166

110

174

198

116

43

1000

78

93564

114

203

231

96

202

56

162

49

1000

67

238174

302

10 - 15

273

175

128

191

87

107

40

1000

39

179089

290

16 & ABOVE

110

81

175

199

232

159

42

1000

50

330201

340

6 -

N.R.

-----------------------------------------------------------------------------------------------------------------------------------ALL YEARS

181

147

141

235

107

150

35

1000

61

1462657

2546

-----------------------------------------------------------------------------------------------------------------------------------ESTD. RETURN MIGRANTS

264369

215338

206759

344289

156449

219119

51551

4783

1462657

-----------------------------------------------------------------------------------------------------------------------------------SAMPLE RETURN MIGRANTS

514

387

342

548

262

415

66

12

2546

------------------------------------------------------------------------------------------------------------------------------------

Source : National Sample Survey Organisation,49th Round,Schedule 1.2

A - 160

TABLE-22

PER THOUSAND DISTRIBUTION OF RETURN MIGRANTS BY LOCATION OF LAST RESIDENCE FOR EACH PERIOD SINCE MIGRATED

ALL-INDIA

FEMALE

SECTOR : URBAN

-----------------------------------------------------------------------------------------------------------------------------------PERIOD SINCE
MIGRATED

LOCATION OF LAST RESIDENCE

NO. OF

RETURN MIGRANTS

__________________________________________________________________________________ RETURN -------------------SAME DISTRICT

OTHER DISTRICT

OTHER STATE

OTHER

OF SAME STATE
----------------- ----------------- ----------------RURAL

URBAN

RURAL

URBAN

RURAL

N.R.

ALL MIGRANTS

COUN-

PER 1000

TRIES

MIGRANTS

ESTD.

SAMPLE

URBAN

-----------------------------------------------------------------------------------------------------------------------------------(1)

(2)

(3)

(4)

(5)

(6)

(7)

(8)

(9)

(10)

(11)

(12)

(13)

-----------------------------------------------------------------------------------------------------------------------------------0

211

119

155

307

42

148

18

1000

69

87712

207

227

118

246

44

147

10

1000

84

146774

284

201

171

90

268

168

98

1000

73

165214

299

316

186

204

187

18

81

1000

46

90458

189

222

201

169

275

120

1000

82

132428

174

318

226

153

168

38

98

1000

58

85505

98

178

256

168

207

55

109

27

1000

55

272347

299

6 -

228

10 - 15

299

188

126

172

42

157

16

1000

41

265769

290

16 & ABOVE

299

189

180

163

71

82

16

1000

33

414490

410

N.R.

-----------------------------------------------------------------------------------------------------------------------------------ALL YEARS

252

201

153

208

59

113

13

1000

49

1660696

2271

-----------------------------------------------------------------------------------------------------------------------------------ESTD. RETURN MIGRANTS

419087

333043

253298

344979

98674

187738

21397

2479

1660696

-----------------------------------------------------------------------------------------------------------------------------------SAMPLE RETURN MIGRANTS

581

439

308

452

167

284

31

2271

------------------------------------------------------------------------------------------------------------------------------------

ALL-INDIA

PERSON

SECTOR : URBAN

-----------------------------------------------------------------------------------------------------------------------------------PERIOD SINCE
MIGRATED

LOCATION OF LAST RESIDENCE

NO. OF

RETURN MIGRANTS

__________________________________________________________________________________ RETURN -------------------SAME DISTRICT

OTHER DISTRICT

OTHER STATE

OTHER

OF SAME STATE
----------------- ----------------- ----------------RURAL

URBAN

RURAL

URBAN

RURAL

N.R.

ALL MIGRANTS

COUN-

PER 1000

TRIES

MIGRANTS

ESTD.

SAMPLE

URBAN

-----------------------------------------------------------------------------------------------------------------------------------(1)

(2)

(3)

(4)

(5)

(6)

(7)

(8)

(9)

(10)

(11)

(12)

(13)

-----------------------------------------------------------------------------------------------------------------------------------0

175

98

142

308

47

197

25

1000

70

180268

530

189

192

126

276

39

164

1000

88

289403

619

208

171

106

254

123

120

16

1000

80

336000

703

253

160

172

258

39

94

22

1000

47

177321

425

198

165

196

285

17

120

19

1000

88

261223

397

253

194

130

171

122

108

22

1000

67

179069

212

190

245

134

205

55

134

38

1000

60

510521

601

10 - 15

289

183

127

180

60

137

25

1000

40

444858

580

16 & ABOVE

215

141

178

179

142

117

28

1000

39

744691

750

6 -

N.R.

-----------------------------------------------------------------------------------------------------------------------------------ALL YEARS

219

176

147

221

82

130

23

1000

54

3123353

4817

-----------------------------------------------------------------------------------------------------------------------------------ESTD. RETURN MIGRANTS

683456

548382

460057

689268

255123

406857

72948

7263

3123353

-----------------------------------------------------------------------------------------------------------------------------------SAMPLE RETURN MIGRANTS

1095

826

650

1000

429

699

97

21

4817

------------------------------------------------------------------------------------------------------------------------------------

Source : National Sample Survey Organisation,49th Round,Schedule 1.2

6r
zl

I 9 I. V

SJF{)

sJeqwatuEururea7 guared Jo tueun r.al\

II
OI
60
80
LO

aEEui4\

$tEri
sualqord fecruod FL\ls
sualqoal Sursr-o;;
wa IasnoqJo uopErnf-rv

90

s0

Iroa yo a*1d or .ursr,r d

v0
t0

z0

lcgJluoJ /, aJLrJaS _IOJa_g:

raDaq7tuarn-ioldrua
er :tler ..1
ryeur,(oldure
luaru.{o1dup JruaqJo q.'E"6 5r
Io elTals ;

IO

luauriolftua

apoJ

uosBeu

UdN ISVT CNIAYST UOd NOSVTU


sr+o

6I
OI
60
80

lFr"4{
euralqord 1ecgpd ler-l\
slsatlorJ
lsg , esnq_ro uoclsfirasamls
Iro-rlJo arld o irunxor4
lcenuoJ e3{_1rr1Ore3Sn:1 i

LO

90

s0
v0
t0

z0

lueu,(oldurereuaqi ruamiq@
luauriolftue reuq Io rff,Desq
tuau-ioldrua -Io q.rDasul

IO
epoJ

uosBeu

oJoHtrsnoH do rNflhrf,AorAruoJ NOSrfu


srrFo
sJeqr,ueu
Eururea nuarsd_torre

rrrl\

t
t

afulu11

seFnrs i
lueur,(olduredn e{gt i l*[uoJ
aJrLE]syo :agG1
reuaq 1lueulioldruago qrrm q
lur-{otA-e

epoJ

uos;au

NOII\rUO[^t-rnouo.{ Nosvru
rsrT f,oof, tt?-TT:gvr