You are on page 1of 3

Getsemaní tab by Misc Praise Songs

28 views, added to favorites 0 times


Author Unregistered. 1 contributor total, last edit by mendace [m] 44,754 on Dec
21, 2017.
GETSEMANÍ

C MimAdd7 Am F
REm
1 |----------------------0---|--------------0---|--------------
0-----|------------------1---|-----------1--|
2 |--------------------1-----|-----------3------|--------1-------
1---|--------------1-------|--------3-----|
3 |-----------------0--------|--------0---------|------0---0---------|-----------
2----------|-----2--------|
4
|--------------------------|------------------|--------------------|---------------
-------|--0-----------|
5 |-----0h2---3--------------|-----2------------|---0----------------|---0-
2----------------|--------------|
6 |--------------------------|------------------|--------------------|-------
1--------------|--------------|

G
1 |----------3---------3--|
2 |------------3---3------|
3 |--------0-----0---0----|
4 |-----------------------|
5 |-----------------------|
6 |-----3-----------------|

Verso:

C MimAdd7 Am F
REm
1 |----------------------0---|--------------0---|--------------
0-----|------------------1---|-----------1--|
2 |--------------------1-----|-----------3------|--------1-------
1---|--------------1-------|--------3-----|
3 |-----------------0--------|--------0---------|------0---0---------|-----------
2----------|-----2--------|
4
|--------------------------|------------------|--------------------|---------------
-------|--0-----------|
5 |-----0h2---3--------------|-----2------------|---0----------------|---0-
2----------------|--------------|
6 |--------------------------|------------------|--------------------|-------
1--------------|--------------|

G
1 |----------3---------3--|
2 |------------3---3------|
3 |--------0-----0---0----|
4 |-----------------------|
5 |-----------------------|
6 |-----3-----------------|
Em MIm Am FA
Dm
1
|-----------------------|------------------|------------------------|--------------
----1---|----------1--|
2 |----------------0------|-----------0------|-------0h1--------
0h1---|--------------1-------|--------3----|
3 |-------------0-----0---|--------0-----0---|----0------0----0-----0-|-----------
2----------|-----2-------|
4
|-----------------------|------------------|------------------------|--------------
--------|--0----------|
5 |-----------------------|------------------|--0----------
0----------|----------------------|-------------|
6 |---3h2---0-------------|-----0------------|------------------------|-------
1--------------|-------------|

G
1 |----------3---------3--|
2 |------------3---3------|
3 |--------0-----0---0----|
4 |-----------------------|
5 |-----------------------|
6 |-----3-----------------|

C MimAdd7 Am F
REm
1 |----------------------0---|--------------0---|--------------
0-----|------------------1---|-----------1--|
2 |--------------------1-----|-----------3------|--------1-------
1---|--------------1-------|--------3-----|
3 |-----------------0--------|--------0---------|------0---0---------|-----------
2----------|-----2--------|
4
|--------------------------|------------------|--------------------|---------------
-------|--0-----------|
5 |-----0h2---3--------------|-----2------------|---0----------------|---0-
2----------------|--------------|
6 |--------------------------|------------------|--------------------|-------
1--------------|--------------|

G
1 |----------3---------3--|
2 |------------3---3------|
3 |--------0-----0---0----|
4 |-----------------------|
5 |-----------------------|
6 |-----3-----------------|

Em MIm Am FA
Dm
1
|-----------------------|------------------|------------------------|--------------
----1---|-----------1-|
2 |----------------0------|-----------0------|-------0h1--------
0h1---|--------------1-------|--------3----|
3 |-------------0-----0---|--------0-----0---|----0------0----0-----0-|-----------
2----------|-----2-------|
4
|-----------------------|------------------|------------------------|--------------
--------|--0----------|
5 |-----------------------|------------------|--0----------
0----------|----------------------|-------------|
6 |---3h2---0-------------|-----0------------|------------------------|-------
1--------------|-------------|

G
1 |----------3---------3--|
2 |------------3---3------|
3 |--------0-----0---0----|
4 |-----------------------|
5 |-----------------------|
6 |-----3-----------------|

Coro:

G C SOL LAm Em FA
Más alla de mis miedos más alla de mi inseguridad

Dm SOL
Quiero darte mi respuesta

C G LAm MIm
Aquí estoy para hacer tu voluntad para que mi amor

F SOL Puente
Sea decirte sí hasta el final

Puente:
C
1 |----------------0---------|
2 |-----------0-------3---3--|
3 |---------0---0-------0----|
4 |--------------------------|
5 |---0h2--3-----------------|
6 |--------------------------|
Estructura

VersoX2
Coro
VersoX2
Coro
VersoX2
CoroX2 (Aquí donde dice puente se toca Lam y luego se repite el coro)

El final se puede tocar arpegeando los acordes del coro y al final rasguear un Do
mayor