You are on page 1of 305

Gitaarboek 1

Versie 1.02
INHOUD
2 Brothers on the 4th floor - Dreams (will come alive) ......................................................................... 1
Haddaway - What Is Love ....................................................................................................................... 3
Lady Gaga - Bad Romance ...................................................................................................................... 5
Electric Light Orchestra - Mr. Blue Sky ................................................................................................... 8
Milow - Ayo Technology ......................................................................................................................... 9
Milow - You don't know ....................................................................................................................... 11
Supertramp - Goodbye Stranger .......................................................................................................... 13
Florence and the machine - My boy builds coffins .............................................................................. 16
Jan Rot - Lola ......................................................................................................................................... 17
Supertramp - School ............................................................................................................................. 19
Harry Jekkers- Terug bij af .................................................................................................................... 21
Jan Rot - Ankie ...................................................................................................................................... 22
Florence and the machine - The dog days are over ............................................................................. 23
Glen Hansard – Leave ........................................................................................................................... 25
Barenaked ladies - Brian Wilson .......................................................................................................... 27
Snap - Rhythm is a dancer .................................................................................................................... 29
Eddie Vedder - Guaranteed .................................................................................................................. 30
Obadiah Parker - Fall/Back ................................................................................................................... 31
Four chords, many songs medley ......................................................................................................... 32
Modern Talking - You're my Heart, You're my Soul ............................................................................ 38
Doe Maar - Is dit alles? ......................................................................................................................... 39
Eddie Vedder - Long Nights .................................................................................................................. 40
Dolly Dots - Love me just a little bit more ........................................................................................... 43
Rihanna - Umbrella ............................................................................................................................... 45
Fiction Plane - Two Sisters .................................................................................................................... 47
Roger Glover - Love Is All ...................................................................................................................... 49
John Lennon - Working class hero........................................................................................................ 51
Rusted Root - Send Me On My Way..................................................................................................... 53
Mental Theo & Charly Lownoise - Wonderfull days ............................................................................ 56
Eiffel 65 - Blue (Da Ba Dee) ................................................................................................................... 57
KT Tunstall - Black Horse And The Cherry Tree.................................................................................... 59
Obadiah Parker - Who Is It ................................................................................................................... 61
Vaya Con Dios - Don't Cry For Louie ..................................................................................................... 63
Vaya Con Dios - Just A Friend Of Mine ................................................................................................. 64
Vaya Con Dios - Neh Nah Neh .............................................................................................................. 65
Eva de Roovere - Fantastig Toch .......................................................................................................... 66
Eurythmics - Sweet dreams (are made of this).................................................................................... 67
Eurythmics - Here comes the rain again .............................................................................................. 69
Glen Hansard - When Your Minds Made Up........................................................................................ 70
Foo Fighters - Home .............................................................................................................................. 71
Foo Fighters - Let it Die ......................................................................................................................... 73
Fleetwood Mac - Landslide................................................................................................................... 77
Jimi Hendrix - Hey Joe........................................................................................................................... 79
Jimi Hendrix - Purple Haze.................................................................................................................... 81
Krezip - Sweet Goodbyes ...................................................................................................................... 83
Bob Seger - Turn the page .................................................................................................................... 86
Yann Tiersen - Monochrome ................................................................................................................ 87
Canned Heat - Going up the country.................................................................................................... 89
Eels - I'm Going To Stop Pretending That I Didn't Break Your Heart .................................................. 90
Herman Brood - My Way ...................................................................................................................... 91
Jason Mraz - I'm yours .......................................................................................................................... 93
Jewel - Who Will Save Your Soul .......................................................................................................... 95
Foo Fighters - Stranger Things Have Happened ................................................................................... 96
Kaki King - Doing The Wrong Thing ...................................................................................................... 97
Nouvelle Vague - A Forest .................................................................................................................. 100
Adele - Make You Feel My Love ......................................................................................................... 101
Amy MacDonald - A Wish For Something More ................................................................................ 103
Amy Macdonald - Let's start a band .................................................................................................. 105
Anouk - In The Sand ............................................................................................................................ 107
Anouk - Sacrifice ................................................................................................................................. 109
Belle and Sebastian - Piazza New York Catcher ................................................................................. 112
Aretha Franklin - Think ....................................................................................................................... 113
Stranglers - No More Heroes .............................................................................................................. 115
Dido - Life for rent............................................................................................................................... 117
Dido - White Flag ................................................................................................................................ 119
Lenny Kravitz - It ain't over till it's over ............................................................................................. 121
Lenny Kravitz - Let love rule ............................................................................................................... 123
Lenny Kravitz - Fly Away ..................................................................................................................... 124
Eric Clapton - Hey Hey ........................................................................................................................ 125
Eric Clapton - Old Love........................................................................................................................ 127
JJ Cale & Eric Clapton - Danger ........................................................................................................... 129
Eric Clapton - Alberta .......................................................................................................................... 131
Eric Clapton - Lay Down Sally ............................................................................................................. 132
Yardbirds - For Your Love ................................................................................................................... 133
The Stranglers - Golden Brown .......................................................................................................... 134
Santana ft. Everlast - Put Your Lights On ........................................................................................... 135
Maroon 5 - This Love .......................................................................................................................... 137
Spice Girls - Stop ................................................................................................................................. 139
Spice Girls - Spice Up You Life ............................................................................................................ 141
Damien Rice - Nine Crimes ................................................................................................................. 143
Neil Young - Ohio ................................................................................................................................ 144
Blues Brothers - Everybody needs somebody to love ....................................................................... 145
Eagle Eye Cherry - Save Tonight ......................................................................................................... 147
Mika - Relax, take it easy .................................................................................................................... 149
Mumford and Sons - Little Lion Man ................................................................................................. 151
Morcheeba - Wonders Never Cease .................................................................................................. 161
Maroon 5 - Sunday Morning .............................................................................................................. 162
Kay Perry - Hot 'n Cold ........................................................................................................................ 163
Florence And The Machine - You've Got The Love ............................................................................ 165
Mumford and Sons - The Cave ........................................................................................................... 167
The Rasmus - First Day of My Life ...................................................................................................... 169
Krezip - Beautiful ................................................................................................................................ 171
The Beatles - Eleanor Rigby ................................................................................................................ 174
Admiral Freebee - Rags 'n Run ........................................................................................................... 175
Bloodhound Gang - Fire, Water, Burn ................................................................................................ 177
Coolio - Gangsta's Paradise ................................................................................................................ 180
Alanis Morissette - Ironic ................................................................................................................... 181
Acda en de Munnik - Dag Esmee ........................................................................................................ 184
Acda en de Munnik - Als Het Vuur Gedoofd Is .................................................................................. 187
Melissa Etheridge - Bring me some water ......................................................................................... 190
Acda en de Munnik - Als Je Bij Me Weggaat...................................................................................... 191
Acda en de Munnik - Mooi Liedje ...................................................................................................... 193
Acda en de Munnik - Niemand Sterft................................................................................................. 195
Acda en de Munnik - Het Geeft Niet .................................................................................................. 197
Acda en de Munnik - Wacht Op Mij ................................................................................................... 198
Acda en de Munnik - Niet of Nooit geweest...................................................................................... 199
Acda en de Munnik - Ren Lenny Ren ................................................................................................. 201
Acda en de Munnik - Slaapliedje ........................................................................................................ 203
Gabriella Cilmi - Sweet About Me ...................................................................................................... 208
Acda en de Munnik - Waar Was Je Dan ............................................................................................. 209
Acda en de Munnik - Verkeerd Verbonden ....................................................................................... 211
Acda en de Munnik - Hoe Rook Het Vondelpark Vannacht .............................................................. 213
Golden Earring - Radar Love ............................................................................................................... 215
Caro Emerald - A night like this .......................................................................................................... 219
Jewel - Foolish Games......................................................................................................................... 221
Jewel - Intuition .................................................................................................................................. 223
Katy Perry - I Kissed A Girl .................................................................................................................. 225
Lily Allen - Fuck You ............................................................................................................................ 227
Lily Allen - Not Fair.............................................................................................................................. 229
The Beatles - Blackbird ....................................................................................................................... 231
Beatles - Back in the U.S.S.R. .............................................................................................................. 237
Beatles - Love Is All You Need ............................................................................................................ 239
Beatles - Hard Day's Night .................................................................................................................. 241
Lily Allen - Smile .................................................................................................................................. 242
Beatles - Free As A Bird....................................................................................................................... 243
Beatles - Lucy In The With Diamonds................................................................................................. 245
Beatles - Maxwell's Silver Hammer.................................................................................................... 247
Beatles - Magical mystery tour .......................................................................................................... 248
Beatles - Twist and Shout ................................................................................................................... 249
Beatles - She Loves You ...................................................................................................................... 251
Beatles - Sgt. Pepper's Lonely Hearts Club Band ............................................................................... 253
Beatles - Michelle ............................................................................................................................... 255
Beatles - While My Guitar Gentle Weeps .......................................................................................... 256
Beatles - With a little help from my friends....................................................................................... 257
Beatles - Yellow Submarine ................................................................................................................ 258
Waylon - Hey ....................................................................................................................................... 259
Boudewijn de Groot - Parijs, Berlijn, Madrid..................................................................................... 261
Sniff 'N' the Tears - Driver's Seat ........................................................................................................ 263
Boudewijn de Groot - Onderweg ....................................................................................................... 264
Prins, De Munnik en Den Tex - Stormvogels...................................................................................... 265
Doe Maar - 1 nacht alleen .................................................................................................................. 268
Doe Maar - Sinds 1 dag of 2 (32 jaar) ................................................................................................. 269
Doe Maar - Belle Helene ..................................................................................................................... 270
Doe Maar - Doe maar net alsof .......................................................................................................... 271
Doe Maar - Heroine ............................................................................................................................ 272
Doe Maar - Pa ..................................................................................................................................... 273
Doe Maar - Smoorverliefd .................................................................................................................. 274
Pointer Sisters - I'm so excited ........................................................................................................... 275
Gnarls Barkley - Crazy ......................................................................................................................... 277
Raymond van het Groenewoud - Ik ben God niet ............................................................................. 278
Radiohead - Karma Police................................................................................................................... 279
Ramses Shaffy - Zing, vecht, huil, bid, lach, werk en bewonder ....................................................... 281
Obadiah Parker - Hey Ya ..................................................................................................................... 283
K3 - Heya Mamma .............................................................................................................................. 285
Jose Gonzales - Heartbeats................................................................................................................. 287
Blof - Liefs uit Londen ......................................................................................................................... 289
Blof - Harder Dan Ik Hebben Kan ....................................................................................................... 291
Blof - Blauwe Ruis ............................................................................................................................... 293
Blof - Het Is Laat .................................................................................................................................. 295
Blof - Aan De Kust ............................................................................................................................... 297
Alicia Keys - Wild Horses .................................................................................................................... 298
Blof - Omarm....................................................................................................................................... 299
2 Brothers on the 4th floor - Dreams (will come alive)

[chorus:]
Gm Eb
Dreams to survive
Bb F
Dreams make a wish come true, oooh
Gm Eb
Keep your dreams alive
Bb F
Dream... dream on
Gm
Your dream will come alive

Gm
Come on dream on
Eb
Come on dream on
Bb
Come on dream on, boy
F
Your dream will come alive
Gm
Come on dream on
Eb
Come on dream on
Bb F
Come on dream on, boy

Your dream will come alive

Gm | Eb | Bb | F
your dream will come alive
Gm | Eb | Bb | F
your dream will come alive

Gm | Gm | Gm | Bb F
Gm | Gm | Gm | Bb F

Gm | Gm | Gm | Bb F
Once again a song comin' strong,
here to remind you got to dream on.
Go for what you know don't let it slide,
take a change let's ride.
To the future not to the past,
take it easy and not to fast.
Many failed in society,
to blind to see you need to be free.
Free from the strain that causes pain,
pain is the name and life is the game.
Dream on try to survive,
keep hope alive reach for the sky.
Do the best you can make a wish come true,
listen here's the clue:let it flow before it's all gone,
come on boy you got to dream on.

[Chorus]

1
Gm | Eb | Bb | F
your dream will come alive
Gm | Eb | Bb | F
your dream will come alive

Gm | Gm | Gm | Bb F
Try to relax and move to the track,
go for your goals and don't hold it back.
Strive to keep you dreams and hopes alive,
do it know and don't pass it by.
Life is to short so give me your hand,
I will lead you to another land.
D. R. O. C. K. is here with the light,
shinin' bright cause I'm right.
Close your eyes and just concentrate,
it's never to late to erase the hate.
Focus your mind when I say my rhymes,
cause I'm always on time.
Do the best you can make a wish come true,
listen here's the clue:let it flow before it's all gone,
come on boy you got to dream on

[chorus]

Gm | Gm | Gm | Bb F
Gm | Gm | Gm | Bb F

Gm | Gm | Gm | Bb F
Dreams are the way to express yourself from the heart,
now it's time to depart.
On a journey for the mind,
peace of mind is what you will find.
Like Martin Luther King, I had a dream, that we all would sing
in peace and harmony comin' strong.
Come on boy you got to dream on.

[chorus]

2
Haddaway - What Is Love

Gm | Bb | Dm | F |

[INTRO]
What is love
Baby don't hurt me
Don't hurt me
no more
Baby don't hurt me
Don't hurt me, no more

| Gm | Bb | Dm | F |

| Gm | Bb | Dm | F |
What is love

| Gm | Bb | Dm | F |
Yeah

[COUPLET]
Oh I don't know
why you're not fair
I give you my love
but you don't care
So what is right
and what is wrong
gimme a sign

[REFREIN]
What is love
Baby don't hurt me
Don't hurt me
no more
What is love
Baby don't hurt me
Don't hurt me
no more

| Gm | Bb | Dm | F |

| Gm | Bb | Dm | F |
uoh oh...
| Gm | Bb | Dm | F |
uoh oh...
| Gm | Bb | Dm | F |

[COUPLET]
Oh I don't know
what can I do
what else can I say
it's up to you
I know we're one
just me and you
I can't go on

[REFREIN]

| Gm | Bb | Dm | F |
uoh oh...
| Gm | Bb | Dm | F |
uoh oh...

3
| Gm | Bb | Dm | F |
What is love
| Gm | Bb | Dm | F |
What is love
| Gm | Bb | Dm | F |
What is love

[BREAK]
Baby don't hurt me
Don't hurt me
no more
Gm
Don't hurt me
Gm
Don't hurt me

[COUPLET]
I want no other
No other love
This is your life
our time
When we are together
I need you forever
Is it love

[REFREIN]
What is love
Baby don't hurt me
Don't hurt me
no more
What is love
Baby don't hurt me
Don't hurt me
no more
uoh oh..
What is love
Baby don't hurt me
Don't hurt me
no more
What is love ?...
Baby don't hurt me
Don't hurt me
no more
Baby don't hurt me
Don't hurt me
no more
Baby don't hurt me
Don't hurt me
no more
Baby don't hurt me
Don't hurt me
no more
Baby don't hurt me
Don't hurt me
no more
what is love?!

4
Lady Gaga - Bad Romance

Rah-rah-ah-ah-ah!
Rah-muh-rah-muh-mah!
Ga-ga-ooh-la-la!
Want your bad romance

Intro:
Am C
Rah-rah-ah-ah-ah!
Am C
Rah-muh-rah-muh-mah!
Am C
Ga-Ga-ooh-la-la!
Am G
Want your bad romance

Verse:
Am
I want your ugly
C F
I want your disease
Am
I want your everything
C G
As long as it‘s free
Am
I want your love
C G
Love-love-love
Am
I want your love

I want your drama


The touch of your hand
I want your leather studded kiss in the sand
And I want your love
Love-love-love
I want your love
C G
Love love love
Am
I want your love

Bridge:
Am
You know that I want you
And you know that I need you
I want a bad, a bad romance

Chorus:
F
I want your loving
G
And I want your revanche
Am C
You and me could write a bad romance
F
I want your loving
G
All your love is revanche
E Am
You and me could write a bad romance

5
F
Oh-oh-oh-oh-oooh!
G
Oh-oh-oooh-oh-oh!
Am C
Caught in a bad romance
Oh-oh-oh-oh-oooh!
Oh-oh-oooh-oh-oh!
Caught in a bad romance

[INTRO]

Zie Verse:
I want your horror
I want your design
‗Cause you‘re a criminal
As long as your mine
I want your love
Love-love-love
I want your love

I want your psycho


Your vertical stick
Want you in my room
When your baby is sick
I want your love
Love-love-love
I want your love
Love-love-love
I want your love

[BRIDGE]

[CHORUS]

Oh-oh-oh-oh-oooh!
Oh-oh-oooh-oh-oh!
Caught in a bad romance X2

Rah-rah-ah-ah-ah!
Rah-muh-rah-muh-mah!
Ga-ga-ooh-la-la!
Want your bad romance

Bridge:
Am
Walk-walk fashion baby
Work it, move that bitch crazy
Walk-walk fashion baby
Work it, move that bitch crazy
Walk-walk fashion baby
Work it, move that bitch crazy
Walk-walk fashion baby
Work it, I‘m a freak bitch baby

Zie Chorus:
I want your love
And I want your revenge
I want your love
I don‘t wanna be friends
J'veux ton amour
Et je veux ton revenge
J'veux ton amour

6
I don't wanna be friends

Oh-oh-oh-oh-oooh!
Oh-oh-oooh-oh-oh!
No, I don‘t wanna be friends.
Caught in a bad romance
I don‘t wanna be friends!
Oh-oh-oh-oh-oooh!
Oh-oh-oooh-oh-oh!
Want your bad romance! AKKOORDSTOP
Caught in a bad romance
Want your bad romance!

[CHORUS]

Oh-oh-oh-oh-oooh!
Oh-oh-oooh-oh-oh!
Want your bad romance!
Caught in a bad romance
Want your bad romance!
Oh-oh-oh-oh-oooh!
Oh-oh-oooh-oh-oh!
Want your bad romance!
Caught in a bad romance
Want your bad romance!

Rah-rah-ah-ah-ah!
Rah-muh-rah-muh-mah!
Ga-ga-ooh-la-la!
Want your bad romance
End on G

7
Electric Light Orchestra - Mr. Blue Sky

F
Sun is shinin' in the sky,
Em7 A Dm
There ain't a cloud in sight
G
It's stopped rainin'
Em A
Everybody's in a play
Bb
And don't you know
F Bb
It's a beautiful new day, hey hey

Runnin' down the avenue, see how the sun shines brightly
In the city on the streets where once was pity,
Mr. Blue Sky is living here today.

CHORUS (2x)
Dm F Bb
Mr. Blue Sky, please tell us why,
F Gm F
You had to hide away for so long
Eb Bb
where did we go wrong

[solo on verse]

Hey there Mr. Blue we're so pleased to be with you


Look around see what you do, everybody smiles at you.

Hey you with the pretty face, welcome to the human race
A celebration Mr. Blue Sky's, up there waitin' and today
Is the day we've waited for

CHORUS (2x)

F
Mr. Blue you did it right,
Em7 A Dm
But soon comes Mister Night,
G
Creepin' over, now his
Em A
Hand is on your shoulder,
Bb Db
Never mind I'll remember you this,
Eb Dm
I'll remember you this way.

CHORUS (2x)

Outro:

Dm F Bb F Gm F Eb Bb
Dm F Bb F Gm F Eb Bb F

8
Milow - Ayo Technology

CAPO 7

INTRO:
Em Dsus2 C

She work it girl, she work the pole


She break it down, she take it low
She fine as hell, she about the dough
She doing her thing out on the floor

Em
Her money money, she makin'
Look at the way she shakin'
Dsus2
Make you want to touch it, make you want to taste it
C Dsus2 C
Have you lustin' for her, go crazy face it

Em
She's so much more than you're used to
She know's just how to move to seduce you
Dsus2
She gone do the right thing and touch the right spot
C
Dance in you're lap till you're ready to pop

Em
She always ready, when you want it she want it
Dsus2 C
Like a nympho, the info, I show you where to meet her

Em
On the late night, till daylight the club jumpin'
Dsus2 C
If you want a good time, she gone give you what you want

PRE-CHORUS:
Em
Baby this a new age, you like my new craze
Dsus2 C
Let's get together maybe we can start a new phase
Em
The smokes got the club all hazy, spotlights don't do you justice baby
Dsus2 C
Why don't you come over here, you got me saying

REFREIN:
Em
Aayooh
Dsus2 C
I'm tired of using technology, why don't you sit down on top of me

Em
Aayooh
Dsus2 C Dsus2 C
I'm tired of using technology, I need you right in front of me

9
Em Dsus2 C

Em
In her fantasy, there's plain to see
Dsus2
Just how it be, on me, backstrokin', sweat soaking
C
All into my set sheets
Em
When she ready to ride, I'm ready to roll
I'll be in this bitch till the club close
Dsus2
What should I do, one thing on all fours
C
Now that that shit should be against the law

Em
Different style, different move, girl I like the way you move
Dsus2 C
Girl you got me thinking about, all the things I do to you
Em
Let's get it poppin' shorty we can switch positions
Dsus2 C
From the couch to the counters in my kitchen

[PRE-CHORUS]

[REFREIN]

Em
Ooh, she wants it, ooh, she wants it
Dsus2 C Em
Ooh, she wants it, I got to give it to her

Ooh, she wants it, ooh, she wants it


Dsus2 C Em
Ooh, she wants it, I got to give it to her
Dsus2 C
I got to give it to her

Em
Baby this a new age, you like my new craze
Dsus2 C
Let's get together maybe we can start a new phase
Em
The smokes got the club all hazy, spotlights don't do you justice baby
Dsus2 C
Why don't you come over here, you got me saying

Em
Aayooh
Dsus2 C Em
I'm tired of using technology, I need you right in front of me
Em
Aayooh
Dsus2 C Em
I'm tired of using technology, I need you right in front of me

10
Milow - You don't know

CAPO 4

intro: Am F G Am F G C E

Am F G
sometimes everything seems awkward and large
Am F
imagine a Wednesday evening in march
G C E
future and past at the same time
Am F G
I make use of the night and start drinking a lot
Am F G
although not ideal for now it's all that I've got
C E
it's nice to know your name

Am F
you don't know you don't know
G Am F E (één keer aanslaan)
you don't know anything about me

Am F G
an ocean a lake I need a place to drown
Am F
let's freeze the moment because we're going down
G C E
tomorrow you'll be gone (gone gone)
Am F G
you're laughing too hard this all seems surreal
Am F
I feel peculiar now what do you feel
G C E
do you think there's a chance that we can fall

Am F
you don't know you don't know
G Am F
you don't know anything about me
G C E E7
what do I know I know your name
Am F
you don't know you don't know
G Am F G E
you don't know anything about me anymore

F G C
I gave up dreaming for a while
F G C
I gave up dreaming for a while

11
Am F G
I've noticed these are mysterious days
Am F
I look at it like a jigsaw puzzle and gaze
G C E
with wide open mouth and burning eyes
Am F G
if only I could start to care
Am F G
my dreams and my Wednesdays ain't going nowhere
E
baby baby baby you don't know

Am F
you don't know you don't know
G Am F
you don't know anything about me
G C E E7
what do I know I know your name
Am F
you don't know you don't know
G Am G F Am F G Am F G
you don't know any-thing about me
C E
baby baby baby you don't know
Am F
you don't know you don't know
G Am F G E
you don't know anything about me anymore

12
Supertramp - Goodbye Stranger

CAPO 1

Chords:
G/F 120003
G+5 3X5443
G13 3x345x
A7/G 3XX020
Am/G 3XX210
Am/D XX0210
Em 022000
C/E XX2010
C9 x32330

Intro:piano
E|-3-------3-------|-3-3-------3-------|
B|-3----0--3------0|-3-3+3+3-0-3-------|
G|-----0-------0---|-----0-4+------0---|
D|-----------------|-------------------|
A|-----------------|-------------------|
E|-----------------|-------------------|

G A7/G Am/G
It was an early morning yesterday
Am/G G
I was up before the dawn
G A7/G Am/G
And I really have enjoyed my stay
Am/G G
But I must be moving on

G/F
Like a king without a castle
Em
Like a queen without a throne
C
I'm an early morning lover
Am
And I must be moving on

G A7/G Am/G
Now I believe in what you say
Am/G G
Is the undisputed truth
G A7/G Am/G
But I have to have things my own way
Am/G G
To keep me in my youth

G/F
Like a ship without an achor
Em
Like a slave without a chain
Am
Just the thought of those sweet ladies
C/D
Sends a shiver through my veins

13
G
And I will go on shining
G7/F
Shining like brand new
C/E
I'll never look behind me
Am Am/D
My troubles will be few

E|---2--3--5---3---|---2--3--5---3---|---2--3--5---3---|---5--5--7---7---|
B|---3--3--3---3---|---4--4--4---4---|---5--5--5---5---|---5--5----------|
G|---0--0--0---0---|---0--0--0---0---|-----------------|---------7---7---|
D|-----------------|-----------------|---5--5--5---5---|---7--7--9---9---|
A|-----------------|-----------------|-----------------|-----------------|
E|-----------------|-----------------|-----------------|-----------------|

| G | G+5 | Cmaj7 | Am D |

Guitar during refrain:


E|-----7-----------|-----7-----------|-----8-----------|-----------------|
B|---------8-------|---------6-------|---------8---5+--|-5---5---7-------|
G|-------------7+--|-7-----------7+--|-7---------------|-------------7---|
D|-----------------|-----------------|-----------------|-----------------|
A|-----------------|-----------------|-----------------|-----------------|
E|-----------------|-----------------|-----------------|-----------------|

| G | G/F | C/E | Am D |

G G/F
Goodbye strange it's been nice
C/E Am D
Hope you find your paradise
G G/F
Tried to see your point of view
C/E Am D
Hope your dreams will all come true
G G/F
Goodbye Mary, Goodbye Jane
C/E Am D
Will we ever meet again
G G/F
Feel no sorrow, feel no shame
C/E Am D
Come tomorrow, feel no pain

G G+5
Goodbye Mary, Goodbye Jane
Cmaj7 Am/D
Will we ever meet again

Now some they do and some they don't


And some you just can't tell
And some they will and some they won't
With some it's just as well

You can laugh at my behavior


That'll never bother me
Say the devil is my savior
But I don't pay no heed

14
And I will go on shining
Shining like brand new
I'll never look behind me
My troubles will be few

G G/F
Goodbye strange it's been nice
C/E Am D
Hope you find your paradise
G G/F
Tried to see your point of view
C/E Am D
Hope your dreams will all come true
G G/F
Goodbye Mary, Goodbye Jane
C/E Am D
Will we ever meet again
G G/F
Feel no sorrow, feel no shame
C/E Am D
Come tomorrow, feel no pain

G G+5
Goodbye Mary, Goodbye Jane
Cmaj7 G7
Will we ever meet again

Solo on : |: G13 | G13 | C9 | C9 :|

15
Florence and the machine - My boy builds coffins

CAPO 5

|C |Am |Em |

C Am Em
My boy builds coffins with hammers and nails
C Am Em
He doesn't build ships, he has no use for sails
C Am Em
He doesn't make tables, dressers or chairs
C Am Em
He can't carve a whistle cause he just doesn't care

My boy builds coffins for the rich and the poor


Kings and queens have all knocked on his door
Beggars and liars, gypsies and thieves
They all come to him 'cause he's so eager to please

C Am Em
My boy builds coffins he makes them all day
C Am Em
But it's not just for work and it isn't for play
C Am
He's made one for himself
Em
One for me too
C Am Em
One of these days he'll make one
C Am Em
For you-------
C Am Em
For you-------
C Am Em
For you-------
C Am Em
For you-------

My boy builds coffins for better or worse


Some say it's a blessing, some say it's a curse
He fits them together in sunshine or rain
Each one is unique, no two are the same

My boy builds coffins and I think it's a shame


That when each one's been made, he can't see it again
He crafts every one with love and with care
Then it's thrown in the ground and it just isn't fair

My boy builds coffins he makes them all day


But it's not just for work and it isn't for play
He's made one for himself
One for me too
One of these days he'll make one for you

16
Jan Rot - Lola

Intro:
C D E
e|---0----0----0-0-0-0--2-2----0---0----0----0-----0---------|
B|---1----1----1-1-1-1--3-3----0-----0----0----0--------0----|
G|---0----0----0-0-0-0--2-2----1-------1----1----1----1---1--|
D|---2----2----2-2-2-2--0-0----2-----------------------------|
A|---3----3----3-3-3-3---------2-----------------------------|
E|-----------------------------0-----------------------------|

E
Ik zag haar in een bar aan het Leidesplein
A D E
De champagne deed er nog minder dan kindercola
A
C-o-l-a cola
E
Ze wees op de dansvloer en knikte naar mij
A D
Ik vroeg wie ze was en met een diepe bas zei ze: Lola
E A D C C (strumming) D E
lola lo-lo-lo-lo lola lo-lo-lo-lo lola

E
Nou ben ik geen tank maar tenger gebouwd
A D
met een schouderklap werd ik dubbel gevouwd door mijn Lola
E A
Oh mijn lola lo-lo-lo-lo lola
E
Ik doe niet dom maar vol om hoe het kan
A D
Dat je loopt als een mokkel en lult als een man
E A D C à D à E
Oh mijn lola lo-lo-lo-lo lola lo-lo-lo-lo lola

B7
Met een tweede fles de dansvloer rond
F#7
Sterretjes gleden langs ‗t plafond
A
Ik vloog omhoog ze greep me bij mijn kruis
A
en zei: Zeg schat,ga je mee naar mijn huis?

E
Ik ben meer passief dan gepassioneerd
A D
Maar in het zicht van het vuur werd ik bijna verteerd door mijn Lola
E A D C D
lola lo-lo-lo-lo lola lo-lo-lo-lo lola
E A D C D E
lola lo-lo-lo-lo lola lo-lo-lo-lo lola

17
A E B
Toen vloog ik omhoog
A E B
En vloog naar de plee
A E B
Maar schoof op fles twee
E G#7 C#m
En ik ging onderuit
B
En zij keek naar mij en ik naar haar

E (picking)
En dat moment voor een adolescent
A D
Was het moment voor een experiment met mijn Lola
E A
lola Lo-lo-lo-lo lola
E
He-ho-le-bi, wie doet het met wie
A D
Fantasie blijft meestal bij theorie, maar niet voor mijn lola
E A
lola Lo-lo-lo-lo lola

B7 (strumming)
‗k zat net een week in de grote stad
F#7
had niks nakkonada nog met vrouwen gehad
A
maar Lola grijnsde, nam me bij de hand
A
en maakte mij van jongen tot man

E
Al ben je geen tank en tenger gebouwd
A D
Maar je bent wat je bent, en een vent is een vent. Vind ook lola

E A D C D
lola lo-lo-lo-lo lola lo-lo-lo-lo lola
E A D C D
lola lo-lo-lo-lo lola lo-lo-lo-lo lola
E A D C D
lola lo-lo-lo-lo lola lo-lo-lo-lo lola
E A D C D
lola lo-lo-lo-lo lola lo-lo-lo-lo lola
E A D C D
lola lo-lo-lo-lo lola lo-lo-lo-lo lola
E A D C D
lola lo-lo-lo-lo lola lo-lo-lo-lo lola
E A D C D
lola lo-lo-lo-lo lola lo-lo-lo-lo lola

18
Supertramp - School

Am
I can see you in the morning
Em
When you go to school
G
Don't forget our books,
Dm
You know you've got to learn the golden rule.
Am Em
Teacher tells tou Stop your play and go on with your work,
G
And be like Johnnie Toogood.
F
Don't you know he never shrinks, he's coming along

Am D--- | % | % | Am G--- | % | % |
Am D--- | % | % | Am G--- | % | % |

Am
After school is over
Em
You're playing in the park,
G
Don't be out too late
Dm
Don't let it get too dark.
Am
They tell you not to hang around
Em
And learn what life's about
G
And grow up just like them,
F
Won't let you work it out
C E---
And you're full of doubt

Solo: Am | % | % | % |
% | % | % | % |
% | % | % | % |
% | % | % | % |
% | % | % | % |
% | % | % | % |
Am | Em | G | Dm |
Am | Em | G | F |
Am | G | % | F |
Am | G | % | F |
Am | Em | G | Dm |
Am | Em | G | F |
Am | G | % | Dm |
Am | G | % | Dm |
Am | Em | G | Dm |
Am | Em | G | Dm |
Am | Em | G | Dm |
Am | Em | G | F |

19
E Am
Don't do this and don't do that
Am
What are they tryin' to do ?
D
Make a good boy of you,
C D E
Do they know where it's at?

Don't criticise they're old and wise


Do as they tell you to,
Don't want the devil to,
Come and pull out your eyes

E | % | % | %

Am
Maybe I'm mistaken
Em
Expecting you to fight
G
Or maybe I'm just crazy
Dm C
I don't know wrong from right.
Am
But while I'm still living
Em
I've just got this to say
G Dm
It's always up to you, if you want to be that,
F C E---
Want to see that, want to see it that way.
Am---
You're coming along

20
Harry Jekkers- Terug bij af

/Dsus2* x07750 (schuif omhoog van A naar dit akkoord)

Em A /Dsus2*
voor de oorlog is oma met opa getrouwd
Em A /D*
ze heeft achtmaal negen maanden met een kind rondgesjouwd
D Dsus4 Dsus2 D
ze heeft de kinderwagen vijftien jaar vooruit gedouwd
G D
nu is ze oud heel oud
Em A /Dsus2*
ze heeft haar levenlang van oude kleren nieuwe genaaid
Em A /Dsus2*
door haar man verdiende dubbeltjes driemaal omgedraaid
D Dsus4 Dsus2 D
ze heeft haar kinderen opgevoed en uitgezwaaid
G D
en nu heeft de wind nu heeft de wind
C B7
nu heeft de wind van tachtig herfsten haar grijsgewaaid

Am Dsus4 - D
ze kijkt de hele dag naar buiten door het raam
G D/F# Em
en reageert alleen nog op haar meisjesnaam
Am Dsus4 - D
als ze die hoort begint ze weer te stralen
Em D/F# G
want ze weet zeker dat haar moeder haar komt halen
Am Dsus4 - D
dan staat ze op en wil ze touwtje springen
G D/F# Em
dan wil ze zonder jas naar buiten in de zon
Am Dsus4 - D
en soms begint ze plotseling te zingen
Em Bm Em
dat er gedanst wordt op de brug van avignon
Em Bm Em
dat er gedanst wordt op de brug van avignon

na de oorlog kwam oma aan het graf te staan


van haar man haar lieve man die veel te vroeg was doodgegaan
de dag daarop het tweepersoonsbed en zijn kleren weggedaan
en doorgegaan ze is doorgegaan
ze heeft in roze en blauw stapels truitjes gebreid
en voor elk kleinkind opnieuw het logeerbed gespreid
maar toen raakte ze de namen en gezichten kwijt
alles kwijt ze is alles kwijt
en nu is ze op de dood na voltooid verleden tijd

ze kijkt de hele dag naar buiten door het raam


en reageert alleen nog op haar meisjesnaam
als ze die hoort begint ze weer te stralen
want ze weet zeker dat haar moeder haar komt halen
dan staat ze op en wil ze touwtje springen
dan wil ze zonder jas naar buiten in de zon
en soms begint ze plotseling te zingen
dat er gedanst wordt op de brug van avignon
dat er gedanst wordt op de brug van avignon
dat er gedanst wordt op de brug van avignon

op de brug van avignon, wil ze dansen wil ze dansen


op de brug van avignon, terug bij af waar ze begon

21
Jan Rot - Ankie

E7sus2= 0-x-x-4-3-0
C/B = X-2-0-0-1-0
Gsus4 = X-X-5-5-3-3
Fsus4 = X-X-3-3-1-1

Het intro is een variatie op:


Am E7sus2
e||--------------------|--0--0--0-----3-0-----------|---------0-------0----0------|
B||--------------------|--1-----1-----1-------1-----|-------3---3-----3-----------|
G||--------------------|--2-----2----------2--------|-----4-------4---4-------4-0-|
D||--------------------|--2---------2-----------2-2-|---------------------------x-|
A||----------<12>------|----------------------------|-----------------------------|
E||--------------------|----------------------------|--0------------4-------------|

Gsus4 FsuF4 F FsusC/E


|---------3---------------1---|------1------------0----------||
|-------3---3-----1--1------1-|------------1------1------1---||
|-----5-------5---3--2--------|----2-------0-0-------------0-||
|--5------------5-3--3--------|--3-------3---2---------0-----||
|-----------------------------|--------3-------------2-------||
|-----------------------------|------------------------------||

Am Asus4 E E7 G F-Riff C C/B


Ankie, Ankie, ik zit hier eenzaam op een bankie
Am Asus4 E E7 G F-Riff C C/B
Ankie, Ankie, en word zo stijf als een plankie
G Dm Am
Uren wacht ik voor je huis, er brandt licht, maar ben je thuis?
C F G
Doe nou open, alsjeblieft!
Am Asus4 E E7 G F-Riff C C/B
Ankie, Ankie, zeg is dat niet de fiets van Frankie?

Am Asus4 E E7 G F-Riff C C/B


Frankie, spermabankie, blijf met je poten van Ankie
Am Asus4 E E7 G F-Riff C C/B
Frankie, 't is mijn Ankie! Dit heet een beetje stank voor dankie
G Dm Am
Wat ben jij nou voor een vriend, dit heb ik toch niet verdiend?
C F G
Dit is mijn ergste fantasie!

Dm Am
He Ankie, ik ga aan de drankie
Dm Am
Als je nu niet naar beneden komt
Dm Am
En jij, lieve vriend, jou schop ik mankie,
C F G
Jongens, doe nou niet zo stom!

Am Asus4 E E7 G F-Riff C C/B


Ankie, Frankie, 't is jouw schuld dat ik jankie
Am Asus4 E E7 G F-Riff C C/B
Ankie, Frnnkie, geef me hoop, desnoods.. een sprankie

22
Florence and the machine - The dog days are over

Intro
(G maj.) (A min.)
e|--7------7------7------7----| e|--8------8------8------8-----|
B|--8------8------8------8----| B|--10-----10-----10-----10----|
G|--7------7------7------7----| X5 G|--9------9------9------9-----| X1
D|-----5------5------5------5-| D|-----7------7------7------7--|
A|----------------------------| A|-----------------------------|
E|----------------------------| E|-----------------------------|

(E min.)
e|--3------3------3------3-----|
B|--5------5------5------5-----|
G|--4------4------4------4-----| x2
D|-----2------2------2------2--|
A|-----------------------------|
E|-----------------------------|

played once without vocals, then:

G Am Em
Happiness hit her like a train on a track...
G Am Em
Coming towards her, stuck still no turning back...
G
She hid around corners and she hid under beds
G Am Em
She killed it with kisses and from it she fled
G
With every bubble she sank with her drink
G Am Em
And washed it away down the kitchen sink

---------------------------------------------------------------------------
From here I would use open chords or preferably barre chords
G (320033 or 320003) or (355433 barre chord)
Am (-02210) or (577555 barre chord)
Em (022000)
---------------------------------------------------------------------------

G
The dog days are over
G
The dog days are done
G Am
The horses are coming
Em
So you better run

G
Run fast for your mother, run fast for your father
G
Run for your children, for your sisters and brothers
G Am
Leave all your loving, your loving behind
Em
You can't carry it with you if you want to survive

23
G
The dog days are over
G
The dog days are done
G Am
Can you hear the horses?
Em G
'Cause here they come

(silence)

(quiet)
G G G Am Em
And I never wanted anything from you
G G G Am Em
Except everything you had and what was left after that too, oh

(loud again)
G G G Am Em
Happiness hit her like a bullet in the head.....
G G G Am Em
Struck from a great height by someone who should know better than that

G
The dog days are over
G
The dog days are done
G Am
Can you hear the horses?
Em G
'Cause here they come

(Percussion interlude)

G
Run fast for your mother, run fast for your father
G
Run for your children, for your sisters and brothers
G Am
Leave all your loving, your loving behind
Em
You cant carry it with you if you want to survive

G
The dog days are over
G
The dog days are done
G Am
Can you hear the horses?
Em
'Cause here they come

G
The dog days are over
G
The dog days are done
G Am
The horses are coming
Em
So you better run

24
Glen Hansard – Leave

[E‗] [C#m'] [B] [A] [B‗] [E] [F#] [G#]


e|––-0––-–-0–––--0––––-0––––––-0–––––0–––––0––––––0-
B|––-0––---5––-–-0(7)–—5––-–––-0–––––0––-–-2–––––-4-
G|––-9/8––-8––––-8––––-6––––––-4–––––1––---3––––--5-
D|––-9–––--9–––--9––––-7––––––-4–––––2––––-4–––––-6-
A|––-7–––--7–––--9––––-7–––––––2–––––2–––--4––––––6-
E|–––x–––--9–––--7––––-5––––––-x–––––0–––--2–––––-4-

E„ C#m' B A

E„ C#m'
I can't wait forever is all that you said
B A
Before you stood up

And you won't disappoint me


I can do that myself
But I'm glad that you've come
Now if you don't mind

C#m B
Leave, leave,
A
And free yourself at the same time

C#m B
Leave, leave,
A
I don't understand, you've already gone

E„ C#m
And I hope you feel better
B
Now that it's out
A
What took you so long

And the truth has a habit


Of falling out of your mouth
But now that it's come
If you don't mind

C#m B
Leave, leave,
A
And please yourself at the same time

C#m B
Leave, leave,
A
Let go of my hand
You said what you came to now

C#m B
Leave, leave,
A
Let go of my hand
You said what you have to now

25
C#m B„ F#
Leave, leave,
C#m B„
Leave, leave,
F#
Let go of my hand
You said what you have to now

C#m B„ F#
Leave, leave,

C#m F#
C#m F#
C#m F#
E G#
2x

C#m

26
Barenaked ladies - Brian Wilson
CAPO 3

G D Am7 G
Drove downtown in the rain, 9:30 on a Tuesday night
D Bm7 Am7
Just to check out the late night record shop
G D Am7
Call it impulsive, call it compulsive, call it insane
G D Bm7 Am7
But when I'm surrounded I just can't stah-op

(This progression continues throughout the slow intro)

It's a matter of instinct, it's a matter of conditioning, a matter of fact


You can call me Pavlov's dog
Ring a bell and I'll salivate, well how'd you like that
Dr. Landy tell me you're not just a pedagogue, 'cause right now I'm

CHORUS:
G D Am7
Lying in bed just like Brian Wilson did
G D Em (Em/C Em/C# Em/C)2x
Well I'm, lying in bed just like Brian Wilson did

(Progression for the verse is the same as intro. Just listen to the song
to get the proper rythym and tempo)
Well I'm lying here, just staring at the ceiling tiles
And I'm thinking about, whoa what to think about
Just listening and relistening to smiley smile
And I'm wondering if this is some kind of creative doubt, because I'm

CHORUS

Am7 D F Em
And if you wanna find me I'll be out in the sandbox
Am7 D G F Am7
Just wondering where the hell all the love has gah-ah-ahn
D F Em Am7
Playing my guitar and building castles in the sun, whoa-whoa-oh-oh
D G
And singing fun, fun, fun

CHORUS

Am E7 Am E7 Am
I had a dream that I was three hundred pounds
E7 Am E7 Am
And though I was very heavy I floated 'til I couldn't see the ground

(Pick up the rythym at this point)


E7 Am E7
I floated 'til I couldn't see the ground
Am E7
Somebody help me (I couldn't see the ground)
Am E7
Somebody help me (I couldn't see the ground)
Am E7
Somebody help meeeeee, because I'm

CHORUS

27
(With lots of angst, repeat intro)
G D Am7 G
Drove downtown in the ray-ee-ain, 9:30 on a Tuesday night
D Bm7 Am7 G
Just to check out the late night record shop (late night record shop)
D Am7
Call it impulsive, call it compulsive, or call it insane (whoa-oh)
G D Bm7 Cmaj7
'Cause when I'm surrounded I just can't stah-ah-ah-p

The outro is a Secret Agent Man sort of thingy based in Em that goes as
follows:
Em Em/C Em/C# Em/C

Do this a few times, then just go wild on the Em.


If you've got a bongo playing comrade, this can really sound great.

28
Snap - Rhythm is a dancer

Em C D Em

Rhythm is a dancer, it's a source companion


You can feel it everywhere
Lift your hands and voices, free your mind and join us
You can feel it in the air
Oh oh, it's a passion, oh oh, you can feel it, yeah
Woh oh, it's a passion, oh oh oh-oh oh-oh oh-oh

Rhythm, you can feel it, you could feel it


Rhythm, rhythm is a dancer
Rhythm, you can feel it, you could feel it
Rhythm, rhythm is a dancer

Let the rhythm ride you, guide you Sneak inside you, set your mind to
Move

to its pulsation, Bass vibration, synth sensation


Pause,

it's not in place, see Mind and body must be free to


Please

take it all in Nothing to lose, everything to


Win,

but it controls you Holds you, molds you, back to older


New,

touch it, taste it Free your soul and let it face you
Got the be what you wanna
If the groove don't get ya the rifle's gonna
I'm serious as cancer
When I say "Rhythm is a dancer"

Rhythm is a dancer, it's a source companion


You can feel it everywhere
Lift your hands and voices, free your mind and join us
You can feel it in the air
Oh oh, it's a passion, oh oh, you can feel it, yeah
Woh oh, it's a passion, oh oh oh-oh oh-oh oh-oh

Rhythm, you can feel it, you could feel it


Rhythm, rhythm is a dancer
Rhythm, you can feel it, you could feel it
Rhythm, rhythm is a dancer

29
Eddie Vedder - Guaranteed

[C/E: 002010]

G Bm
On bended knee is no way to be free
G7 C/E
Lifting up an empty cup, I ask silently
C G
All my destinations will accept the one that's me
D Dsus2 D Dsus2
So I can breathe

G Bm
Circles they grow and they swallow people whole
G7 C/E
Half their lives they say goodnight to wives they'll never know
C G
A mind full of questions, and a teacher in my soul
D Dsus2 D Dsus2
And so it goes

G Bm
Don't come closer or I'll have to go
G7 C/E
Holding me like gravity are places that pull
C G
If ever there was someone to keep me at home
D Dsus2 D Dsus2
It would be you

G Bm
Everyone I come across, in cages they bought
G7 C/E
They think of me and my wandering, but I'm never what they thought
C G
I've got my indignation, but I'm pure in all my thoughts
D Dsus2 D Dsus2
I'm alive

G Bm
Wind in my hair, I feel part of everywhere
G7 C/E
Underneath my being is a road that disappeared
C G
Late at night I hear the trees, they're singing with the dead
D Dsus2 D Dsus2
Overhead...

G Bm
Leave it to me as I find a way to be
G7 C/E
Consider me a satellite, forever orbiting
C G
I knew all the rules, but the rules did not know me
D Dsus2 D Dsus2
Guaranteed

(Humming)
G Bm
G7 C/E
C G
D Dsus2 D Dsus2

30
Obadiah Parker - Fall/Back

CAPO 3

C C/B C/A C/B

|---------------------------------------------------------------|
|---1-111-1-1-111-1-1-111-1-1-111-1-1-111-1-1-111-1-1-111-11-11-|
|---------------------------------------------------------------|
|---2-222-2-2-222-2-2-222-2-2-222-2-2-222-2-2-222-2-2-222-22-22-|repeated
|-3-3-333-3-3-333-2-2-222-2-2-222-0-0-000-0-0-000-0-0-000-00-22-|
|---------------------------------------------------------------|

I swear that I've been here before on this same couch with this
Same disregard
Baby, this is where darkness lives and it‘ll catch you off your guard
I hope you can believe there‘s more to me than what you see
And that we have no business here even though you don‘t agree

F
Until we fall back onto the great I am
G
We‘ll use up all we got, our love we will exhaust
Until we learn to trust in the god of Abraham
And give up what we got, all will be lost

Something here is wrong, I can hear it in your voice


But crying at home by yourself is your method of choice
Over the phone, just a couple miles away, is right where i belong
Do you think that you were happier before i came along?

Until we fall back onto the great I am


We‘ll use up all we got, our love we will exhaust
Until we learn to trust in the god of Abraham
And give up what we got, all will be lost

I want to love you well I want to do this right


During the day it‘s so easy but it gets hard at night
I hope you can believe that I can‘t go on at this rate
Something‘s gotta change, I just hope it‘s not too late

Until we fall back onto the great I am


We‘ll burn up all we got, our love we will exhaust
Until we learn to trust in the god of Abraham
And give up what we got, all will be lost

(silence)

One, two, three, four


D|-77777777-55555555-44444444-33333333-|
A|-77777777-55555555-44444444-33333333-|
E|-55555555-33333333-22222222-11111111-|

What‘cha gonna do with your love


What‘cha gonna let go of
It‘s time to make your choice right now

What‘cha gonna do about this


You know it‘s never just one kiss
Don‘t lie to me, don‘t lie to yourself
I feel like everything is wrong

31
Four chords, many songs medley

C G Am F

mika - happy ending

This is the way you left me,


I'm not pretending.
No hope, no love, no glory,
No Happy Ending.
This is the way that we love,
Like it's forever.
Then live the rest of our life,
But not together.

maroon 5 - she will be loved

And she will be loved


She will be loved

I don't mind spending everyday


Out on your corner in the pouring rain
Look for the girl with the broken smile
Ask her if she wants to stay awhile

james blunt - you're beautiful

My life is brilliant.
My love is pure.
I saw an angel.
Of that I'm sure.
She smiled at me on the subway.
She was with another man.
But I won't lose no sleep on that,
'Cause I've got a plan.

You're beautiful. You're beautiful.


You're beautiful, it's true.

richard marx - right here waiting for you

Wherever you go whatever you do


I will be right here waiting for you
Whatever it takes or how my heart breaks
I will be right here waiting for you

alicia keys - no one

No one, no one, no one


Can get in the way of what I'm feeling
No one, no one, no one
Can get in the way of what I feel for you, you, you
Can get in the way of what I feel for you

32
black eyed peas - where is the love
People killing people dying
Children hurtin you hear them crying
Can you practice what you preach
Would you turn the other cheek?
Father Father Father help us
Send some guidance from above
Cause people got me got me questioning
Where is the love?(where is the lovex3)(the love2x)

lighthouse family - high

Cause we are gonna be forever, you and me


You will always keep it flying high in the sky of love

red hot chili peppers - soul to squeeze

Where I go I just don't know,


I got to, got to, gotta take it slow.
When I find my piece of mind,
I'm gonna give you some of my good time.

u2 - with or without you

With or without you


With or without you
I can't live
With or without you
With or without you

red hot chili peppers - under the bridge

Sometimes I feel
Like I don't have a partner
Sometimes I feel
Like my only friend
Is the city I live in
The city of angels
Lonely as I am
Together we cry

michael jackson - man in the mirror

I'm starting with the man in the mirror


I'm asking him to change his ways
And no message could have been any clearer

elthon john - can you feel the love tonight

And can you feel the love tonight?

33
men at work - down under

Do you come from a land down under?


Where women glow and men plunder?
Cant you hear, cant you hear the thunder?
You better run, you better take cover.

a-ha - take on me

Take on me, take me on


I'll be gone - In a day or two-ooooo

beatles - let it be

When i find myself in times of trouble

eagle eye cherry - save tonight

(start op Am)
Save tonight
and fight the break of dawn
Come tomorrow
tomorrow I'll be gone

Save tonight
and fight the break of dawn
Come tomorrow
tomorrow I'll be gone

toto - africa

(start op Am)
It's gonna take a lot to drag me away from you
There's nothing that a hundred men or more could ever do

nathalie imbruglia - torn

(weer normal)
Im all out of faith, this is how I feel
Im cold and I am shamed lying naked on the floor
Illusion never changed into something real
Im wide awake and I can see the perfect sky is torn
Youre a little late, Im already torn

jason mraz - i'm yours

It cannot wait I'm sure


There's no need to complicate
Our time is short
This is our fate, I'm yours

celine dion - my heart will go on

Near, far, wherever you are


I believe that the heart does go on
Once more you open the door
And you're here in my heart
And my heart will go on and on

34
3 doors down - here without you

I‘m here without you baby


but your still on my lonely mind
I think about you baby
and I dream about you all the time
I‘m here without you baby
but your still with me in my dreams
And tonight it‘s only you and me

the killers - mr. brightside

I'm coming out of my cage


And I've been doing just fine
Gotta gotta be down
Because I want it all
It started out with a kiss
How did it end up like this
It was only a kiss, it was only a kiss
Now I'm falling asleep
And she's calling a cab
While he's having a smoke
And she's taking a drag
Now they're going to bed
And my stomach is sick
And it's all in my head
But she's touching his-chest
Now, he takes off her dress
Now, letting me go
And I just can't look its killing me
And taking control

savage garden - truly madly deeply

I want to stand with you on a mountain.


I want to bathe with you in the sea.
I want to lay like this forever.
Until the sky falls down on me...

snow patrol - run

Light up, light up


As if you have a choice
Even if you cannot hear my voice
I'll be right beside you dear

Louder louder
And we'll run for our lives
I can hardly speak I understand
Why you can't raise your voice to say

35
TLC - no scrubs

I don't want no scrub


a scrub is a guy that can't get no love from me
hanging out the passenger side
of his best friend's ride
trying to holler at me
I don't want no scrub
a scrub is a guy that can't get no love from me
hanging out the passenger side
of his best friend's ride
trying to holler at me

bob marley – no women no cry

Said said
Said I remember when we used to sit
In the government yard in Trenchtown
Oba, ob-serving the hypocrites
As they would
mingle with the good people we meet
Good friends we have had,
Oh, good friends we've lost
along the way
In this great future you can't forget your past
So dry your tears, I say

No, woman, no cry


No, woman, no cry

Youth Group - Forever young

Forever young, I want to be forever young

The Calling - Wherever you go

If I could, then I would


I'll go wherever you will go
Way up high or down low
I'll go wherever you will go

Waltzing Matilda

Waltzing Matilda, Waltzing Matilda,


You'll come a Waltzing Matilda with me,
And he sang as he watched and waited till his billy boil
You'll come a Waltzing Matilda with me.

One Republic – Apologize

It's too late to apologize, it's too late


I said it's too late to apologize, it's too late

36
Lady Gaga - Pokerface

Can't read my,


Can't read my
No he can't read my poker face
Can't read my
Can't read my
No he can't read my poker face

The Police - So Lonely

Well, someone told me yesterday


That when you throw your love away
You act as if you just don't care
You look as if you're going somewhere
But I just can't convince myself
I couldn't live with no one else
And I can only play that part
And sit and nurse my broken heart, so lonely
So lonely, so lonely, so lonely
So lonely, so lonely, so lonely
So lonely, so lonely, so lonely
So lonely, so lonely

37
Modern Talking - You're my Heart, You're my Soul

Cm Gm
Deep in my heart, theres a fire - thats a burning heart
Cm Gm
Deep in my heart, theres desire for a start
Bb
Im dying in emotion
Cm
It's my world in fantasy
Ab Fm7 Bb
Im living in my, living in my dreams

Cm Fm
Youre my heart, youre my soul
Bb Cm
I keep it shining everywhere I go
Fm
Youre my heart, youre my soul
Bb
I'll be holding you forever, stay with you together
Cm Ab
Youre my heart, youre my soul
Bb Cm
Yeah, a feeling that our love will grow
Ab
Youre my heart, youre my soul
Bb Cm
Thats the only thing I really know

Gm
Lets close the door and believe my burning heart
Cm Gm
Feeling allright, come on, open up your heart
Bb
I'll keep the candles burning
Cm
Let your body melt in mine
Ab Fm7 Bb
Im living in my, living in my dreams

Cm Fm
Youre my heart, youre my soul
Bb Cm
I keep it shining everywhere I go
Fm
Youre my heart, youre my soul
Bb
I'll be holding you forever, stay with you together
Cm Ab
Youre my heart, youre my soul
Bb Cm
Yeah, a feeling that our love will grow
Ab
Youre my heart, youre my soul
Bb Cm
Thats the only thing I really know

38
Doe Maar - Is dit alles?

Dm Am Gm Am Gm
Ga zitten want ik wil es met je praten
Gm Am Dm Am Dm
'k ben allang niet meer zo vrij als toen

Nee, schrik maar niet ik wil je niet verlaten


er is iets en ik kan er niets aan doen

We komen niets te kort we hebben alles


een kind, een huis, een auto en elkaar

Maar weet je lieve schat wat het geval is?


Ik zoek iets meer ik weet alleen niet waar

Chorus:
Gm C Gm C Gm C F
Is dit alles? Is dit alles? Is dit alles wat er is?
Gm C Gm C Gm C Am
Is dit alles? Aaaha is dit alles? Is dit alles wat er is?

We zijn nu net een stuk in dertien delen


aan 't einde zijn we allemaal de klos

We leven trouw het leven van zovelen


ik wil iets meer ik wil een beetje los

Chorus

39
Eddie Vedder - Long Nights

Intro: Gm

Gm
Have no fear
F
For when I'm alone
C
I'll be better off than I was before

Gm
I've got this light
F
I'll be around to grow

Who I was before


C
I cannot recall

Bb Am Dm
Long nights allow me to feel...
G7
I'm falling...I am falling
Bb Am
The lights go out
Dm
Let me feel...I'm falling
G7 Bb Am Dm (see Rhy Fig 1)
I am falling safely to... the ground...Ah

Gm F
I'll take this soul that's inside me now

Like a brand new friend


C
I'll forever know

Gm
I've got this light
F
And the will to show
C
I will always be better than before

Bb Am Dm
Long nights allow me to feel...
G7
I'm falling...I am falling
Bb Am
The lights go out
Dm
Let me feel...I'm falling
G7 Bb Am
I am falling safely to... the ground

40
Eddie Vedder - Long Nights

Riff A
-5-------5-----5-------5-----|-5-------5-----5-------5-----|
-----6-------6-----6-------6-|-----6-------6-----6-------6-|
---7-------7-----7-------7---|---7-------7-----7-------7---|
-0-----0-------0-----0-------|-0-----0-------0-----0-------|
-----------------------------|-----------------------------|
-----------------------------|-----------------------------|

-0-------0-----0-------0-----|-0-------0-----0-------0-----|
-----6-------6-----6-------6-|-----6-------6-----6-------6-|
---7-------7-----7-------7---|---7-------7-----7-------7---|
-5-----5-------5-----5-------|-5-----5-------5-----5-------|
-----------------------------|-----------------------------|
-----------------------------|-----------------------------|

-3-------3-----3-------3-----|-3-------3-----3-------3-----|
-----5-------5-----5-------5-|-----5-------5-----5-------5-|
-----------------------------|-----------------------------|
---5-------5-----5-------5---|---5-------5-----5-------5---|
-3-----3-------3-----3-------|-3-----3-------3-----3-------|
-----------------------------|-----------------------------|

-3-------3-----3-------3-----|-3-------3-----3-------3-----|
-----3-------3-----3-------3-|-----3-------3-----3-------3-|
---4-------4-----4-------4---|---4-------4-----4-------4---|
-----------------------------|-----------------------------|
-----------------------------|-----------------------------|
-3-----3-------3-----3-------|-3-----3-------3-----3-------|

Riff B
-1-------1-----1-------1-----|-0-------0-----0-------0-----|
-----1-------1-----1-------1-|-----0-------0-----0-------0-|
---2-------2-----2-------2---|---0-------0-----0-------0---|
-----------------------------|-----------------------------|
-----------------------------|-----------------------------|
-1-----1-------1-----1-------|-0-----0-------0-----0-------|

-0-------0-----0-------0-----|-2-------2-----2-------2-----|
-----1-------1-----1-------1-|-----1-------1-----1-------1-|
---2-------2-----2-------2---|---2-------2-----2-------2---|
-----------------------------|-0-----0-------0-----0-------|
-0-----0-------0-----0-------|-----------------------------|
-----------------------------|-----------------------------|

41
Riff C
-1-------1-----1-------1-----|-1-------1-----1-------1-----|
-----1-------1-----1-------1-|-----1-------1-----1-------1-|
---2-------2-----2-------2---|---2-------2-----2-------2---|
-----------------------------|-----------------------------|
-----------------------------|-----------------------------|
-1-----1-------1-----1-------|-1-----1-------1-----1-------|

-0-------0-----0-------0-----|-0-------0-----0-------0-----|
-----0-------0-----0-------0-|-----0-------0-----0-------0-|
---0-------0-----0-------0---|---0-------0-----0-------0---|
-----------------------------|-----------------------------|
-----------------------------|-----------------------------|
-0-----0-------0-----0-------|-0-----0-------0-----0-------|

Riff D
-----------------------------|-----------------------------|
-1-------1-----0-------0-----|-1-------1-----0-------0-----|
-----2-------2-----2---------|-----2-------2-----2---------|
---2-------2-----2-------2---|---2-------2-----2-------2---|
-0-----0-------0-----0-------|-0-----0-------0-----0-------|
-----------------------------|-----------------------------|

The structure of the song goes:


2 X Riff A
2 X Riff B
Riff C
Riff D
2 X Riff A
2 X Riff B
Riff C
2 X Riff D

42
Dolly Dots - Love me just a little bit more

CAPO 1

C* x32013
G/F 123003
G/D# 321003

Intro:
| G – G/F | G/D# - G/F |
| G – G/F | G/D# - G/F |

G G/F
Gimme love, don't take it away from me
C* Cm
'Cause you and I can live in perfect harmony
G A7 D
Oh baby, oh baby, don't take it away from me
G G/F
I am tired of living all by myself
C* Cm
Reach out for love don't leave it laying on the shelf
G A7 D
Oh baby, oh baby, don't take it away from me

Em D/F# G
Love me, need me, wo-oh (love me just a little bit more)
Em D/F# G
Take me, hold me, wo-oh (love me like you loved me before)
Em D/F# G C*
Call me, and I'll be knocking on your door
Am D G
So, love me just a little, love me just a little bit more

| G – G/F | G/D# - G/F |

G G/F
Take my hand, and I will lead the way
C* Cm
To find the road which led us to our dream that day
G A7 D
Oh baby, oh baby, please let me lead the way
G G/F
Stay around, don't turn your back on me
C* Cm
Before we know it all will be a memory
G A7 D
Oh baby, oh baby, don't turn your back on me

Em D/F# G
Love me, need me, wo-oh (love me just a little bit more)
Em D/F# G
Take me, hold me, wo-oh (love me like you loved me before)
Em D/F# G C
Call me, and I'll be knocking on your door
Am D G
So love me just a little, love me just a little bit more

43
Em Em-D-C
I have tried to live without you
C G
I have tried to get away from you
C G
But what could I do, it's not easy to
Am
Keep on fighting like this, it's you that I miss
D7
I'm totally hooked on you

Em D/F# G
Love me, need me, wo-oh (love me just a little bit more)
Em D/F# G
Take me, hold me, wo-oh (love me like you loved me before)
Em D/F# G
Love me, need me, wo-oh (oh love me)
Em D/F# G
Take me, hold me, wo-oh (why don‘t you need me)
Em D/F# G
Love me, need me, wo-oh (don‘t take it away from me)
Em D/F# G
Take me, hold me, wo-oh (you shouldn‘t take it away)
Em D/F# G
Love me, need me, wo-oh
Em D/F# G
Take me, hold me, wo-oh

{fade out}

44
Rihanna - Umbrella
CAPO 1

Am
You had my heart
C
and we'll never be world apart
G
Maybe in magazines
F
but you'll still be my star
Am
Baby cause in the Dark
C
You can see shiny Cars
G
And that's when you need me there
F
With you I'll always share
F
Because

[CHORUS]
F
When the sun shines
C
We‘ll shine together
G
Told you I'll be here forever
Am
Said I'll always be your friend

Took an oath
F
I'mma stick it out 'till the end
C
Now that it's raining more than ever
G
Know that we still have each other
Am
You can stand under my Umbrella
F
You can stand under my Umbrella
C
(Ella ella eh eh eh)
G
Under my umbrella
Am
(ella ella eh eh eh)
F
Under my umbrella
C
(ella ella eh eh eh)
C
Under my umbrella
Am
(ella ella eh eh eh eh eh eh)

45
Am
These fancy things,
C
will never come in between
G
You're part of my entity
F
Here for Infinity
Am
When the war has took it's part
C
When the world has dealt it's cards
G
If the hand is hard
F
Together we'll mend your heart
F
Because ...

[CHORUS]

[BRIDGE]
F
You can run into my Arms
It's okay don't be alarmed
C
(Come into Me)
G
(There's no distance in between our love)
F
So Gonna let the rain pour
E
I'll be all you need and more
F
Because ...

[CHORUS]

It's raining (raining)


Ooo baby it's raining
baby come into me
Come into me
It's raining (raining)
Ooo baby it's raining
You can always come into me
Come into me

46
Fiction Plane - Two Sisters

[intro]
|Em D | Am B | C G | Em B |

Em D Am B
I'm in love with two sisters Only weapons can decide
C G Em B
Whose bed I share tonight
Em D Am B
And the cold mister mister he has got me in his sights
C G Em B
If he shoots me down He has every right

G Bm A
(They) sharpened knives, don't want to miss the last train
G Bm A
Bullets fly, each one screams my name
G Bm A
Gorgeous eyes to the right to the left of me
G Bm A
Gorgeous eyes They made me do it again

A Em C Am
Oh my heart don't stop So judge me not
A Am C B
I think I think I think I think

Em D Am B
I'm in love with two sisters Only weapons can decide
C G Em B
Whose bed I share tonight
Em D Am B
And the cold mister mister he has got me in his sights
C G Em B
If he shoots me down He has every right

G Bm A
Hit the lights, how fast you gonna run today
G Bm A
In Jesus' eyes The minister cursed my name
G Bm A
I got skinned alive, the wolves ate what was left of me
G Bm A
If I survive Damn straight I'll do it again

A Em C Am
Oh my heart don't stop So judge me not
A Am C B
I think I think I think I think

47
Em D Am B
I'm in love with two sisters Only weapons can decide
C G Em B
Whose bed I share tonight
Em D Am B
And the cold mister mister he has got me in his sights
C G Em B
If he shoots me down He has every right

[bridge]
Em B
Take me back to the simple love
C G
I can't dance no more in these murderers gloves, I see
Em B C G
I feel my heartbeat in my brain, oh oh oh
Em B C G
Can't get out of the hole I dug, took a double dose of a deadly drug
C Cm B G F# Em
Life was so simple yesterday, Oh Oh Oh

[solo]
Em

Em D Am B
I'm in love with two sisters Only weapons can decide
C G Em B
Whose bed I share tonight
Em D Am B
And the cold mister mister he has got me in his sights
C G Em B
If he shoots me down He has every right

Em D Am B
I'm in love with two sisters Only weapons can decide
C G Em B
Whose bed I share tonight
Em D Am B
And the cold mister mister he has got me in his sights
C G Em
If he shoots me down He has every right

48
Roger Glover - Love Is All

G/D x5543x
C/E x7555x
F x87565

Intro :

B5 E5 A5
E||----------------------|----------------------|----------------------|
B||----------------------|----------------------|----------------------|
G||--4----2----1---------|----------------------|--2----0--------------|
D||-----------------4----|--2----0--------------|------------4----2----|
A||----------------------|------------4----2----|----------------------|
E||----------------------|----------------------|----------------------|

D5
|-----------||
|-----------||
|-----------||
|--0--------||
|-----------||
|-----------||

C G/D C/E F
Everybody's got to live together
C G/D C/E F
All the people got to understand
C G/D
So love your neighbour
C/E F
Like you love your brother
G
Come on and join the band

C G/D C/E F
Well all you need is love and understanding
C G/D C/E F
Ring the bell and let the people know
C G/D C/E F
We're so happy and we're celebratin'
G
Come on and let your feelings show

Am D7
Love is all, well love is all,
G C
Love is all, can't you hear the call
Am
Oh, love is all you need
D7 G C
Love is all you need at the Butterfly Ball

| B | E | A | D |

49
C G/D C/E F
Ain't you happy that we're all together
C G/D C/E F
At the ball in nature's countryside
C G/D C/E F
And although we're wearing different faces
G
Nobody wants to hide

Am D7
Love is all and all is love and
G C
It's easy, yes it's so easy
Am D7
At the Butterfly Ball where love is all
G C
And it's so easy

Going in 3/4 :

| Bm | Bm | E | E |
| A | A | D | D | play 3 times

| Bm | Bm | E | E |
| A | A | G | G | going into 4/4

C G/D C/E F
All you need is love and understanding
C G/D C/E F
Hey, ring the bell and let the people know
C G/D C/E F
We're so happy and we're celebratin'
G
Let your feelings show

| Am | Am | D7 | D7 |
| G | G | C | C | repeat and fade

Love is all, yes love is all at the Butterfly Ball


Love is big, love is small
Love is free, love is all
At the Butterfly Ball

When you back's to the wall


When you're starting to fall
You got something to lean on
Love is everything
It can make you sing at the Butterfly Ball
Love is all, I say love is all, yes love is all
At the Butterfly Ball

50
John Lennon - Working class hero

Riff 1
Am G Am
e||---------------------------|-3---3-3-3-3-||:-----------------------:||
B||-----1-1-1-1-------1-1-1-1-|-3---3-3-3-3-||:---1-1-1-1-----1-1-1-1-:||
G||-----2-2-2-2-------2-2-2-2-|-0---0-0-0-0-||:---2-2-2-2-----2-2-2-2-:||
D||-----2-2-2-2---0h2-2-2-2-2-|-0---0-0-0-0-||:---2-2-2-2-0h2-2-2-2-2-:||
A||--0------------------------|-2---2-2-2-2-||:-0---------------------:||
E||---------------------------|-3---3-3-3-3-||:-----------------------:||

Riff 2
Am G D Am
E||-------------|-3--3-3-3-3-|--2--2-2-2-||:------------------------:||
B||-1--1-1-1-1--|-3--3-3-3-3-|--3--3-3-3-||:----1-1-1-1-----1-1-1-1-:||
G||-2--2-2-2-2--|-0--0-0-0-0-|--2--2-2-2-||:----2-2-2-2-----2-2-2-2-:||
D||-2--2-2-2-2--|-0--0-0-0-0-|--0--0-0-0-||:----2-2-2-2-0h2-2-2-2-2-:||
A||-------------|-2--2-2-2-2-|-----------||:-0----------------------:||
E||-------------|-3--3-3-3-3-|-----------||:------------------------:||

[Intro]
“Am” “Am”
e||------------------------|--------------------------||
B||---1-1-1-1------1-1-1-1-|----1-1-1-1------1-1-1-1--||
G||---2-2-2-2------2-2-2-2-|----2-2-2-2------2-2-2-2--||
D||---2-2-2-2--0h2-2-2-2-2-|----2-2-2-2--0h2-2-2-2-2--||
A||-0----------------------|-0------------------------||
E||------------------------|--------------------------||

Am G Am
As soon as you‘re born they make you feel small
Am G Am
By giving you no time in stead of it all
Am G Am
Till the pain is so big you feel nothing at all
Am G Am
A working class hero is something to be
Am G D Am
A working class hero is something to be

They hurt you at home,


G Am
And they hit you at school

The hate you if your clever,


G Am
and they despise a fool.
G Am
Till your so fucking crazy you can't follow their rules.

[Chorus]
G Am
A working class hero is something to be.
G Am
A working class hero is something to be.

51
[Verse]
G Am
When they've tortured and scared you for 20 odd years.
G Am
Then they expect you to pick a carier

When you can't really function


G Am
you're so full of fear

[Chorus]

[Verse]
G Am
Keep you doped with religion and sex and tv
G Am
An you think your so clever and classless and free.
G Am
But your still fucking peasants as far as I can see.

[Chorus]

[Verse]
G Am
There's room at the top, they are telling you still.
G Am
But first you must learn how to smile as you kill.
G Am
If you want to be like all the folks on the hill.

[Chorus]

[Verse]
G Am
If you want to be a hero well just follow me
G----------D
If you want to be a hero well just follow me

Outro:
e|-----0-0-0-0-------0-0-0-0----3-----------2-----|
B|-----1-1-1-1-------1-1-1-1----3-----------3-----|
G|-----2-2-2---------2-2--------0-----------2-----|
D|---------2--------------------0-----------0-----|
A|--0-------------0-------------2-----------------|
E|------------------------------3-----------------|

52
Rusted Root - Send Me On My Way

Intro (repeat twice)


e-------3--3--------------3--3---------|
B-1-----------1-1-1--1----------3-3-3--|
G----0------------------0--------------|
D--------------------------------------|
A-3------------------3-----------------|
E--------------------------------------|

e-------3--3--------------3--3--------|
B-1-----------3-3-3--1---------3------|(hold)
G----2------------------2-------------|
D-3------------------3----------------|
A-------------------------------------|
E-------------------------------------|

on my way, on my way, on my way

Verse 1:
e-------3--3--------------3--3--------------3-3-----------3-3-------|
B-1-----------1-1-1--1----------3-3-3---1-------1-1-1-1-------3-3-3-|
G----0------------------0-----------------0-------------0-----------|
D-------------------------------------------------------------------|
A-3------------------3------------------3-------------3-------------|
E-------------------------------------------------------------------|
I would like to reach out ma hand, i may say you, i may tell you to run

e-------3--3--------------3--3------------3-3-------------3-3--------|
B-1-----------3-3-3--1---------3-3-3-1----------3-3-3-1--------3-3-3-|
G----2------------------2--------------2----------------2------------|
D-3------------------3---------------3----------------3--------------|
A--------------------------------------------------------------------|
E--------------------------------------------------------------------|
You know what they say about the young(very fast)

e-------3--3--------------3--3--------------3-3-----------3-3-------|
B-1-----------1-1-1--1----------3-3-3---1-------1-1-1-1-------3-3-3-|
G----0------------------0-----------------0-------------0-----------|
D-------------------------------------------------------------------|
A-3------------------3------------------3-------------3-------------|
E-------------------------------------------------------------------|
Well pick me up with golden hands, i may say you, i may tell you to run

e-------3--3--------------3--3------------3-3-------------3-3--------|
B-1-----------3-3-3--1---------3-3-3-1----------3-3-3-1--------3-3-3-|
G----2------------------2--------------2----------------2------------|
D-3------------------3---------------3----------------3--------------|
A--------------------------------------------------------------------|
E--------------------------------------------------------------------|
You know what they say about the young(very fast)

Chorus
(Just strum these)
Am G F
Well, I would like to hold my little hand
Am G F
How we will run away, how we will crawl away
Am G F
I would like to hold my little hand
Am G F
How we will run away how we will craaaaaaaaaaaaaaawl

53
Bridge 2x
e-------3--3--------------3--3--------|
B-1-----------1-1-1--1----------3-3-3-|
G----0------------------0-------------|
D-------------------------------------|
A-3------------------3----------------|
E-------------------------------------|
Sendmeonmaway Sendmeonmaway

e-------3--3--------------3--3-------|
B-1-----------3-3-3--1---------3-3-3-|
G----2------------------2------------|
D-3------------------3---------------|
A------------------------------------|
E------------------------------------|
Sendmeonmaway Sendmeonmaway
(mmmhhhhhhhhh)

C F (8x)

Strumed chords
C
I would like to reach out my hand, I may see you, I may tell you to run
F
You know what they say bout the young (very fast)

C
Well pick me up with a golden hand, I may see you, I may tell you to run
F
You know what they say bout the youg (very fast)

Chorus
Bridge
Instrumental
Chorus

Coda
Am
Send me on my way
F
Send me on my way
C G
Send me on my waaaaaaaaaay

stick a couple of ooooos in

e-------3--3--------------3--3---------|
B-1-----------1-1-1--1----------3-3-3--|
G----0------------------0--------------|
D--------------------------------------|
A-3------------------3-----------------|
E--------------------------------------|

e-------3--3--------------3--3--------|
B-1-----------3-3-3--1---------3------|(hold)
G----2------------------2-------------|
D-3------------------3----------------|
A-------------------------------------|
E-------------------------------------|

54
e-------3--3--------------3--3--------------3-3-----------3-3-------|
B-1-----------1-1-1--1----------3-3-3---1-------1-1-1-1-------3-3-3-|
G----0------------------0-----------------0-------------0-----------|
D-------------------------------------------------------------------|
A-3------------------3------------------3-------------3-------------|
E-------------------------------------------------------------------|
I would like to reach out ma hand, i may say you, i may tell you to run

e-------3--3--------------3--3------------3-3-------------3-3----------|
B-1-----------3-3-3--1---------3-3-3-1----------3-3-3-1--------3-3-3-1-|
G----2------------------2--------------2----------------2--------------|
D-3------------------3---------------3----------------3----------------|
A--------------------------------------------------------------------3-|
E----------------------------------------------------------------------|
You know what they say about the young(very fast)

55
Mental Theo & Charly Lownoise - Wonderfull days

Bb F
I found a love but it didn't last
Cm Gm
Wonderful days belong to the best
Bb
I don't know where I stand
F G#
What I'm to do, tryin' to forget
Bb
And I found someone new
Bb F
So I prayed on me knees to heaven above
Cm Gm
Send me somebody please someone to love
Bb F
Comin' into my story give me your hand
G# Bb
No one came down and I like to end

56
Eiffel 65 - Blue (Da Ba Dee)

Verse 1:
Bb C Bb Eb Bb A G
|--------------------------------------|-----------------|
|------------------------3-3b4---3-----|-----------------|
|-2-2h3--0-3-5---2-3-0-3-----------5--3|--0-3-2----------|
|-------0------3-----------------------|0-------3-0-5----|
|--------------------------------------|-----------------|
|--------------------------------------|-----------------|

Yo listen up: here's a story


About a little guy
That lives in a blue world
And all day and all night and everything he sees is
Just blue like him inside and outside
Blue his house with a blue little window
And a blue Corvette and everything is blue for him
And himself and everybody around
'Cause he aint got nobody to listen: ...

Chorus: (2x)

Bb C Bb Eb Bb
I'm blue, da ba dee da ba dye, da be deeeee da ba dye
C Bb Eb Bb
da ba dee da ba dye, da be deeeee da ba dye
C Bb Eb Bb
da ba dee da ba dye, da be deeeee da ba dye
A G
da ba dee da ba dye.

Interlude:
Bb C Bb Eb Bb
C Bb Eb Bb
C Bb Eb Bb
A G

Verse 2:
I have a blue house with a blue window
Blue is the color of all that I wear
Blue are the streets and all the trees are too
I have a girlfriend and she is so blue
Blue are the people here that walk around
Blue like my Corvette it's standing outside
Blue are the words I say and what I think
Blue are the feeling that live inside me

Chorus: (2x)
Bb C Bb Eb Bb
I'm blue, da ba dee da ba dye, da be deeeee da ba dye
C Bb Eb Bb
da ba dee da ba dye, da be deeeee da ba dye
C Bb Eb Bb
da ba dee da ba dye, da be deeeee da ba dye
A G
da ba dee da ba dye.

57
Interlude:
Bb C Bb Eb Bb
C Bb Eb Bb
C Bb Eb Bb
A G

Verse 3:
I have a blue house with a blue window
Blue is the color of all that I wear
Blue are the streets and all the trees are too
I have a girlfriend and she is so blue
Blue are the people here that walk around
Blue like my Corvette it's standing outside
Blue are the words I say and what I think
Blue are the feeling that live inside me

Chorus: (2x)
Bb C Bb Eb Bb
I'm blue, da ba dee da ba dye, da be deeeee da ba dye
C Bb Eb Bb
da ba dee da ba dye, da be deeeee da ba dye
C Bb Eb Bb
da ba dee da ba dye, da be deeeee da ba dye
A G
da ba dee da ba dye.

Verse 4:
Just blue like him inside and outside
Blue his house with a blue little window
And a blue Corvette and everything is blue for him
And himself and everybody around
'Cause he aint got nobody to listen: ...

Chorus: (2x)
Bb C Bb Eb Bb
I'm blue, da ba dee da ba dye, da be deeeee da ba dye
C Bb Eb Bb
da ba dee da ba dye, da be deeeee da ba dye
C Bb Eb Bb
da ba dee da ba dye, da be deeeee da ba dye
A G
da ba dee da ba dye.

Outro:
Bb C Bb Eb Bb
C Bb Eb Bb
C Bb Eb Bb
A G ---

58
KT Tunstall - Black Horse And The Cherry Tree

N.C. = No Chord (Snaren alleen 'droog' aanslaan)


Dadd6 = D Add Zes = -X-X-0-2-0-2-

Riff.1
e|---x-X-X-0-0-0-0-0-0-0-0-|
B|---X-X-x-0-0-0-0-0-0-0-0-|
G|---X-X-X-0-0-0-0-0-0-0-0-|
D|---X-X-X-0-0-0-0-0-0-0-0-|
A|---7-7-7—7\6\5\4\3\2\1\0-|
E|-0-----------------------|

| - Palm Stop
X - Mute Notes

Intro: N.C. | % | % | % |
N.C. | % | % | % |
N.C. | % | % | % |
N.C. | % | % | % |

E|---X-X--X--X--|---X-X--X--X-X-|---x-X-X-X-X-X-X-X--|-0-0-0-0-0-0-0-0-|
B|---X-X--X--X—-|---X-X--X--X-X-|---X-X-X-X-X-X-X-X--|-0-0-0-0-0-0-0-0-|
G|---X-X--X--X--|---X-X--X--X-X-|---X-X-X-X-X-X-X-X--|-0-0-0-0-0-0-0-0-|
D|---X-X--X--X--|---X-X--X--X-X-|---X-X-X-X-X-X-X-X--|-0-0-0-0-0-0-0-0-|
A|---7-7--------|---7-7-----7---|---7-7-9/10\9-7-7---|-7\6\5\4\3\2\1\0-|
E|-0------10----|-0------10-----|-0------------------|-----------------|

Em | B7 Em | Em | B7 Em |

N.C.
My heart knows me better than I know myself
Em | B7 Em
So I'm gonna let it do all the talking
N.C.
I came across a place in the middle of nowhere
Em | B7 Em
With a big black horse and a cherry tree

I felt a little fear upon my back


I said don't look back just keep on walking
But the big black horse said look this way
he said 'hey lady will you marry me?'

Em D Dadd6 C
But I said no....no,....no.....no no no
Em D C7 Em
I said no....no you're not the one for me
Em D Dadd6 C
no....no....no.....no no no
Em D C7| Em
I said no....no You're not the one for me

Em | B7 Em |
―B7‖ ―Em‖
E|---X-X--X--X-|-X-X-X-2-2-2-X-0-0-|
B|---X-X--X--X-|-X-X-X-0-0-0-X-0-0-|
G|---X-X--X—-X-|-X-X-X-2-2-2-X-0-0-|
D|---X-X--X--X-|-X-X-X-1-1-1-X-2-2-|
A|---7-7-----7-|-X-X-X-2-2-2-X-2-2-|
E|-0------10---|---------------0-2-|

59
My heart hit a problem in the early hours
So I stopped it dead for a beat or two
But I cut some cord and I shouldn't have done it
And it won't forgive me after all these years

So I sent to a place in the middle of nowhere


With a big black horse and a cherry tree
But it won't come back coz it's oh so happy
And now I've got a hole for the world to see

Em D Dadd6 C
But I said no....no,....no.....no no no
Em D C7 Em
I said no....no you're not the one for me
Em D Dadd6 C
no....no....no.....no no no
Em D C7| Em
I said no....no You're not the one for me

E|-------------|-2-2-2-X-0-0-|
B|-------------|-0-0-0-X-0-0-|
G|-0-0-0-0-----|-2-2-2-X-0-0-|
D|-2-2-2-2-----|-1-1-1-X-2-2-|
A|-2-2-2-2-----|-2-2-2-X-2-2-|
E|-0-0-0-2-3-0-|---------0-0-|

N.C.
I said no, no, no,...no, no, no
N.C.
No, no, no you're not the one for me
N.C.
I said no, no, no,...no, no, no
N.C.
No, no, no you're not the one for me

N.C. | % | % | % |
N.C. | % | % | % |

N.C.
Well there was a Big black horse and the cherry tree
N.C.
I can't quite get there coz my heart forsaken me
N.C.
Big black horse and the cherry tree
N.C.
I can't quite get there coz my heart forsaken me
N.C.
Big black horse and the cherry tree
(Riff.1)
I can't quite get there coz my heart forsaken me

Em D Dadd6 Em
Big black horse and the cherry tree
Em D C Em
I can't quite get there coz my heart forsaken me
Em D Dadd6 Em
Big black horse and the cherry tree
Em D C Em
I can't quite get there coz my heart forsaken me
Em D Dadd6 Em
Big black horse and the cherry tree
Em D C|
I can't quite get there coz my heart forsaken me

60
Obadiah Parker - Who Is It

Chords:
Gmaj7 Cmaj7 Bm7 Am7 Cmaj7(2) D7 D#dim B7 Em*
-------------------------------------------------------------------|
-----3-------8------7-----5-------5-------3------7-----7----7h8----|
-----4-------9------7-----5-------4-------5------5-----8----7h9----|
-----4-------9------7-----5-------5-------4------7-----7----7h9----|
-----x-------x------x-----x-------3-------5------6----------7------|
-----3-------8------7-----5----------------------------7-----------|

Intro:
| Gmaj7 | Cmaj7 | x4

1st Verse:
Bm7 Cmaj7
His embrace, a fortress
Bm7
It fuels me
Cmaj7 Bm7 Cmaj7
And places a skeleton of trust right beneath us
Bm7
Bone by bone
Cmaj7
Stone by stone

Pre-Chorus:
Am7 Bm7 Cmaj7(2)
If you ask yourself patiently and carefully:
D7
Who is it? Who is it?

Chorus:
Gmaj7 Cmaj7 Gmaj7
Who is it that never lets you down?
Cmaj7 Bm7
Who is it that gave you back your crown?
Cmaj7 Bm7
And the ornaments they are going around
Cmaj7
Now they're handing it over, handing it over

Gmaj7 Cmaj7 Gmaj7


Who is it that never lets you down?
Cmaj7 D#dim
Who is it that gave you back your crown?
B7 Em Cmaj7 D#dim
And the ornaments they are going around
B7 Em Cmaj7
Now they're handing it over, handing it over
Gmaj7 Cmaj7 Gmaj7 Cmaj7
Handing it over

2nd Verse:
He demands a closeness
We all have earned a lightness
Carry my joy on the left
Carry my pain on the right

Pre-Chorus:
similar to previous

61
Chorus:
similar to previous, then:

| D#dim B7 | Em Cmaj7 | x4

| Am7 | Bm7 | Am7 | Bm7 |

| Am7 | Bm7 | Cmaj7(2) | D7 |

Outro:
| Gmaj7 | Cmaj7 | x4

...that never lets you down?


...that gave you back your crown?

62
Vaya Con Dios - Don't Cry For Louie

Em | % | % | % |

Em
I gave up all my friends

My girls from out of town

Bought her what she wanted

Yet she let me down


Am
When she saw me crying

She said I had no heart


B
When my heart was bleeding

She turned around and laughed

Em
Girls don't cry for Louie
Am
Louie wouldn't cry for you

When you walk the streets for Louie


B Em
You better do what Louie tells you to

I met Louie on a hazy morning


When the bars where closing down
He said honey I really like your prancing
You and I we'll burn this town

Solo: Em | % | % | Am
Am | % | B | Em

This woman, sir, mislead me


Hurt me in my pride
Who are you to judge me?
Who are you to take her side?
She cheated on me mister
Told me nothing but lies
I just had to teach her
Not to overstep the line

Girls don't cry for Louie


He wouldn't waste a tear on you
When you walk the streets for Louie
You ain't walking down no avenue

I met Louie on an early morning


In a sleazy part of town
I was tipsy and feeling kind'a lonely
Louie offered me his arm

B Em
He said: you and I we'll burn this town
B Em
He said: you and I we'll burn this town

Outro: Em | % | % | % |

63
Vaya Con Dios - Just A Friend Of Mine

INTRO:
Dm Am Em Am
|--------------------------------------------------|
|---5-6-6-6-6-5---5--------------------------------|
|-7-------------7-------4-5-7-7-7-7-5-4-4h5p4------|
|---------------------7-----------------------7----|
|--------------------------------------------------|
|--------------------------------------------------|

|-------------------------------------|
|---5-4-5---5-------------------------|
|-7-------7---7-5-7-5-4-5-4---4-------|
|---------------------------7---7-5-7-|
|-------------------------------------|
|-------------------------------------|

[verse1:]
Dm Am Em Am
He said: hey baby, what's your name? Are you new in this town?
Dm Am Em Am
Since you walked in things don't look the same. How about sticking around?
Dm Am Em Am
The place was dark and the band played loud, his voice sounded kinda dry.
Dm Am
He said: who's that guy with the funny smile?
Em Am Em Am Em Am
She said: he's just a friend of mine.(just a friend of mine, just a friend of
mine).

[repeat intro]

They talked a little, drank a lot. As the evening went by, the place got
crowded and the air to
hot. He said: let's go out for a while. The night was clear and the wind was
soft. As they
walked side by side,
he said: who's that guy for the winner super?
She said: he's just a friend of mine. (just a friend of mine, just a friend
of mine).

He was nice and gentle, still rough enough to keep her saticfied.
She said: hold it baby, it get's to much. I feel like I'm gonna die.
He took her home in the early morning .
She said: please do come inside.
He said: who's that guy in the dressing gaunt.
She said: he's just a friend of mine. (just a friend of mine, just a friend
of mine)

Dm Am
He said: who's that guy in the dressing gaunt.
Em Am Em Am
Em Am
She said: baby don't you mind. He's just a friend, he's just a friend. He's
just a friend of mine.

| Dm / / / | Am / / / | Em / / / | Am / / / |
| Dm / / / | Am / / / | Em / / / | Am / / / |
| Dm / / / | Am / / / | Em / / / | Am / / / |
| Dm / / / | Am / / / | Em / / / | Am / / / |
( | Em / / / | Am / / / | Em / / / | Am / / / | )

64
Vaya Con Dios - Neh Nah Neh

Intro: C#---
F#m | % | C# | % | 2x

F#m
I got on the phone

and called the girls said

meet me down at curly pearls for a


C#
ney nah neh nah, ney nah neh nah
F#m
in my high heeled shoes and fancy fads

i ran down the stairs halled me a cab going


C#
ney nah neh nah, ney nah neh nah,

ney nah neh nah, ney nah neh nah,


B
ohh Nah ney nah neh nah, ney nah neh nah,
C#
la la laa

When I pushed the door I saw Eleanor


and Mary Lou swinging on the floor going
ney nah neh nah, ney nah neh nah,
Sue came in in a silk sarong
she walzed across as they played that song going
ney nah neh nah, ney nah neh nah,
ney nah neh nah, ney nah neh nah,
ohh Nah ney nah neh nah, ney nah neh nah, la la laa

[SOLO]

Annie was a little late


She had to get out of a date with a
Ney, Nah Neh Nah Ney, Nah Neh Nah
Curly fixed another drink
As the piano man began to sing that song
ney nah neh nah, ney nah neh nah,
ney nah neh nah, ney nah neh nah,
ohh Nah ney nah neh nah, ney nah neh nah,
la la laa

It was already half past three


But the night was young and so were we, dancing
Ney, Nah Neh Nah Ney, Nah Neh Nah
Oh Lord, did we have a ball
Still singing, walking down that hall, that
ney nah neh nah, ney nah neh nah,
ney nah neh nah, ney nah neh nah,
ohh Nah ney nah neh nah, ney nah neh nah,
la la laa

65
Eva de Roovere - Fantastig Toch

Intro: G#m C#m | G#m | G#m C#m | G#m |

G#m C#m G#m


Dag en nacht
G#m C#m
En wij daartussen
G#m
Jouw kussen zacht
E C#m G#m
Op mijn natte-dromen-wang
B F# G#m
Bang van komen en jouw gaan

[refrein]
B F# C#m |
Slaap lekker ding |
E |
Want jij is lastig |
B |
Nog meer jij |
F# G#m |
Is fantastig toch | 2x

Glimlach lag
In veel te grote tas
Klein te zijn
Fijn tussen vingers
Groot geheim

[refrein]

E C#m
Laten we samen
G#
Dingen doen zingen
E C#m G#
Van liedjes die niet bestaan
E C#m
Laten we samen
G#
Dingen doen zingen
B F# G#m
Laten we samen niet bestaan

B F# | C#m E |
B F# | G#m |
B F# | C#m E |
B F# | G#m |

[refrein]

B
Nog meer jij
F# G#m
Is fantastig toch

B
Nog meer jij
F# G#m---
Is fantastig toch

66
Eurythmics - Sweet dreams (are made of this)

Intro:
Cm – Ab – G
Cm – Ab – G
Cm – Ab – G
Cm – Ab – G
Ab G Cm Fm Ab G
Oooh oooh oooh ooh oooh oooh

[refrein]
Cm Ab G
Sweet Dreams are made of this
Cm Ab G
Who am I to disagree?
Cm Ab G
I travel the world and the seven seas
Cm Ab G
Everybody's lookin' for somethin'

Cm Ab G
Some of them want to use you
Cm Ab G
Some of them want to get used by you
Cm Ab G
Some of them want to abuse you
Cm Ab G
Some of them want to be abused

Ab G Cm Fm Ab G
Oooh oooh oooh ooh oooh oooh

Cm – Ab – G
Cm – Ab – G

[refrein]

Ab G Cm Fm Ab G
Oooh oooh oooh ooh oooh oooh

Cm F
hold your head up - keep your head up - movin' on
Cm
hold your head up - Movin' on
F
keep your head up - Movin' on
Cm
hold your head up - Movin' on
F
keep your head up - Movin' on
Cm
hold your head up - Movin' on
F
keep your head up

solo:
Cm – Ab – G
Cm – Ab – G
Cm – Ab – G
Cm – Ab – G

67
Cm Ab G
Some of them want to use you
Cm Ab G
Some of them want to get used by you
Cm Ab G
Some of them want to abuse you
Cm Ab G
Some of them want to be abused

Ab G Cm Fm Ab G
Oooh oooh oooh ooh oooh oooh

Cm F
hold your head up - keep your head up - movin' on
Cm
hold your head up - Movin' on
F
keep your head up - Movin' on
Cm
hold your head up - Movin' on
F
keep your head up - Movin' on
Cm
hold your head up - Movin' on
F
keep your head up

solo:
Cm – Ab – G
Cm – Ab – G
Cm – Ab – G
Cm – Ab – G
Cm – Ab – G
Cm – Ab – G
Cm – Ab – G
Cm – Ab – G

Ab G Cm Fm Ab G
Oooh oooh oooh ooh oooh oooh

solo:
Cm – Ab – G
Cm – Ab – G
Cm – Ab – G
Cm – Ab – G

[refrein]

herhalen en fade out

68
Eurythmics - Here comes the rain again

Am F
Here comes the rain again, falling on my head like a memory
G Am
Falling on my head like a new emotion
Am F
I want to walk in the open wind, I want to talk like lovers do
G Am
Want to dive into your ocean, is it raining with you?

F C
So baby, talk to me, like lovers do
F C
walk with me, like lovers do
F C D G
Talk to me, like lovers do

Am F
Here comes the rain again, raining on my head like a tragedy
G Am
Tearing me apart like a new emotion
Am F
I want to breathe in the open wind, I want to kiss like lovers do
G Am
Want to dive into your ocean, is it raining with you?

F C
So baby, talk to me, like lovers do
F C
walk with me, like lovers do
F C D G
Talk to me, like lovers do

[interlude]
[louder]
Am F
Here comes the rain again, falling on my head like a memory
G Am
Falling on my head like a new emotion
Am F
I want to walk in the open wind, I want to talk like lovers do
G Am
Want to dive into your ocean, is it raining with you?

69
Glen Hansard - When Your Minds Made Up

[C] [Am] [G] [F]

[C] [Am]
So, if you want something
[G]
And you call, call
[F]
Then'll come running
[C] [Am]
To fight, and I'll be at your door
[G] [F]
When there's nothing worth running for

Am
When your mind's made up
G
When your mind's made up
F
There's no point trying to change it
Am
When your mind's made up
G
When your mind's made up
F
There's no point trying to stop it

[C] [Am]
You see, you're just like everyone
[G]
When the shit falls all you want to
[F] [C]
do is run, away
[Am]
And hide all by yourself
[G]
When you're far from me, there's
[F]
nothing else

Am
When your mind's made up
G
When your mind's made up
F
There's no point trying to change it

When your mind's made up


When your mind's made up
There's no point even talking
When your mind's made up
When your mind's made up
There's no point trying to fight it

Am G F

[C] [Am]
So, if you ever want something
[G]
And you call, call
[F]
Then I'll come running.

70
Foo Fighters - Home

G C
Wish I were with you
Am G
I couldn't stay
G C
Every direction
Am G
Leads me away
G Am
Pray for tomorrow
C G
But for today
Am Em C
All I want is to be home

G C
Stand in the mirror
Am G
You look the same
G C
Just lookin' for shelter
Am G
From cold and the pain
G C
Someone to cover
Am G
Safe from the rain

Am Em C
All I want is to be home

G C
Echoes and silence
Am G
Patience and grace
G C
All of these moments
Am G
I'll never replace
G C
No fear of my heart
Am G
Absence of faith

Am Em C
All I want is to be home
Ooh

Am Em C
All I want is to be home

71
G C
People I've loved
Am G
I have no regrets
G C
Some I remember
Am G
Some I forget
G C
Some of them living
Am G
Some of them dead

Am Em C
All I want is to be home

72
Foo Fighters - Let it Die

-INTRO- Played once


e||----8-------------------5------||
B||------6-------------------3----||
G||--------0---0---0---0-------0--||
D||--8-----------7---5---5--------||
A||----------8--------------------||
E||-------------------------------||

Then play 11 more times, except you slide up to 8 on the D string. The slide is
each time it's played, so listen to the song to figure it out.
e||-----8-------------------5------||
B||-------6-------------------3----||
G||---------0---0---0---0-------0--||
D||--/8-----------7---5---5--------||
A||-----------8--------------------||
E||--------------------------------||

-CHORUS-
e||----8-------------------------------------------------------------------------||
B||------6-------------8-----------------11-----------------------8--------------||
G||--------0---0---0-----0---0----0---------0----0----0-----0-------0-----0---0--||
D||--8-----------7---------9---10----/13------13---------12----10-----9-----9----||
A||----------8-------10-----------------------------13---------------------------||
E||------------------------------------------------------------------------------||

e||---------------------------------------------------------------------------------||
B||----6-----------------8----------------11-----------------------8----------------||
G||------0---0---0---0-----0---0----0--------0----0----0-----0-------0-----0---0----||
D||--8-----8-------7---------9---10---/13------13---------12----10-----9-----9---9--||
A||------------8-------10----------------------------13-----------------------------||
E||---------------------------------------------------------------------------------||

-INTRO- x12
e||-----8-------------------5------||
B||-------6-------------------3----||
G||---------0---0---0---0-------0--||
D||--/8-----------7---5---5--------||
A||-----------8--------------------||
E||--------------------------------||

-CHORUS-
e||----8-------------------------------------------------------------------------||
B||------6-------------8-----------------11-----------------------8--------------||
G||--------0---0---0-----0---0----0---------0----0----0-----0-------0-----0---0--||
D||--8-----------7---------9---10----/13------13---------12----10-----9-----9----||
A||----------8-------10-----------------------------13---------------------------||
E||------------------------------------------------------------------------------||

e||---------------------------------------------------------------------------------||
B||----6-----------------8----------------11-----------------------8----------------||
G||------0---0---0---0-----0---0----0--------0----0----0-----0-------0-----0---0----||
D||--8-----8-------7---------9---10---/13------13---------12----10-----9-----9---9--||
A||------------8-------10----------------------------13-----------------------------||
E||---------------------------------------------------------------------------------||

73
Immediately following the chorus:
(Don't count all the 3's. Just listen to the song, and follow the rhythm.)
e||-------------------------------------------------------------------||
B||-------------------------------------------------------------------||
G||-------------------------------------------------------------------||
D||--5-5-5---------------5--------------------------------------------||
A||--5-5-5---------------5--------------------------------------------||
E||--3-3-3-3-3-3-3-3-3-3-3-3-3-3-3-3-3-3-3-3-3-3-3-3-3-3-3-3-3-3-3-3--||

e||----------------------------------------------------------------------||
B||----------------------------------------------------------------------||
G||----------------------------------------------------------------------||
D||--5-5-5-------------------------------5-------------------------------||
A||--5-5-5-------------------------------5-------------------------------||
E||--3-3-3-3-3-3-3-3-3-3-3-3-3-3-3-3-3-3-3-3-3-3-3-3-3-3-3-3-3-3-3-3-3---||

-BRIDGE- x3
Don't have to be too accurate here, as every note played fits in.
e||----------6-------------8---------------3-------------5------||
B||----4-------4-------6-----6-------1-------1-------3-----3----||
G||------0-------0-------0-------------0-------0-------0--------||
D||--------5-------------------7---------2-------------------4--||
A||--6---------------8-------------3---------------5------------||
E||-------------------------------------------------------------||

Then this
e||----------6-------------8---8--||
B||----4-------4-------6-----6----||
G||------0-------0-------0--------||
D||--------5----------------------||
A||--6---------------8------------||
E||-------------------------------||

-BREAKDOWN-
e||-------------------------------------------------------------------------------||
B||----6--------------------------------------------------------------------------||
G||------0-----0---0----0-0-0---0-0-0--0--0--0--0--0--0-0-0-0--0-0--0--0--0--0-0--||
D||--8-----8-----7------5-5-5---9-0-10-0--13-13-13-13-0-8-0-12-0-10-10-10-12-0-9--||
A||----------8--------------------------------------------------------------------||
E||-------------------------------------------------------------------------------||
^Electric comes in here^

And follow up with this x3


e||-----------------------------------------------------------------------------||
B||-----------------------------------------------------------------------------||
G||--0-0-0-0-0-0-0-0--0-0-0---0-0-0--0--0--0--0--0--0-0-0-0--0-0--0--0--0--0-0--||
D||--8-8-8-0-3-0-7-0--5-5-5---9-0-10-0--13-13-13-13-0-8-0-12-0-10-10-10-12-0-9--||
A||-----------------------------------------------------------------------------||
E||-----------------------------------------------------------------------------||

-FINAL CHORUS-
e||------------------------------------||
B||------------------------------------||
G||--8-------10-------5--------7-------||
D||--8-------10-------5--------7-------||
A||--6--x8---8---x8---3---x8---5---x8--||
E||--6-------8--------3--------5-------||

e||------------------------------------||
B||------------------------------------||
G||--8-------10-------5--------7-------||
D||--8-------10-------5--------7-------||
A||--6--x8---8---x8---3---x8---5---x8--||
E||--6-------8--------3--------5-------||

74
e||------------------------------------||
B||------------------------------------||
G||--8-------10-------5--------7-------||
D||--8-------10-------5--------7-------||
A||--6--x8---8---x8---3---x8---5---x8--||
E||--6-------8--------3--------5-------||

e||------------------||
B||------------------||
G||--8-------10------||
D||--8-------10------||
A||--6--x8---8---x8--||
E||--6-------8-------||

Then it's this x3


e||-----------------------------------------------------------------------------||
B||-----------------------------------------------------------------------------||
G||--0-0-0-0-0-0-0-0--0-0-0---0-0-0--0--0--0--0--0--0-0-0-0--0-0--0--0--0--0-0--||
D||--8-8-8-0-3-0-7-0--5-5-5---9-0-10-0--13-13-13-13-0-8-0-12-0-10-10-10-12-0-9--||
A||-----------------------------------------------------------------------------||
E||-----------------------------------------------------------------------------||

And it ends with


e||-----------------||
B||-----------------||
G||--0-0-0-0-0-0-0--||
D||--8-8-8-0-3-0-7--||
A||-----------------||
E||-----------------||

75
Heart of gold but it lost its pride
Beautiful veins and bloodshot eyes
I've seen your face in another light
Why'd you have to go and let it die?

Why'd you have to go and let it die?


Why'd you have to go and let it die?
In too deep and out of time.
Why'd you have to go and let it die?

A simple man and his blushing bride


Intravenous, intertwined
Hearts gone cold your hands were tied
Why'd you have to go and let it die?

Why'd you have to go and let it die?


Why'd you have to go and let it die?
In too deep and out of time.
Why'd you have to go and let it die?

Do you ever think of me?


You're so considerate.
Do you ever think of me?
Oh, so considerate.

In too deep and lost in time


Why'd you have to go and let it die?
Beautiful veins and bloodshot eyes
Why'd you have to go and let it die?

Hearts gone cold and hands were tied.


Why'd you have to go and let it die?
Why'd you have to go and let it die?

Do you ever think of me?


You're so considerate.
Did you ever think of me?
Oh, so considerate.

In too deep and lost in time


Why'd you have to go and let it die?
Beautiful veins and bloodshot eyes
Why'd you have to go and let it die?

Hearts gone cold and hands were tied.


Why'd you have to go and let it die?

Why'd you have to go and let this die?


Why'd you have to go and let this die?
Why'd you have to go and let this die?
Why'd you have to go and let this die?

Why'd you have to go and let it die?

76
Fleetwood Mac - Landslide

[INTRO:]

C G/B Am7 G/B


E ----------------|----------------|----------------|----------------|
B ------1---------|------3---------|------1---------|------3---------|
G --0-------0-----|--0-------0-----|--0-------0-----|--0-------0-----|
D ----2-------2---|----0-------0---|----2-------2---|----0-------0---|
A 3-------3-------|2-------2-------|0-------0-------|2-------2-------|
E ----------------|----------------|----------------|----------------|

C G/B Am7 G/B


I took my love, I took it down
C G/B Am7 G/B
Climbed a mountain and I turned around
C G/B Am7 G/B
And I saw my reflection in the snow-covered hills
C G/B Am7 Am7 - G/B
Till the landslide brung it down (Oh,)

C G/B Am7 G/B


Oh, mirror in the sky, what is love?
C G/B Am7 G/B
Can the child within my heart rise above?
C G/B Am7 G/B
Can I sail through the changin' ocean tides?
C G/B Am7 G/B C G/B Am7 G/B
Can I handle the seasons of my li - i - fe?
C G/B Am7 D7/F#
Mm hmm hmm hmm

G D7/F# Em Em
Well, I've been afraid of changing 'cause I've
C G/B Am7 D7/F#
Built my life around you
G D7/F# Em Em
But time makes you bolder, even children get older
C G/B Am7 Am7 - G/B
And I'm getting older too

77
[GUITAR SOLO:]
C G/B Am7 G/B
E ------------7-10|----------------|--------10=12---|10------7=5-----|
B --------5/8-----|----------------|----------------|------------8-8-|
G ----------------|----------------|----------------|----------------|
^ . ^ . ^ . ^ . ^ . ^ . ^ . ^ . ^ . ^ . ^ . ^ . ^ . ^ . ^ . ^ .

C G/B Am7 G/B


E ----------------|----------------|----------------|----------------|
B ---------8/10-8-|--------0=1=3-3-|----------------|----------------|
G ----------------|----------------|----------------|----------------|
^ . ^ . ^ . ^ . ^ . ^ . ^ . ^ . ^ . ^ . ^ . ^ . ^ . ^ . ^ . ^ .

C G/B Am7 G/B


E ------------7-10|----------------|10=12---10------|7-------7=5-----|
B --------5/8-----|----------------|----------------|------------8---|
G ----------------|----------------|----------------|----------------|
^ . ^ . ^ . ^ . ^ . ^ . ^ . ^ . ^ . ^ . ^ . ^ . ^ . ^ . ^ . ^ .

C G/B Am7 D7/F#


E ------------8---|7---------------|--3-2-3-5-3-2-3-|2-0-2-0---------|
B/5-------8-------|--8---------0-1-|3---------------|--------3-1-3---|
G ----------------|----7-----------|----------------|----------------|
^ . ^ . ^ . ^ . ^ . ^ . ^ . ^ . ^ . ^ . ^ . ^ . ^ . ^ . ^ . ^ .

Well, I've been afraid of changing 'cause I've


Built my life around you
But time makes you bolder, even children get older
And I'm getting older too
Oh, I'm getting older too

Ah-ah, take my love, take it down


Ah-ah, Climb a mountain and turn around
And if you see my reflection in the snow-covered hills
Well, a landslide'll bring it down
C G/B Am7 G/B [pause]
And if you see my reflection in the snow-covered hills
C G/B Am7 G/B
Well, a landslide'll bring it down, oh-ohh
C G/B Am7.
The landslide'll bring it down.

78
Jimi Hendrix - Hey Joe

Intro:
e |---0---0-----------|----0----------------|-0-----------------------|
B |-3/5-5/3-----0-----|----0----------------|-0-----------7------7----|
G |---------4-2-0-0---|----1----------------|-1-------7---7—-7---7----|
D |---------------0h2-|--------------5----4-|-2---9---7h9----7h9---9--|
A |-------------------|-------4/5----5----4-|-2---7-------------------|
E |-------------------|-0---------0----0----|-0-----0-----------------|

Riff 1:
e |-----0-0------3-3--|-----2-2-2-0-0-0-------|---0----------------|-0---------------|
B |-----1-1------0-0--|-----3-3-3-2-2-2-------|---0----------------|-0---------------|
G |-----0-0------0-0--|-----2-2-2-2-2-2-------|---1----------—-0---|-1--7---7-7------|
D |-----2-2------0-0--|-0-0-0-0-0-2-2-2-----0-|---2--------0-------|-2—-7h9---7h9-9--|
A |-3-3-3-3------2-2--|-----------0-0-0-3/4---|---2----0h2---2-----|-2---------------|
E |----------3-3-3-3--|-----------------------|-0-0--0-----------0-|-0---------------|

Riff 1:
|-----0-0------3-3--|-----2----------0-0-0-------|---0----------------|-0--------------|
|-----1-1------0-0--|-----3----------2-2-2-------|---0----------------|-0--------------|
|-----0-0------0-0--|-----2----------2-2-2-------|---1----------—-0---|-1--7---7-7-----|
|-----2-2------0-0--|-0-0-0-1h2-2/4--2-2-2-----0-|---2--------0-------|-2—-7h9---7h9-9-|
|-3-3-3-3------2-2--|----------------0-0-0-3/4---|---2----0h2---2-----|-2--------------|
|----------3-3-3-3--|----------------------------|-0-0--0-----------0-|-0--------------|

(riff 1)
C G D A E
Hey Joe. Where you goin' with that gun in your hand.
C G D A E
Hey Joe. Where you goin' with that gun in your hand.

C G D
I'm goin' down to shoot my old lady,
A E
you know I caugth her messin' round with another man.
C G D
I'm goin' down to shoot my old lady,
A E
you know I caught her messin' round with another man.

(riff 2)
C G D A E
Hey Joe. I heard you shot your woman down, you shot her down now.
C G D A E
Hey Joe. I heard you shot your old lady down, you shot her down in the
ground.

C G D A E
Yes I did, I shot her, you know I caught her messin' round town.
C G D A E
|E7|
Yes I did, I shot her, you know I caught my old lady messin' round town.

(solo)
|C |G |D |A |E |E7 |
|C |G |D |A |E |E7 |
|C |G |D |A |E | % |

79
Bass riff:
(de 1e 2 maten worden tijdens het couplet gespeeld)
(onderstaande 4 maten worden op het einde gespeeld)
|------------------|-----------------|-------------------|------------------------|
|------------------|-----------------|-----8--8-8--8-8-8-|------------------------|
|------------------|-----------------|-----7--7-7--7-7-7-|-----9--7---7--7---7----|
|------------------|-----------------|-----6--6-6--6-6-6-|-----9—-7h9----7h9---9--|
|-/3---------2-3-4-|-5--------/4-5-6-|-----7--7-7--7-7-7-|-----7------------------|
|----0-1-2-3-------|---2-3-4-5-------|-0-0---------------|-0-0--------------------|

C G D A E
Hey Joe, where you gonna run to now, where you gonna run to?
C G D A E
Hey Joe, where you gonna run to now, where you gonna go?

C G D A E
I'm goin' way down south, way down Mexico way.
C G D A E
I'm goin' way down south, way down where I can be free,ain't no one gonna
find me.
C G D A E
Ain't no hangman gonna, he ain't gonna put a rope around me

C G D A E
Hey Joe, you better run on down. Goodbye everybody.
C G D A E
Hey Joe, what‘d I say, run on down.

80
Jimi Hendrix - Purple Haze

E7#9 = -0-7-6-7-8-0-
G = -3-x-5-4-3-3-
A = -5-x-7-6-5-5-
/E = -0-x-x-x-x-x-

INTRO:

e|-------------|-------------|
B|-------------|-------------|
G|-------------|-------------|
D|----8-----8--|----8-----8--|
A|-------------|-------------|
E|-6-----6-----|-6-----6-----|

e|--------------|---------------|--------------|---------------|
B|------8b------|---------------|------8b------|---------------|
G|----7---------|---------------|----7---------|---------------|
D|-/9------7vv--|-/5-0----------|-/9------7vv--|-/5-0----------|
A|--------------|--------5/7vv--|--------------|--------5/7vv--|
E|--------------|------0--------|--------------|------0--------|

e|-----------------|------------|-------------------|-----------------|
B|-----------------|------------|-------------------|-----------------|
G|-----------------|------------|-------------------|----7-7-9vv------|
D|-----5-7-7b-5vv--|-5----------|-----5-7b-5h7-5-0--|-/9--------------|
A|-5/7-------------|---0--------|-5/7---------------|-----------------|
E|-----------------|-----0-3vv--|-------------------|------------15\--|

|E7#9 |G |A |
|E7#9 |G |A |

VERSE 1:

E7#9 G A
Purple haze all in my brain
E7#9 G A
Lately things just don't seem the same
E7#9 G A
Actin' funny, but I don't know why
/E
Excuse me while I kiss the sky

e|------------|----------|------------|
B|------------|------8b--|------8bvv--|
G|-9-/-11-9-7-|----7-----|----7-------|
D|-x---x------|-/9-------|-/9---------|
A|-7-/-9--7-5-|----------|------------|
E|------------|----------|------------|

VERSE 2:

E7#9 G A
Purple haze all around
E7#9 G A
Don't know if I'm coming up or down
E7#9 G A
Am I happy or in misery?
/E
Whatever it is that girl put a spell on me

81
e|------------|----------|------------|
B|------------|------8b--|------8bvv--|
G|-9-/-11-9-7-|----7-----|----7-------|
D|-x---x------|-/9-------|-/9---------|
A|-7-/-9--7-5-|----------|------------|
E|------------|----------|------------|

[SOLO]

VERSE 3:

E7#9 G A
Purple haze all in my eyes
E7#9 G A
Don't know if it's day or night
E7#9 G A
You got me blowing, blowing my mind
/E
Is it tomorrow, or just the end of time?

e|------------|----------|------------|
B|------------|------8b--|------8bvv--|
G|-9-/-11-9-7-|----7-----|----7-------|
D|-x---x------|-/9-------|-/9---------|
A|-7-/-9--7-5-|----------|------------|
E|------------|----------|------------|

[OUTRO SOLO]

82
Krezip - Sweet Goodbyes
CAPO 4

Cmaj7 x32000

Intro:

Em D/F# G Cadd9 Em D C
e |---0---0-------------------------|---7---7---5---5---3---3---3---3-|
B |---0---0---3---3---3-------3---3-|---8---8---7---7---5---5---5---5-|
G |-----------2---2---0-------0---0-|---------------------------------|
D |---------------------------------|---------------------------------|
A |---------------------0-2-3---3---|/7---7---5---5---3---3---3---3---|
E |-0---0---2---2---3---------------|---------------------------------| 2x

Verse:
Em D/F# G Cadd9 Em D Cadd9
e |---0---0-------------------------|---0---0---------------0-------0-|
B |---0---0---3---3---3-------3---3-|---0---0---3---3---3---3---3---3-|
G |-----------2---2---0-------0---0-|-----------0---0---0-------0-----|
D |---------------------------------|---------------------------------|
A |---------------------0-2-3---3---|---------5---5---3---3---3---3---|
E |-0---0---2---2---3---------------|-0---0---------------------------|

Can't sleep, cause everything changing, you don't want to leave things behind
Can't breathe there's too many things, going on, going wrong in your life

Pre-chorus:
C Cmaj7 D
e |---0---0---0---0---0---0---0---0-|---0---0---0---0---0---0-0-------|
B |---1---1---0---0---1---1---0---0-|---1---1---0---0---1---1-3-------|
G |---0---0---0---0---0---0---0---0-|---0---0---0---0---0---0-0-------|
D |---------------------------------|---------------------------------|
A |-3---3---3---3---3---3---3---3---|-3---3---3---3---3---3---5-------|
E |---------------------------------|---------------------------------|

Tears in your eyes, sweet goodbye's... I know how you

Chorus:
C D Em G/B C D G D/F#
e |---------------------------------|---------------------------------|
B |---1---1---3---3---5---5---0---0-|---1---1---3---3---0---0---------|
G |---0---0---0---0---0---0---0---0-|---0---0---0---0---0---0---2---2-|
D |---------------------------------|---------------------------0---0-|
A |-3---3---5---5---7---7---2---2---|-3---3---5---5-------------------|
E |---------------------------------|-----------------3---3---2---2---|

feel right now. Losing dreams you've come to care about. I know what you

C D G D/F# C D
e |---------------------------------|---------------------------------|
B |---1---1---3---3---0---0---------|---1---1---1---1---3---3---3---3-|
G |---0---0---0---0---0---0---2---2-|---0---0---0---0---0---0---0---0-|
D |---------------------------0---0-|---------------------------------|
A |-3---3---5---5-------------------|-3---3---3---3---5---5---5---5---|
E |-----------------3---3---2---2---|---------------------------------|

need right now. You need to come on home so I can hold you tight. I'll
get you through the

83
Em D/F# G Cadd9 Em D C
e |---0---0-------------------------|---7---7---5---5---3---3---3---3-|
B |---0---0---3---3---3-------3---3-|---8---8---7---7---5---5---5---5-|
G |-----------2---2---0-------0---0-|---------------------------------|
D |---------------------------------|---------------------------------|
A |---------------------0-2-3---3---|/7---7---5---5---3---3---3---3---|
E |-0---0---2---2---3---------------|---------------------------------|

night. I'll get you trough the night.

--==Couplet
Wake up, the sun's shining bright
Let's go out of bed, into the light
Shape up, we won't forget
still there's lots of love left to hold tight

--== Pre-Chorus
Tears in your eyes, sweet goodbyes...

--== Chorus

I know how you feel right now


Losing dreams you've come to care about
I know what you need right now
You need to come on home so I can hold you tight

I'll get you through the night

Bridge:
C D/E C D/E G
e |---3---3---3---3---2---2---2---2-|---3---3---3---3---2---2---3-----|
B |---0---0---0---0---3---3---3---3-|---0---0---0---0---3---3---3---3-|
G |---------------------------------|-------------------------------0-|
D |---------------------------------|---------------------------------|
A |-3---3---3---3-------------------|-3---3---3---3-------------------|
E |-----------------0---0---0---0---|-----------------0---0---3---3---|

Everything of love between us, will get us trough the night


All the things we've lost will teach us, see the pretty things in life

C D/E C/A Em
e |---3---3---3---3---2---2---2---2-|-------0-----------0---0---0---0-|
B |---0---0---0---0---3---3---3---3-|---1---1---1-------0---0---0---0-|
G |---------------------------------|---0-------0---0-0---0---0---0---|
D |---------------------------------|---------------------------------|
A |-3---3---3---3---2---2---2---2---|-0---0---0---0-------------------|
E |---------------------------------|---------------------------------|
All the places that we've been to the people we relate to,
all the love that we give in to, blow the

C Cmaj7 D
e |---0---0---0---0---0---0---0---0-|---0---0---0---0---0---0-0-------|
B |---1---1---0---0---1---1---0---0-|---1---1---0---0---1---1-3-------|
G |---0---0---0---0---0---0---0---0-|---0---0---0---0---0---0-0-------|
D |---------------------------------|---------------------------------|
A |-3---3---3---3---3---3---3---3---|-3---3---3---3---3---3---5-------|
E |---------------------------------|---------------------------------|
Tears from our eyes, sweet goodbye's...

--== Chorus

84
I know how you feel right now
Losing dreams you've come to care about
I know what you need right now
You need to come on home so I can hold you tight

I know how you feel right now


Losing dreams you've come to care about
I know what you need right now
You need to come on home so I can hold you tight

D G
e |---------------------------------|-----------------------------2---|------3---|
B |---3---3---3---3---3-----3-------|---3-----3---------3-----3-------|-----3----|
G |---0---0---0---0-----0-----0---0-|-----0-----0---0-----0-----0-----|----0-----|
D |-----------------------0-----0---|-------0-----0---------0---------|---0------|
A |-5---5---5---5-------------------|---------------------------------|--2-------|
E |-----------------3---------------|-3---------------3---------------|-3--------|
(let ring)
I'll get you through the night

85
Bob Seger - Turn the page

|Em |Em |

Em
On a long and lonesome highway, east of Omaha
D
You can listen to the engine moaning out it's one lone song
A Em
You can think about your woman, or the girl you knew the night before

But your thoughts will soon be wandering the way they always do
When you're riding sixteen hours and there's nothing much to do
And you don't feel much like riding, you just wish the trip was through

D Em
Say, here I am on the road again
D Em
There I am up on the stage
D A
Here I go playing star again
C D Em
There I go, turn the page

Well you walk into a restaurant, strung out from the road
You can feel the eyes upon you as you're shaking off the cold
You pretend it doesn't bother you, but you just want to explode

Most times you can't hear em talk, other times you can
All the same old cliches, as that woman on her a man
And you always seem out-numbered - you don't dare make a stand

Here I am on the road again


There I am up on the stage
Here I go playing star again
There I go, turn the page

Out there in the spotlight you're a million miles away


Every ounce of energy, you try and give away
As the sweat pours out your body like the music that you play

Later in the evening as you lay awake in bed


With the echoes from the amplifiers ringing in your head
You smoke the days last cigarette, remembering what she said

Here I am on the road again


There I am up on the stage
Here I go playing star again
There I go - turn the page

Here I am on the road again


There I am up on the stage
Here I go playing star again
C
There I go
D Em
There I go

86
Yann Tiersen - Monochrome

Bm D A G
Anyway, I can try anything it's the same circle leading to nowhere, and I'm
tired now
Bm D A G
Anyway, I've lost my face, my dignity, my look, everything is gone and I'm
tired now

Bm D
Don't be scared,
A G
I found a good job and I go to work
Bm D
Everyday on,
A G
My old bicycle you loved

Bm D A G
I'm piling up some unread books under my bed and I really think I'll never
read again
Bm D A G
No concentration just a white disorder everywhere around me, you know I'm so
tired now

Bm D
Don't worry
A G
I often go to dinners and parties
Bm D A G
With some old friends who care for me take me back home and stay

G Bm G Bm
Monochrome floors, monochrome walls
D A G Bm D A G Bm
Only absence near me, nothing but silence around me
G Bm G Bm
Monochrome flat, monochrome life
D A G Bm D A G Bm
Only absence near me, nothing but silence around me

Bm D A G
Sometimes I search an event or something to remind but I've really got
nothing in mind
Bm D A G
Sometimes I open the windows and listen people walking in the downstreets,
there is lifeout there

Bm D
Don't be scared,
A G
I found a good job and I go to work
Bm D
Everyday on,
A G
My old bicycle you loved

87
Bm D A G
Anyway, I can try anything it's the same circle leading to nowhere, and I'm
tired now
Bm D A G
Anyway, I've lost my face, my dignity, my look, everything is gone and I'm
tired now

Bm D
Don't worry
A G
I often go to dinners and parties
Bm D A G
With some old friends who care for me take me back home and stay

G Bm G Bm
Monochrome floors, monochrome walls
D A G Bm D A G Bm
Only absence near me, nothing but silence around me
G Bm G Bm
Monochrome flat, monochrome life
D A G Bm D A G Bm
Only absence near me, nothing but silence around me

88
Canned Heat - Going up the country
Capo 1

A = x-0-2-2-2-0
D = x-x-0-2-3-2
E = 0-2-2-1-0-0

|A |A |D |A |E |A |

A
I'm goin' up the country, baby don't you wanna go
D A
I'm goin' up the country, baby don't you wanna go
E A
I'm goin' to someplace where I've never been before

I'm goin', I'm goin' where the water tastes like wine
I'm going where the water tastes like wine
We can jump in the water, stay drunk all the time

|A |A |D |A |E |A |

I'm gonna leave this city, got to get away


I'm gonna leave this city, got to get away
All this fussin' and fightin' man, you know I sure can't stay

Now Baby, pack and leave your truck, you know we've got to leave today
just exactly where we're goin' I cannot say
But, we might even leave the USA
Cause it's a brand new game and I don't wanna play

|A |A |D |A |E |A |

D A
No use in you runnin' or screamin' and cryin'
E A
Cause you've got a home as long as I got mine

|D |A |E |A |
|A |A |D |A |E |A |

89
Eels - I'm Going To Stop Pretending That I Didn't Break Your Heart

CAPO 1

Cadd9: X32030
G: 320020

Intro: Em G F#m Cadd9 (3x)

(Em) I'm gonna (G)tell you what (F#m)you need to (Cadd9)hear


(Em) And I'm a little too (G)late, about (F#m)three or four (Cadd9)years
(Em) And it may not make much (G)sense now that (F#m)we are a(Cadd9)part
But (Em)I'm going to (G)stop pre(A)tending that (C)I didn't (D)break your
(Em)heart

You see I never thought enough of myself to realise


That losing me could mean something like the tears in your eyes
And I wanna tell you I'm sorry, and it's too late to start
But I'm going to stop pretending that I didn't break your heart

And it's Christmas Eve, years down the line


Sitting here wishing I'd treated you better when you were mine
And I have no way of knowing where you are
But I'm going to stop pretending that I didn't break your heart

I didn't mean to hurt you, I didn't know what I was doing


But I know what I've done

90
Herman Brood - My Way

intro: D D/C# Am B7

D D/C#
And now the end is near
D7 B7
And so I face the final curtain
Em Em7
My friend, I'll say it clear
A7 D
I'll state my case of wich I'm certain
D7
I've lived a life that's full
G Gm
I travelled each and every highway
D A7
And more, much more than this
Em D
I did it my way

D D/C#
Regrets, I've had a few
D7 B7
But then again too few to mention
Em Em7
I did what I had to do
A7 D
And say it through without exception
D7
I planned each charted course
G Gm
Each careful step along the byway
D A7
And more, much more than this
Em D
I did it my way

D7
Yes, there were times, I'm sure you knew
G
When I bit off more than I could chew
Em7 A7
But through all, when there was doubt
F#m Bm
I ate it up and spit it out
Em7 A7
I faced it all and I stood tall
Em D
And did it my way

91
D D7
I've loved, I've laughed and cried
Am B7
I've had my fill, my share of losing
Em Em7
And now, as tears subside
A7 D
I find it all so amusing
D7
To think I did all that
G Gm
And may I say not 'in a shy way'
D A7
Oh no, oh no not me
Em D
I did it my way

D7
For what is a man, what has he got
G
If not himself, than he has not
Em7 A7
To say the words he truly feels
F#m Bm
And not the words of one who kneels
Em7 A7
The record shows I took the blow
Em D
And did it my way

(instrumentaal stuk trompetten)

D A7
Oh no, oh no not me
Em D
I did it my way

92
Jason Mraz - I'm yours

powerchords
B 79987x 799xxx
F# 244322 244xxx of x-9-11-11-11-9
G#m 466444 466xxx of x-11-13-13-13-11
E x79997 x799xx of 12-14-14-13-12-12
C#/F x8666x x8666x of 13-16-15-13-14-13
F#/Bb 699xxx 699xxx

NB: Jason Mraz speelt het nummer met een soort powerchords: hij
slaat alleen de laagste paar snaren aan.

Intro:
B F# G#m E
e |-7/9\7-----7/9------------------------|
B |-7/9\7-----7/9--7----7/9--4---4-4/5---|
G |----------------6----6/8--4---4-4-4---|
D |--------------------------------------|
A |--------------------------------------|
E |--------------------------------------|

B
Well uh you dawned on me and you bet I felt it,
F#
I tried to be chill but you're so hot that I melted,
G#m E
I fell right through the cracks, now I'm trying to get back

B
Before the cool done run out, I'll be giving it my bestest
F#
Nothing's going to stop me but divine intervention
G#m E
I reckon it‘s again my turn, to win some or learn some

B F# G#m
But I won‘t hesitate no more, no more
E
It can not wait, I'm yours

B - F# - G#m - E
hmmm hmmmm hmmmm hhmmmm

Well open up your mind and see like me


Open up your plans and damn you're free
Look into your heart and you'll find love love love love

93
B F#
Listen to the music of the moment people dance and sing
G#m
We‘re just one big family
E C#/F
And it‘s our Godforsaken right to be loved loved loved loved loved

B F# G#m
So I won‘t hesitate no more, no more
E
It can not wait, I'm sure
B F# G#m
There's no need to complicate, our time is short
E
This is our fate, I'm yours

B F#/Bb G#m
Do do do do do do do do
F# E Fdim
Do do do do do do do do

I've been spending way too long checking my tongue in the mirror
And bending over backwards just to try to see it clearer
But my breath fogged up the glass
And so I drew a new face and laughed

I guess what I'll be saying is there ain't no better reason


To rid yourself of vanities and just go with the seasons
It's what we aim to do our name is our virtue

But I won't hesitate no more, no more


It can not wait, I'm yours

Well open up your mind and see like me


Open up your plans and damn you're free
Look into your heart and you'll find that the sky is yours
So please don't, please don't, please don't
There's no need to complicate ‗cause our time is short
This is, this is, this is our fate, I'm yours

94
Jewel - Who Will Save Your Soul

Am C G D

People living their lives for you on TV.


They say they're better than you and you agree.
He says, "Hold my calls for me I must go."
The Boss says, "Come here boy. There ain't nothin' for free."
Another doctor's bill, a lawyer's bill,
Another cute cheap thrill
You know you love him if you put him in your will but...

Who will save your souls when it comes to the flowers now
Who will save your souls after all the lies that you told, boy
Who will save your souls if you won't save your own?

We try to hustle them, try to bustle them, try to cuss them


The cops want someone to bust down on Orleans Avenue
Another day, another dollar, another war, another tower
Went up to where the homeless had their homes
So we pray to as many different gods as there are flowers
But we call religion our friend
We're so worried about saving our souls
Afraid that God will take his toll
That we forget to begin

Who will save your souls when it comes to the berries now
Who will save your souls after all the lies that you told, boy
Who will save your souls if you won't save your own?
La da de da...

Some are walking, some are talking, some are stalking their kill
Got social security, but that it doesn't pay your bills
There are addictions to feed and there are mouths to pay
So you bargain with the Devil, say you're o.k. for today,
You say that you love them, take their money and run
Say, it's been swell, sweetheart, but it was just one of those things
Those flings, those strings you've got to cut,
So get out on the streets, girls, and bust your butts.

Who will save your souls when it comes to it baby


Who will save your souls after all the lies that you told, boy
Who will save your souls if you won't save your own?
La da de da...

95
Foo Fighters - Stranger Things Have Happened

Intro/Verse
|-----------------------------------------------------------------------|
|-----------------------------------------------------------------------|
|-----------------------------------------------------------------------|
|------0---0-2--------------------0-0-2--0-0-0-2------0-----------------|
|--2-2---2-----0------0---0-2---------------------0h2-------------------|
|-----------------2-2---2-----1-0---------------------------------------|

Verse 1 (Play verse pattern)


God damn this dusty room,this hazy afternoon

I'm breathing in this silence like never before


This feeling that I get, this one last cigarette
As I lay awake and wait for you to come through the door.
Oh maybe maybe maybe I can share it with you
I behave I behave I behave so I can share it with you.

Chorus
Bm f#m
You are not alone dear loneliness
G E
You forgot that I remembered this
D f#m E
Oh stranger stranger stranger things have happened I know
bm f#m
I am not alone dear loneliness
G E
I forgot that I remembered this
D f#m E
Oh stranger stranger stranger things have happened I know

Bridge (instrumental same pattern as in the verses)

Verse 2 (Play verse pattern)


We'll dream about somewhere our smoke will fill the air
As I lay awake and wait for you to walk out that door
I can change I can change I can change but who you want me to be
I'm the same I'm the same I'm the same what do you want me to be

Chorus (till fade)

96
Kaki King - Doing The Wrong Thing

Tuning: E-G-D-F#-B-F#

INTRO:
e|--3--5--0~---x--3--5--0--1--0------x---------------x--|
B|-------------x-----------------3~--x--0--2--3--0~--x--|
G|-------------x---------------------x---------------x--|
D|--4--5--0~---x--4--5--0--2--0------x---------------x--|
A|-------------x-----------------4~--x--0--2--4--0~--x--|
E|-------------x---------------------x---------------x--|
[repeat this last section]
e|--3--5--0--1--0------------------------x-------------------0---------------|
B|-----------------3--2--3--0--2--0------x--3~--2~-----0--3-----2~/7--0~-----|
G|-----------------------------------1~--x----------1------------------------|
D|--4--5--0--2--0------------------------x-------------------0---------------|
A|-----------------4--2--4--0--2--0------x--4~--2~-----0--4-----2~/7--0~-----|
E|-----------------------------------0~--x----------0------------------------|

VERSE/CHORUS: [repeat 2x]


e|--5-----5----0-----0----1----0----------------------------------------------|
B|------0---0------0---0----0----0--3-----3----2-----2---/7-----7----0-----0--|
G|----0----------0----------------------0---0------0---0-/----0---0------0---0|
D|--5----------0----------2----0------0----------0-------/--0----------0------|
A|----------------------------------4----------2---------/7----------0--------|
E|----------------------------------------------------------------------------|
[repeat 2x]
e|--3-----3----1-----1----5-----5----0-----0--------------------------0--------|
B|------0---0------0---0------0---0------0---0--3-----3----5-----5----------0--|
G|----0----------0----------0----------0------------0---0------0---0------0---0|
D|--4----------2----------5----------0------------0----------0----------0------|
A|----------------------------------------------4----------5----------0--------|
E|-----------------------------------------------------------------------------|
[repeat only this section 2x]
e|----------------------------------------------------------------------------|
B|--3-----3----2-----2-----------0--3-----3----2-----2---/7-----7----0-----0--|
G|------0---0------0---0--1-------------0---0------0---0-/----0---0------0---0|
D|----0----------0------------0-------0----------0-------/--0----------0------|
A|--4----------2------------0----0--4----------2---------/7----------0--------|
E|------------------------0---------------------------------------------------|

e|--3-----3----1-----1----5-----5----0-----0--------------------------0--------|
B|------0---0------0---0------0---0------0---0--3-----3----5-----5----------0--|
G|----0----------0----------0----------0------------0---0------0---0------0---0|
D|--4----------2----------5----------0------------0----------0----------0------|
A|----------------------------------------------4----------5----------0--------|
E|-----------------------------------------------------------------------------|

e|--3-----3----1-----1----5-----5----0-----0--------------------------0--------|
B|------0---0------0---0------0---0------0---0--3-----3----7-----7----------0--|
G|----0----------0----------0----------0------------0---0------0---0------0---0|
D|--4----------2----------5----------0------------0----------0----------0------|
A|----------------------------------------------4----------7----------0--------|
E|-----------------------------------------------------------------------------|

e|----------------------------------------------------------------------------|
B|--3-----3----2-----2-----------0--3-----3----2-----2---/7-----7----0-----0--|
G|------0---0------0---0--1-------------0---0------0---0-/----0---0------0---0|
D|----0----------0------------0-------0----------0-------/--0----------0------|
A|--4----------2------------0----0--4----------2---------/7----------0--------|
E|------------------------0---------------------------------------------------|

e|--1-----1----5-----5----7-----7----8-----8--12-----12----8-----8-----|
B|------0---0------0---0------0---0------0---------0----0------0---0---|
G|----0----------0----------0----------0---------0-----------0---------|
D|--2----------5----------7----------9--------12-----------9-----------|
A|---------------------------------------------------------------------|
E|---------------------------------------------------------------------|

97
e|--5-----5----5-----5----5-----5----0-----0----1----0----------------|
B|------0---0------0---0------0---0------0---0----0----0--3-----3-----|
G|----0----------0----------0----------0----------------------0---0---|
D|--5----------5----------5----------0----------2----0------0---------|
A|--------------------------------------------------------4-----------|
E|--------------------------------------------------------------------|

e|--------------------------------------------------------------------|
B|--2-----2---/7-----7----0-----0----0-----0--------------------------|
G|------0---0-/----0---0------0---0------0---0------------------------|
D|----0-------/--0----------0----------0------------------------------|
A|--2---------/7----------0----------0--------------------------------|
E|--------------------------------------------------------------------|

e|--1-----1----5-----5----7-----7----8-----8--12-----12----8-----8-----|
B|------0---0------0---0------0---0------0---------0----0------0---0---|
G|----0----------0----------0----------0---------0-----------0---------|
D|--2----------5----------7----------9--------12-----------9-----------|
A|---------------------------------------------------------------------|
E|---------------------------------------------------------------------|

RIFF: [hamonics in ( )]
e|-(12)--------(7)------(5)------(7)------(12)--------(7)------(5)------(7)--|
B|----(12)-------(7)------(5)------(7)-------(12)-------(7)------(5)----(7)--|
G|-------(12)------(7)------(5)------(7)--------(12)------(7)------(5)--(7)--|
D|-------(12)------(7)------(5)------(7)--------(12)------(7)------(5)--(7)--|
A|----(12)-------(7)------(5)------(7)-------(12)-------(7)------(5)----(7)--|
E|-(12)--------(7)------(5)------(7)------(12)--------(7)------(5)------(7)--|

e|--3--5--0~---x--3--5--0--1--0------x--|
B|-------------x-----------------3~--x--|
G|-------------x---------------------x--|
D|--4--5--0~---x--4--5--0--2--0------x--|
A|-------------x-----------------4~--x--|
E|-------------x---------------------x--|
[repeat this last section]
e|--3--5--7--5--3--1--0---------------------x-------------------0------------|
B|-----------------------3--2--5--3--2--0~--x--3~--2~-----0--3-----2~/7--0~--|
G|------------------------------------------x----------1---------------------|
D|--4--5--7--5--4--2--0---------------------x-------------------0------------|
A|-----------------------4--2--5--4--2--0~--x--4~--2~-----0--4-----2~/7--0~--|
E|------------------------------------------x----------0---------------------|

98
OUTRO:
e|--5-----5----0-----0----1----0----------------------------------------------|
B|------0---0------0---0----0----0--3-----3----2-----2---/7-----7----0-----0--|
G|----0----------0----------------------0---0------0---0-/----0---0------0---0|
D|--5----------0----------2----0------0----------0-------/--0----------0------|
A|----------------------------------4----------2---------/7----------0--------|
E|----------------------------------------------------------------------------|

e|--3-----3----1-----1----5-----5----0-----0--------------------------0--------|
B|------0---0------0---0------0---0------0---0--3-----3----7-----7----------0--|
G|----0----------0----------0----------0------------0---0------0---0------0---0|
D|--4----------2----------5----------0------------0----------0----------0------|
A|----------------------------------------------4----------7----------0--------|
E|-----------------------------------------------------------------------------|

e|----------------------------------------------------------------------------|
B|--3-----3----2-----2-----------0--3-----3----2-----2---/7-----7----0-----0--|
G|------0---0------0---0--1-------------0---0------0---0-/----0---0------0---0|
D|----0----------0------------0-------0----------0-------/--0----------0------|
A|--4----------2------------0----0--4----------2---------/7----------0--------|
E|------------------------0---------------------------------------------------|

e|--1-----1----5-----5----7-----7----8-----8--12-----12----8-----8-----|
B|------0---0------0---0------0---0------0---------0----0------0---0---|
G|----0----------0----------0----------0---------0-----------0---------|
D|--2----------5----------7----------9--------12-----------9-----------|
A|---------------------------------------------------------------------|
E|---------------------------------------------------------------------|

e|--5-----5----5-----5----5-----5----0-----0----1----0----------------|
B|------0---0------0---0------0---0------0---0----0----0--3-----3-----|
G|----0----------0----------0----------0----------------------0---0---|
D|--5----------5----------5----------0----------2----0------0---------|
A|--------------------------------------------------------4-----------|
E|--------------------------------------------------------------------|

e|--------------------------------------------------------------------|
B|--2-----2---/7-----7----0-----0----0-----0--------------------------|
G|------0---0-/----0---0------0---0------0---0------------------------|
D|----0-------/--0----------0----------0------------------------------|
A|--2---------/7----------0----------0--------------------------------|
E|--------------------------------------------------------------------|
[repeat this section around 12x]
e|----------------------------------------------0----------0------------|
B|--3-----3----2-----2----3-----3----2-----2----------0----------0------|
G|------0---0------0---0------0---0------0---0------0---0------0---0----|
D|----0----------0----------0----------0----------0----------0----------|
A|--4----------3----------2----------1----------0----------0------------|
E|----------------------------------------------------------------------|

e|--------------------------------|
B|--3-----2-----3-----2-----0~----|
G|-----0-----0-----0-----0--0~----|
D|--------------------------------|
A|--4-----3-----2-----1-----0~----|
E|--------------------------------|

99
Nouvelle Vague - A Forest

Intro:
Gm A#5 A# D#maj7 Cadd9
e|-------3---3------------3--3---3--3--3---------|
B|-------3---3--4--4---3--3--3---3--3--3---------|
G|-------3---3--3--3---3--3--3---3--0--0---------| (2x)
D|--------------3--3---3--1----1----2--2---------|
A|--------------1----1--------------3-----3-4-5--|
E|----3----3-------------------------------------|

Main:
Gm A#5 A# D#maj7 Cadd9
e|-------3---3------------3--3---3--3--3---------|
B|-------3---3--4--4---3--3--3---3--3--3---------|
G|-------3---3--3--3---3--3--3---3--0--0---------| (2x)
D|--------------3--3---3--1----1----2--2---------|
A|--------------1----1--------------3-----3-4-5--|
E|----3----3-------------------------------------|

A A#maj7 D#maj7 A#maj7


e|--------0----0-----1----1----------------1---1--|
B|--------3----3-----3----3-----8----8-----3---3--|
G|--------3----3-----2----2-----7----7-----2---2--|
D|------------------------------8----8------------|
A|-----0-----0----1-----1----6-----6----1----1----|
E|------------------------------------------------|

A A#maj7 E/D#maj7(?)D#maj7
e|--------0----0-----1----1-----------------------|
B|--------3----3-----3----3-----8----8-----8---8--|
G|--------3----3-----2----2-----7----7-----7---7--|
D|------------------------------8----8-----8---8--|
A|-----0-----0----1-----1----7-----7----6----6----|
E|------------------------------------------------|

Come closer and see


see into the trees
find the girl
while you can
Come closer and see
see into the dark
just follow your eyes
just follow your eyes

I hear her voice


calling my name
the sound is deep
in the dark
I hear her voice
and start to run
into the trees
into the trees

into the trees

Suddenly I stop
but i know it's too late
I'm lost in a forest
all alone
The girl was never there
it's always the same
I'm running towards nothing
again and again and again

100
Adele - Make You Feel My Love
CAPO 1

A(barre) 577655
Dbm/Ab 4x6454
G 355433
D/F# 2x0232
Dm/F 1x0231
Dm/B x2x231
A/Db x42220
E7 020100
B7 x24242
A x02220
E* 022232
Dmaj7 x57675
F 133211
B7(barre) 797877
E7 x79797

INTRO:
A(barre) Dbm/Ab G D/F#
Dm/F (Dm/B) A/Db (A)
B7 E* A

VERSE/CHORUS:
A(barre) Dbm/Ab
When the rain Is blowing in your face
G D/F#
And the whole world Is on your case
Dm/F Dm/B A/Db A
I could offer you A warm embrace
B7 E* A
To make you feel my love

VERSE:
A(barre) Dbm/Ab
When the evening shadows And the stars appear
G D/F#
And there is no one there To dry your tears
Dm/F Dm/B A/Db A
I could hold you For a million years
B7 E* A
To make you feel my love

BRIDGE:
Dmaj7 A(barre)
I know you Haven't made Your mind up yet
F D/F# A
But I would never Do you wrong
Dmaj7 A(barre)
I've known it From the moment That we met
B7(barre) E7
No doubt in my mind Where you belong

101
VERSE:
A(barre) Dbm/Ab
I'd go hungry I'd go black and blue
G D/F#
I'd go crawling Down the avenue
Dm/F Dm/B A/Db A
No, there's nothing That I wouldn't do
B7 E* A
To make you feel my love

INSTRUMENTAL (same as verse):

BRIDGE:
Dmaj7 A(barre)
The storms are raging On the rolling sea
F D/F# A
And on the highway of regret
Dmaj7 A
Though winds of change Are blowing wild and free
B7 E7
You ain't seen nothing Like me yet

VERSE:
A(barre) Dbm/Ab
I could make you happy Make your dreams come true
G D/F#
Nothing that I wouldn't do
Dm/F Dm/B A/Db A
Go to the ends Of the Earth for you
B7 E* A
To make you feel my love
B7 E* A (let Ring)
To make you feel my love

102
Amy MacDonald - A Wish For Something More

Intro(2x)

Gm Dm C Gm
e |----3--3---5--------3--3--3--3-----------------|
B |----3--3---6--5-----3--3--3--3-----------------|
G |----3--3---7--5-----3--3--3--3-----------------|
D |----5--5---7--5-----5--5--5--5-----------------|
A |----5--5---5--------5--5--5--5-----------------|
E |----3--3------------3--3--3--3-----------------|

Gm Dm C Gm
Oh, the sun is shining far too bright
Dm C Gm Dm C Gm
For it to still be night
Gm Dm C Gm Dm C
Oh the air feels so cold so cold and old
Gm Dm C Gm
How can it be light

Oh let's take a walk outside


See the world through each other's eyes
I wish I was your only one
I think you're beautiful but your hair is a mess
And your shoes are untied, but that's what I love best

Cm F
And I, I wish I was the one,
Dm
You lonely, lonely son
Gm
And you looked at me that way
Cm
I wish for long lingering glances
F Dm Gm
Fairytale romances every single day
Cm
And you look at me and say
F
I'm your best friend every day
Dm Gm
But I wish for something, wish for something more
Cm F
Oh, I love you like a friend but let's not pretend
Dm Gm
How I wish for something, wish for something more

Oh the grass is so green


But I can't see anything, past your eyes
I'm fixated on your smile
Your cherry lips make life worthwhile
I'm thinking these things
What I'm trying to say is
Life gets in my way
Every single day

103
And I, I wish I was the one
You lonely, lonely son
And you looked at me that way
I wish for long lingering glances
Fairytale romances every single day
And you look at me and say
I'm your best friend every day
But I wish for something, wish for something more
Oh, I love you like a friend but let's not pretend
How I wish for something, wish for something more

Gm Dm Gm Dm
Now the sun is fading and the rain is coming down
Gm Dm Gm Dm
And I'm looking at your face but your looking at the ground
Gm Dm Gm Dm
I see diamonds in your dreams I see pearls around your neck
Gm Dm Gm Dm
I see everything that's beautiful, everything that's beautiful

I wish I was the one


You lonely, lonely son
And you looked at me that way
I wish for long lingering glances
Fairytale romances every single day
And you look at me and say
I'm your best friend every day
But I wish for something, wish for something more
Oh, I love you like a friend but let's not pretend
How I wish for something, wish for something more

104
Amy Macdonald - Let's start a band

CAPO 4

G6 xx5430

Intro: Am – F – C – E (2x)

Am F
Put a ribbon round my neck and call me a libertine
C E
I will sing you songs of dreams I used to dream
Am F
I will sail away on seas of silver and gold
C E
Until I reach my home
Am F
Give me a guitar and I'll be your troubadour
C E
Your strolling minstrel 12th century door to door
Am F C
I don't know anymore, if that feeling is past will it last
E
Oh, how can you be sure?

F G Am
And how do I know if you're feeling the same as me?
F G Am E
And how do I know if that's the only place you want to be?

Give me a stage and I'll be your rock and roll queen


Your 20th century cover of a magazine
Rolling Stone here I come, watch out everyone, I'm singing
I'm singing my song

Give me a festival and I'll be your Glastonbury star


The lights are shining everyone knows who you are
Singing songs about dreams about hopes about schemes
E E7
Ooooh, they just came true

F G Am
And how do I know if you're feeling the same as me?
F G Am
And how do I know if that's the only place you want to be?
F G Am
And how do I know if you're feeling the same as me?
F G Am E
And how do I know if that's the only place you want to be?

F – G – Am – C (3x)

105
Fmaj7 G6
And if you want it too, then there's nothing left to do:
Am
Let's start a band, let's start a band
C
Let's start a band, let's start a band
Fmaj7 G6
And if you want it too, then there's nothing left to do:
Am
Let's start a band, let's start a band
C
Let's start a band, let's start a band
Fmaj7 G6
And if you want it too, then there's nothing left to do:
Am
Let's start a band, let's start a band
C
Let's start a band, let's start a band

Fmaj7 G6 Am
And if you want it too, then there's nothing left to do

106
Anouk - In The Sand
CAPO 4

Em G
So many times I've cried
Csus2
When dark clouds block the sunlight
Em
And it's raining in my heart
G Csus2
I'll keep my head up high

So little time to try


To find out, whats the feeling
That's deep inside of you
And keeps the dream alive

Asus2
So remember
C
When you're down and out
Em
When you're stuck in the middle
G
And you can't solve the riddle
Csus2
Lay it down in the sand
Em
When you can't help but shiver
G
Get you finger off the trigger
Cus2
Lay it down in the sand
D
Get it out your head
Am
Out of your hands
C Em G
Lay it down... in the sand
Csus2
In the sand

So many minds are torn


By overloading senses
You're breathing in and out
No second left to sigh

Can you tell me why


Nobody will tell me
What they're feeling deep inside
We're all just telling lies

Every time you wonder


Why the feeling lingers
And it's stuck inside your soul
You're crying when you smile

So remember
When you're down and out
And when everything is missing
And there's nobody listening
Lay it down in the sand
When you can't help but shiver

107
Get your finger off the trigger
In the sand

Get it out your head


Out of your hands
Lay it down...
In the sand
In the sand
Just lay it down
Just lay it down in the sand

So remember
When you're down and out
And when everything is missing
And there's nobody listening
Lay it down in the sand
When you can't help but shiver
Get your finger off the trigger
Lay it down in the sand

Get it out your head


Out of your hands
Lay it down... yeah
In the sand....
In the sand....
Just lay it down in the sand....
Lay it down in the sand....

(Eindigen op Em)

108
Anouk - Sacrifice

{Intro}
{Clean Guitar}
E B D A
1 2 3 4 1 2 3 4 1 2 3 4 1 2 3 4
Eb[------0---------|------0---------|0---------------|0-----0---------]
Bb[------0---------|------0---------|0---------------|0---------------]
Gb[---1--1---------|---8--8---------|11--------------|6--6------------]
Db[----2-2---------|----9-9---------|12------12------|7---7-----------]
Ab[--2---2---------|--9---9---------|12------12------|7-7-------------]
Eb[0-----0---------|7-----7---------|10---10---------|5---------------]

Eb[0---------------|0---------------|0---------------|0---------------]
Bb[0---------------|0---------------|0---------------|0---------------]
Gb[13--------------|8---------------|11--------------|6---------------]
Db[14--------------|9---------------|12--------------|7---------------]
Ab[14--------------|9---------------|12--------------|7----------0----]
Eb[0---------------|7---------------|10--------------|5---------0--0--]
Who is you happy And who you laugh
the one is the one
that makes that always
makes

Eb[------0---------|0-----------0---|----------------|------------0---]
Bb[------0---------|0-----------0---|----------------|------------0---]
Gb[--13--13--------|8-----------8---|----------------|6-----------6-/-]
Db[---14-14--------|9-----------9---|12--------------|7-----------7-/-]
Ab[------14--------|9-----------99/-|12--------------|7----------77-/-]
Eb[------0---------|7-----------77/-|10--------------|5----------55---]
Who is the smiling And dragged rough
reason you're you through
these time so

Eb[----------------|------------0---|----------------|0---------------]
Bb[----------------|------------0---|----------------|0---------------]
Gb[----------------|8-----------8---|----------------|6-----------6-/-]
Db[2---------------|9-----------9---|12--------------|7-----------7-/-]
Ab[2---------------|9----------9-9/-|12--------------|7----------77-/-]
Eb[0---------------|7----------7-7/-|10--------------|5----------55---]
I was the happy And I was pain
that made you the one that
eased the

Eb[------0---------|------------0---|----------------|0-----0-----0---]
Bb[----------------|------------0---|----------------|0-----0-----0---]
Gb[---1------------|8-----------8---|----------------|6-66666-66666-/-]
Db[2---2-----------|9-----------9---|12--------------|7-77777-77777-/-]
Ab[2---------------|9----------9-9/-|12--------------|7-77777-77777-/-]
Eb[0---------------|7----------7-7/-|10--------------|5-66666-66666---]
But I'm the crying now My own the rain
reason that tears
you're scattered by

Eb[----------------|---0--0-----0---|--0---0-----0---|---0--0--0--0---]
Bb[----------------|---0--0---------|--0---0-----0---|----------------]
Gb[----------------|8-888-8----8-8--|--11--11----11--|--7-7--7--7-----]
Db[2---------------|9-999-9---9---9-|1212--12----12--|-7---7--7--7----]
Ab[2---------------|9-999-9--9------|1212--12----12--|----------------]
Eb[0---0-----------|7-777-7---------|1010--10----10--|5---------------]
You can me You can me
sacrifice sacrifice

109
Eb[------0-----0---|---0-0---0--0---|----00----------|------0---------]
Bb[------0-----0---|---0-0---0--0---|----00----------|------------0---]
Gb[--13--13----13--|8-88888--8-88---|---1111---------|---6--------6-/-]
Db[14-14-14----14--|9-99999--9-99---|12-121212-------|----7-------7-/-]
Ab[14--1414----14--|9-99999--9-99---|12-121212-------|--7---------7-/-]
Eb[0-----0-----0---|7-77777--7-77---|10-101010-------|5----------55---]
You me free You who you wanna be
can set can be

Note : From now on I'll only display the chord that is played in the
riff. Other things like breaks and fingerpicking I still will
show. As far as the chords you should play along with the song
a couple of times to get the feel

Eb[0---x-----------|0---x-----------|0---x-----------|0---x-----------]
Bb[0---x-----------|0---x-----------|0---x-----------|0---x-----------]
Gb[1---x-----------|8---x-----------|11--x-----------|6---x-----------]
Db[2---x-----------|9---x-----------|12--x-----------|7---x-----------]
Ab[2---x-----------|9---x-----------|12--x-----------|7---x-----------]
Eb[0---x-----------|7---x-----------|10--x-----------|5---x-----------]

Eb[0---x-----------|0---x-----------|0---x-----------|0---x-----------]
Bb[0---x-----------|0---x-----------|0---x-----------|0---x-----------]
Gb[1---x-----------|8---x-----------|11--x-----------|6---x-----------]
Db[2---x-----------|9---x-----------|12--x-----------|7---x-----------]
Ab[2---x-----------|9---x-----------|12--x-----------|7---x-----------]
Eb[0---x-----------|7---x-----------|10--x-----------|5---x-----------]
Deeper than trip baby You shared more
deep you your wildest
took me on a dreams and

Eb[0---x-----------|0---x------0----|0---x-----------|0---------------]
Bb[0---x-----------|0---x-----------|0---x-----------|0---------------]
Gb[13--x-----------|8---x-----8-8---|11--x-----------|6---------------]
Db[14--x-----------|9---x----9---9--|12--x-----------|7---------------]
Ab[14--x-----------|9---x---9-------|12--x-----------|7---------------]
Eb[0---x-----------|7---x-----------|10--x-----------|5---------------]
You dare me to you I never before
to express felt that
my feelings need

Eb[0---------------|0---------------|0---------------|0---------------]
Bb[0---------------|0---------------|0---------------|0---------------]
Gb[13--------------|8---------------|11--------------|6---------------]
Db[14--------------|9----------91011|12--------------|7---------------]
Ab[14--------------|9----------91011|12--------------|7---------------]
Eb[0---------------|7----------78-9-|10--------------|5---------------]
But suddenly freedom You felt the free
you needed need to break

Eb[0---------------|0---------------|0---------------|0---------------]
Bb[0---------------|0---------------|0---------------|0---------------]
Gb[1---------------|8---------------|11--------------|6---------------]
Db[2---------------|9---------------|12--------------|7---------------]
Ab[2---------------|9---------------|12--------------|7---------------]
Eb[0---------------|7---------------|10--------------|5---------------]
You started sorrow You didn't the key yeah so
drowning in wanna know
your I had

110
Eb[0---------------|0---------------|0---------------|0---------------]
Bb[0---------------|0---------------|0---------------|0---------------]
Gb[1---------------|8---------------|11--------------|6---------------]
Db[2---------------|9---------------|12--------------|7---------------]
Ab[2---------------|9---------------|12--------------|7-------0-------]
Eb[0---------------|7---------------|10--------------|5--------79/1012]
You can me You can me
sacrifice sacrifice

Eb[0---------------|0---------------|0---------------|0---------------]
Bb[0---------------|0---------------|0---------------|0---------------]
Gb[13--------------|8---------------|11--------------|6---------------]
Db[14--------------|9----------91011|12--------------|7---------------]
Ab[14--------------|9----------91011|12--------------|7---------------]
Eb[0---------------|7----------78-9-|10--------------|5---------------]
You can set me free yeah You can be You can be
who you wanna who you wanna

Eb[0---------------|0----------0----|0---------------|0---------------]
Bb[0---------------|0---------------|0---------------|0---------------]
Gb[1---------------|8---------8-8---|11--------------|6---------------]
Db[2---------------|9--------9---9--|12--------------|7---------------]
Ab[2---------------|9-------9-------|12--------------|7--------0------]
Eb[0---------------|7---------------|10--------------|5---------9/1012]
be you you you you can sacrifice
you you

Eb[0---------------|0----------0----|0---------------|0---------------]
Bb[0---------------|0---------------|0---------------|0---------------]
Gb[13--------------|8---------8-8---|11--------------|6---------------]
Db[14--------------|9--------9---9--|12--------------|7---------------]
Ab[14--------------|9-------9-------|12--------------|7---------------]
Eb[0---------------|7---------------|10--------------|5---------------]
me sacrifice me You can be You can be
who you wanna who you wanna

Eb[-------------------------------------------------------------------]
Bb[--------------------5-7/9-----9------------------------------------]
Gb[------------------4---------9--------------------------------------]
Db[------------2-4/6---------9----------------------------------------]
Ab[----------2--------------------------------------------------------]
Eb[--------0----------------------------------------------------------]
be

111
Belle and Sebastian - Piazza New York Catcher

CAPO 6

C F C
elope with me miss private and we'll sail around the world
Dm Am
i will be your ferdinand and you my wayward girl
Dm G
how many nights of talking in hotel rooms can you take?
Dm G
how many night of limping round on pagan holidays?
Dm Am
oh elope with in private and we'll set something ablaze
Dm G Am
a trail for the devil to erase

san fransisco's is calling us the giants and mets will play


piazza new york catcher are you straight or are you gay
we hung about the stadium we've got no place to stay
we hung about the tenderloin and tenderly you tell about
the saddest book you ever read it always makes you cry
the statue's crying to in willie mays

i love you i've a drowning grip and your adoring face


i love you my responsibility has found a place
beside your windstrung mornings in the guise of gentle words
come wave upon me from the family why don't it absurd
you'll take care of her I know, you will do a better job
maybe but not what she deserves

elope with miss private and we'll drink ourselves away


we'll taste the coffee houses and award certificates
a pretty seal to keep the feel of 1960's style
we'll comment on the decor and we'll help a passer by
and at dusk when work is over we'll continue the debate
in a borrowedd bedroom virginal expect

the catcher hits for 318 and catches everday


the pitcher puts religion first and rests on holidays
he goes into cathedrals and lies prostrate on the floor
he knows the drink affects his speed he praying for a doorway
back into a life he wants the confession of the bench
life outside a diamond is a wrench

i wish that you were here with me to pass the dull weekend
i know it wouldn't come to love my herione pretends
a lady stepping from the song we love until this day
we settle for an epitaph like walk away rene
the sun above the roof in winter will draw you out like a flower
meet you at the statue in an hour

112
Aretha Franklin - Think

Intro:
| | | |
|Bb Eb|Bb Eb|Bb Eb|Bb Eb|

Bb
Think (think) think (think) think (think) think (think)
Bb
You think (think) think (think) think about it

Bb Eb Bb
You better think (think) think about what you're trying to do to me
Bb Bb Eb
Yeah, think (think, think), let your mind go, let yourself be free
Bb Eb Bb
Let's go back, let's go back, let's go way on back when
Bb Eb Bb
I didn't even know you, you couldn't have been too much more than ten

I ain't no psychiatrist, I ain't no doctor with a degree


It don't take too much high IQ's to see what you're doing to me
You better think (think) think about what you're trying to do to me
Yeah, think (think, think), let your mind go, let yourself be free

Bb Db Eb Bb
Oh freedom (freedom), freedom (freedom), freedom, yeah freedom
Bb Db Eb Bb
Freedom (freedom), freedom (freedom), freedom, oh freedom

B
Hey, think about it
B
You, think about it

B E B
There ain't nothing you could ask I could answer you but I won't (I won't)
B E B
I was gonna change, but I'm not, to keep doing things I don't
B E B
Hey think about what you're trying to do to me
B E B
Baby, think, let your mind go, let yourself be free

People walking around everyday, playing games that they can score
Trying to make other people lose their minds, be careful you don't lose yours
Yeah think (think) think about what you're trying to do to me
Yeah, yeah, yeah, yeah (think, think), let your mind go, let yourself be free

E
You need me (need me) and I need you (don't you know)
E
Without eachother there ain't nothing people can do
B
Yeah yeah, think about me (what you're trying to do to me)
B
'Till the fall of the night, think about it right now

113
B D E B
Oh freedom (freedom), freedom (freedom), freedom, yeah freedom
B D E B
Freedom (freedom), freedom (freedom), freedom, freedom

C
Hey, you, think about it

C F C
There ain't nothing you could ask I could answer you but I won't (I won't)
C F C
I was gonna change, but I'm not, if you keep doing things I don't
C F C
Yeah think (think) about what you're trying to do to me
C F C
Baby, think (think, think), let your mind go, let yourself be free

F
You need me (need me) and I need you (don't you know)
F
Without eachother there ain't nothing people can do
C
Yeah yeah, think about me (what you're trying to do to me)
C
'Till the fall of the night, think about it baby

C
(Think about - ah me, think about - ah me, think about - ah me, think about it)
C
(Think about - ah me, think about - ah me, think about - ah me, think about it)
C
(Think about - ah me, think about - ah me, think about - ah me, think about it)
C
(Think about - ah me, think about - ah me, think about - ah me, think about it)

Volgende stuk wordt in losse noten gespeeld:

| | | | | | | | | |
e:-------------------------------3--
b:-------------------------------5--
g:--------------3-----3---3---5--5--
d:--------3--5-----5----5---5----5--
a:--3--6-------------------------3--
E:----------------------------------

C Eb F G Bb G Bb G Bb G C
You had better stop and think before you think
C
Think!

114
Stranglers - No More Heroes

intro: 'a frenzied rush down the G string'... or that's how JJ described it
in an interview :)

Gm C Gm F (x4)

Gm C F Gm
Whatever happened to...
Gm C F Gm
Leon Trotsky...
Gm C F Gm
He got an ice pick...
Gm C F Gm
And made his ears burn...
Gm C F Gm
Whatever happened to...
Gm C F Gm
Dear old Lenny...
Gm C F Gm
The great Elmyra...
Gm C F Gm
and Sancho Panza?...
Bb C Gm
Whatever happened to the heroes?
Bb C Gm
Whatever happened to the heroes?

Gm C F Gm
Whatver happened to...
Gm C F Gm
all of the heroes...
Gm C F Gm
all the Shakespearoes...
Gm C F Gm
they watched their Rome burn...

Bb C Gm
Whatever happened to the heroes?
Bb C Gm
Whatever happened to the heroes?

Gm C Gm F
No more heroes any more
Gm C Gm F
No more heroes any more

chords over guitar solo:


Gm Am Bb C (x2)
Gm Am Bb Am (x2)
Gm Am Bb F (x2)
Gm C Gm F (x2)

chords over keyboard solo:


Bb C (x10)
Gm C Gm F (x2)

115
Gm C F Gm
Whatver happened to...
Gm C F Gm
all of the heroes...
Gm C F Gm
all the Shakespearoes...
Gm C F Gm
they watched their Rome burn...

Bb C Gm
Whatever happened to the heroes?
Bb C Gm
Whatever happened to the heroes?

Gm C Gm F
No more heroes any more
Gm C Gm F
No more heroes any more

Gm

116
Dido - Life for rent

CAPO 1

Bm G
I haven‘t really ever found a place that I call home
Bm G
I never stick around quite long enough to make it
Bm G
I apologise that once again I‘m not in love
Bm G
But it‘s not as if I mind that your heart ain't exactly breaking
Em A
It‘s just a thought, only a thought

D A G
But if my life is for rent
D A G A
and I don‘t learn to buy
D A G A
Well I deserve nothing more than I get
D A G
'Cos nothing I have is truly mine

I‘ve always thought that I would love to live by the sea


To travel the world alone and live my life more simply
I have no idea what‘s happened to that dream
'Cos there‘s really nothing left here to stop me
It‘s just a thought, only a thought

D A G
But if my life is for rent
D A G A
and I don‘t learn to buy
D A G A
Well I deserve nothing more than I get
D A G
'Cos nothing I have is truly mine

D A G
But if my life is for rent
D A G A
and I don‘t learn to buy
D A G A
Well I deserve nothing more than I get
D A G
'Cos nothing I have is truly mine

D A G A
While my heart is a shield and I won‘t let it down
D A G A
While I am so afraid to fail so I won‘t even try
Em A
Well how can I say I‘m alive?

117
D A G
But if my life is for rent
D A G A
and I don‘t learn to buy
D A G A
Well I deserve nothing more than I get
D A G
'Cos nothing I have is truly mine

D A G
But if my life is for rent
D A G A
and I don‘t learn to buy
D A G A
Well I deserve nothing more than I get
D A G
'Cos nothing I have is truly mine

118
Dido - White Flag

Intro: F Am

Verse 1:

Dm
I know you think that I shouldn't still love you
Am
I'll tell you that
Dm
But if I didn't say it
Dm
Well, I'd still have felt it
Am
Where's the sense in that?

Pre-Chorus:
C
I promise I'm not trying to make your life harder
Gm Am
Or return to where we were

Chorus:
Bb F
Well I will go down with this ship
Gm Dm
And I won't put my hands up and surrender
Bb F
There will be no white flag above my door
C Gm
I'm in love and always will be

Verse 2:
Dm
I know I left too much mess
Am
And destruction to come back again
Dm
And I caused nothing but trouble
Am
I understand if you can't talk to me again

Pre-Chorus:
C
And if you live by the rules of "It's over"
Gm Am
Then I'm sure that that makes sense

(Chorus)

119
Bridge:
F
And when we meet

As I'm sure we will


Am
All that was then

Will be there still

Gm
I'll let it pass

And hold my tongue


C
And you will think
C
That I've moved on

Chorus x 2

Chorus (one strum only or piano):

Bb F
I will go down with this ship
Gm Dm
And I won't put my hands up and surrender
Bb F
There will be no white flag above my door
C Gm
I'm in love and always will be

120
Lenny Kravitz - It ain't over till it's over

Dbmaj7 -X-4-6-5-6-4
Db11 -X-4-4-4-4-4

Intro:
|:Db |Dbmaj7 |Db11 |Gb Gbm :| (2x)

Verse:
Db Dbmaj7 Db11
Here we are, still together
Gb Gbm
we are one
Db Dbmaj7
So much time wasted
Db11 Gb Gbm
playing games with love

Chorus:
Db
So many tears I've cried
Dbmaj7
So much pain inside
Db11 Gb Gbm
But baby it ain't over till its over
Db
So many years we've tried
Dbmaj7
to keep our love alive
Db11 Gb Gbm
But baby it ain't over till it's over

Verse:
How many times did we give up
But we always worked things out
and all my doubts and fears
Kept me wondering yeah
If I'd always, always be in love

Chorus:
So many tears I‘ve cried
So much pain inside
But baby it ain‘t over till it‘s over
So many years we‘ve tried
and kept our love alive
‗Cause baby it ain‘t over till it‘s over

Solo:
|:A |B :| (3x)
|C |D E|

Chorus:
So many tears I‘ve cried
So much pain inside
Baby it ain‘t over till it‘s over
So many years we‘ve tried
and kept our love alive
‗cause baby it ain‘t over till it‘s over

121
So many tears I‘ve cried
So much pain inside
But baby it ain‘t over till it‘s over
So many years we‘ve tried
to keep our love alive
‗cause baby it ain‘t over till it‘s over

So many tears we‘ve cried


So much pain inside
But baby it ain‘t over till it‘s over
So many years we‘ve tried
to keep our love alive
‗cause baby it ain‘t over till it‘s over

So many tears we‘ve cried


So much pain inside
But baby it ain‘t over till it‘s over
Over…

122
Lenny Kravitz - Let love rule

E G
Love is gentle as a rose
E G G-G#-A
and love can concure any war
A-A#-C
it's time to take a stand

brothers and sisters join hands

We've got to let love


G A C G
Let love rule
G
we've got to let love rule
G A C G
Let love rule

Love transcends all space and time


love can make a little child smile
oh baby can't you see
This won't go wrong
but we, we've got to be strong
we can't do it alone

We've got to let love


Let love rule
we've got to let love rule
Let love rule

Solo: E | % | G | % |
E | % | G | % |
E | % | G | G G# |
A | A A# | C | C| |
G | A | C | G |

Let love rule


You got to got to got to
Let love rule
You got to got to got to
Let love rule
Waaa
Let love rule
You got to got to got to

Use to yeah
You got to yeah
Waouh
You got to
Got to got to got to yeah
Yeah yeah yeah yeah yeah yeah
Let love rule

Outro: G | A | C | G | 4x

123
Lenny Kravitz - Fly Away

A (B) C G D (x4)

A (B) C
I wish that I could fly
G D
Into the sky so very high
A C G D
Just like a dragonfly

I'd fly above the trees


Over the seas in all degrees
To anywhere I please

A (B)C G
Oh I want to get away
D A
I want to fly away
C G D
Yeah yeah yeah
A C G
Oh I want to get away
D A
I want to fly away
C G D
Yeah yeah yeah

Let's go and see the stars


The milky way or even Mars
Where it could just be ours

Let's fade into the sun


Let your spirit fly
Where we are one
Just for a little fun

A (B)C G
Oh I want to get away
D A
I want to fly away
C G D
Yeah yeah yeah
A (B)C G
Oh I want to get away
D A
I want to fly away
C G D
Yeah yeah yeah

124
Eric Clapton - Hey Hey

INTRO:
Em7 Em6 E5 Em7 Em6 E5
e|---------|-----------0------9-----9--------0--------------------------9-----9-------0-------------|-
B|---------|------8----0------8-----8-----8--0---0----------------8-----8-----8----8--0---0---------|-
G|---------|------7bu------------------------------------------7------------------------------------|-
D|---------|----------------------------------------------------------------------------------------|-
A|--2/7----|------------------------------------------2/7-------------------------------------------|-
E|---------|--0---0----0----x----x-----x--------------------0-----0----0---x----x-----x--------12\--|-

A7 Em7 Em6 E5
e|---------3------2--0-------3--|----3----(0)-2--0-------|-------------0------9------9--------0----------|-
B|-----2---2------2--0-------2--|----2----(0)-2--0-------|---------8---0------8------8-----8-----0-------|-
G|-----2------------------------|------------------------|---------7-------------------------------------|-
D|------------------------------|------------------------|------------------------------------------2/4--|-
A|--0------0------0------0------|-------0-----------2/7--|-----7-----------------------------------------|-
E|------------------------------|------------------------|--0------0-------x------x-----x----------------|-

B7/F# A7 E7 E
e|--------5--7-5---------|-------3-2-0-2-0---------|-----4-----0-----2p0----|-0--------0---0----0----0--|-
B|-----4-----------------|----0--------------------|--0-----0-----0------2--|-0--------0---0----0----0--|-
G|--4--------------4\-0--|-2----------------0h1p0--|------------------------|----0h1---1---1----0h1--1--|-
D|--4--------------4\-0--|-2-----------------------|------------------------|----2-----2---2----2----2--|-
A|-----------------------|-------------------------|------------------------|-------------------2-------|-
E|-----------------------|-------------------------|------------------------|-------------------0-------|-

VERSE:
E7 A7
e|-------------------------------|----------3-3--------3----------3----0-----0---|-
B|---3------3----3----3----3-----|----------2-2--------2--------2---------3--0---|-
G|---1------1----1----1----1-----|--2---------2----------------------------------|-
D|---2------2----2----2----2-----|--2--------------------------------------------|-
A|-------------------------------|--0----0----------0--------0-------------------|-
E|-0------0----0----0----0-------|-----------------------------------------------|-
Hey hey...hey hey baby hey Hey hey.... hey hey baby hey

E7 B7/F#
e|------------------------|-------------0-----------|----------5--------------|-
B|---3---3---3--3------3--|--3---0--3---0-----------|-------4-------4---------|-
G|---1---1---1--1------1--|--1---1--1---1-----------|------------------4--0---|-
D|---2---2---2--2------2--|--2---2--2---------------|-4-----4----------4--0---|-
A|------------------------|-------------------------|-------------------------|-
E|-0----------------0-----|--0------0------0----0---|-------------------------|-
I love you baby

A7 E E
e|-----------3---0----------2/4----0-----2p0----|-0-------0--0--0-----------|-
B|----2--------------0h0--0-----0-----0------2--|---------0--0--0-----------|-
G|-------2-----------0h1------------------------|----0h1--1--1--1-----------|-
D|-2-----------------0h2------------------------|---------2--2--2-----------|-
A|-0-----------------0h2------------------------|---------2--2--2----2/7----|-
E|----------------------------------------------|---------0-----------------|-
sure ain't....

125
E7
Hey hey. Hey hey, baby, hey.

A7
Hey hey. Hey hey, baby, hey.

B7/F# A7
I love you baby, Sure ain't gonna be your dog.

-INTRO-

Hey hey. Hey hey, baby, hey.


Hey hey. Hey hey, baby, hey.
My arms around you baby,
All I can say is hey.

-INTRO-

E7
Hey hey. Hey hey, baby, hey.

A7
Hey hey. Hey hey, baby, hey.

B7/F# A7
I love you baby, Sure ain't gonna be your dog.

-INTRO-

Hey hey. You lost your good thing now.


Hey hey. You lost your good thing now.
You had me fooled,
I found it out somehow.

126
Eric Clapton - Old Love

G7sus4 = 3-5-3-5-3-3
Dm7/A = 5-x-7-5-6-5
Dm7 = x-5-7-5-6-5
E9+ = 0-7-6-7-8-x

[INTRO]

Am Dm7/A G7sus4 G
e|--------------||-----5---5----------5-------|-3-----3--3------3----------------|-
B|--------------||-----5---6----------6-------|-3-----3--3------3----------------|-
G|--------------||-----5---5----------5--5--0-|-5-----5--5------4----------------|-
D|--------------||-----7---7----------7--7--0-|-3-----3--3------5----------------|-
A|-----0h3p0----||-0--------------------------|-5---------------5-------0h3p0----|-
E|-0-3-------2--||---------5------------------|-3-----------3-------0-3-------3--|-

[VERSE 1]

Am Dm7/A | G7sus4 G
I can feel your body
Am Dm7/A | G7sus4 G
When I‘m lying in bed
Am Dm7/A | G7sus4 G
There‘s too much confusion
Am Dm7/A | G7sus4 G
Going around through my head

F | E7 E
And it makes me so angry
Am Am/maj7 |Am7 Am6 |
To know that the flame still burns
F | E7
Lord, why can‘t I get over?
F | E9+
and when will I ever learn?

[REFREIN]

Am Dm7/A | G7sus4 G | Am Dm7/A | G7sus4 G |


Old love, leave me alone
Am Dm7/A | G7sus4 G | Am Dm7/A | G7sus4 G |
Old love, just go on home

[VERSE 2]

Am Dm7/A | G7sus4 G
I can see your face
Am Dm7/A | G7sus4 G
But I know that it‘s not real
Am Dm7/A | G7sus4 G
It‘s just an illusion
Am Dm7/A | G7sus4 G
Caused by how I used to feel
F | E7 E
And it makes me so angry
Am Am/maj7 |Am7 Am6 |
To know that the flame will always burn
F | E7
I‘ll never get over
F | E9+
I know now that I‘ll never learn

127
[REFREIN]

Am Dm7/A | G7sus4 G | Am Dm7/A | G7sus4 G |


Old love, leave me alone
Am Dm7/A | G7sus4 G | Am Dm7/A | G7sus4 G |
Old love, just go on home go on home

[GITAAR SOLO:]

| Am Dm7/A | G7sus4 G |

Am Dm7/A | G7sus4 G | Am Dm7/A | G7sus4 G |


Old love, just go on home ("Chuckie....)

[PIANO SOLO:] (m/INTRO)

| Am Dm7/A | G7sus4 G | (9x)

| Am Dm7/A | G7sus4 G | (7x)


(...Old love...)

[OUTRO]

(vrij soleren)

128
JJ Cale & Eric Clapton - Danger

Gsus2 320033

Intro:
E Gsus2 D E Gsus2 D E Gsus2 D E
|---------|
|---------|
|---------|
|-----0---|
|-2-2---2-|
|---------|

Verse 1:
E Gsus2 D E Gsus2 D
Danger is out into the night
E Gsus2 D E
Danger she's such a pretty sight
E A E A
She was treated so badly it seems, now she's looking for a dream
E Gsus2 D E
Danger is out into the night

Verse 2:
E Gsus2 D E Gsus2 D
Danger she walks the streets alone
E Gsus2 D E
Danger all the bars she has to know
E A E A
All the men that look her way could be hers, hers today
E Gsus2 D E
Danger is out into the night

Chorus:
G A G A
Locked into a love affair didn't seem to go nowhere
G A
With no choice she thought she might
G A
Caution to the wind, right into the night

Verse 3:
E Gsus2 D E Gsus2 D E
Danger she walks the streets alone All the bars she and I know
Gsus2 D E Gsus2 D E
All the men that look her way could be hers today

[Solo 1]

Chorus:
G A
Will she take to find someone new
G A
She goes nowhere I've been
G A
She wants to do too many guys
G A
Shes gone out to the night

129
Verse 4:
E Gsus2 D E Gsus2 D
Danger she's out into the night
E Gsus2 D E
Danger she's such a pretty sight

[Solo 2]

Verse 5:
E Gsus2 D E Gsus2 D
Danger she's out into the night
E Gsus2 D E Gsus2 D
Danger she's such a pretty sight
E Gsus2 D E Gsus2 D
Danger she's out with you tonight
E Gsus2 D E
Danger she's such a pretty sight

E Gsus2 D E Gsus2 D E Gsus2 D E Gsus2 D E Gsus2 D E Gsus2 D E

130
Eric Clapton - Alberta

riff:
C
|-------------------0-|
|-------------------1-|
|-------------------0-|
|-------------------2-|
|-------------------3-|
|----0-0--1-1--2------|

rif C G C
Alberta, Alberta, where you been so long?
C7 F C G C
Alberta, Alberta, where you been so long?
G C F Fm C
Ain't had no loving since you've been gone

rif C G C
Alberta, Alberta,, where'd you stay last night?
C7 F C G C
Alberta, Alberta, where'd you stay last night?
G C F Fm C
Come home this morning, clothes don't fit you right

rif C G C
Alberta, Alberta, girl you're on my mind
C7 F C G C
Alberta, Alberta, girl you're on my mind
G C F Fm C
Ain't had no loving, such a great long time

rif C G C
Alberta, Alberta, where you been so long?
C7 F C G C
Alberta, Alberta, where you been so long?
G C F Fm C
Ain't had no loving since you've been gone

131
Eric Clapton - Lay Down Sally

Intro:
A A7 | A A7 | A A7 | A A7
A A7 | A A7 | A A7 | A A7

A
There is nothing that is wrong
A7 D
In wanting you to stay here with me
A
I know you've got somewhere to go
A7 D
But won't you make yourself at home and stay with me
E E7
And don't you ever leave

A D
Lay down, Sally, and rest you in my arms
E A E7 A
Don't you think you want someone to talk to
A D
Lay down, Sally, no need to leave so soon
E A E7 A
I've been trying all night long just to talk to you

A A7 | A A7 | A A7 | A A7

The sun ain't nearly on the rise


And we still got the moon and stars above
Underneath the velvet sky
Love is all that matters, won't you stay with me
And don't you ever leave

Lay down, Sally, and rest you in my arms


Don't you think you want someone to talk to
Lay down, Sally, no need to leave so soon
I've been trying all night long just to talk to you

A A7 | A A7 | A A7 | A A7
A A7 | A A7 | A A7 | A A7
A A7 | A A7 | A A7 | A A7
A A7 | A A7 | A A7 | A A7

I long to see the morning light


Coloring your face so dreamily
So don't you go and say goodbye
You can lay your worries down and stay with me
And don't you ever leave

Lay down, Sally, and rest you in my arms


Don't you think you want someone to talk to
Lay down, Sally, no need to leave so soon
I've been trying all night long just to talk to you

Lay down, Sally, and rest you in my arms


Don't you think you want someone to talk to
Lay down, Sally, there‘s need to leave so soon
I've been trying all night long just to talk to you

A A7 | A A7 | A A7 | A A7
A A7 | A A7 | A A7 | A A7

132
Yardbirds - For Your Love

Intro:
Em G A Am
Em G A Am For your love
Em G A Am For your love
Em G A Am For your love

Em G A Am
I'll give you everything and more, that's for sure
Em G A Am
I'll bring you diamond rings and things right to your door
Em G A Am
To thrill you every night, i'll give you diamonds bright
Em G A Am
There'll be things that will exite, to make you dream of me at night

Em G A Am
For your love
Em G A Am
For your love
Em G A Am
For your love

Up Tempo:
B A E
For your love, for your love, i will give the stars above
B A A7 Am7
For your love, for your love, i will give you all i could

Speel Intro opnieuw


--------------------

Em G A Am
I'd give the moon if it were mine to give
Em G A Am
I'd give the stars and the sun for i live
Em G A Am
To thrill you every night, i'll give you diamonds bright
Em G A Am
There'll be things that will exite, to make tou dream of me at night

Em G A Am
For your love
Em G A Am
For your love
Em G A Am
For your love
Em G A Am Em
For your love

133
The Stranglers - Golden Brown

3 3 3 4 -------------> (Number of beats per chord for


Bm F#m G D some parts of the song!)
Bm F#m G D
Bm F#m G D
Bm F#m A G

3 3 3 3
Em D Em D

Em D Em D
Golden Brown, texture like sun
Lays me down, with my mind she runs
Throughout the night, no need to fight
Never a frown with Golden Brown

Em D Em D

Em D Em D
Every time, just like the last
On her ship tied to the mast
To distant lands, takes both my hands
Never a frown with Golden Brown

Bm F#m G D
Bm F#m G D
Bm F#m G D
Bm F#m A G
Em D Em D

Em D Em D
Golden Brown, finer temptress
Through the ages she's heading west
From far away, stays for a day
Never a frown with Golden Brown

Bm F#m G D
Bm F#m G D
Bm F#m G D
Bm F#m A G
Em D Em D
Em D Em D (Fancy guitar bit)
Em D Em D |
Em D Em D |
Em D Em D |
Bm F#m G A |
Bm F#m G A |
Bm F#m G A |
Bm F#m G A |
Bm F#m G A |
Bm F#m G A |
fade... =

134
Santana ft. Everlast - Put Your Lights On

CHORUS:
Am C
Hey now, all you sinners
G Fmaj7 E
Put your lights on, put your lights on
Am C
Hey now, all you lovers
G Fmaj7 E
Put your lights on, put your lights on

Hey now, all you killers


Put your lights on, put your lights on
Hey now, all you children
Leave your lights on, you better leave your lights on

In the verses there are just two chords, Am and E.


He always plays the Am like this:

E|--0---0--0-0--0--|
B|--1---1--1-0--1--| Ok, the timing is way off, there's no good
G|--2---2--2-2--2--| way to tab rhythm, but the important thing
D|--2---2--2-2--2--| is that he throws in a little Asus2. Listen
A|--0---0--0-0--0--| to hear what I mean.
E|-----------------|

VERSE 1:
Am E
Because there's a monster, living under my bed
Am E
Whispering in my ear
Am E
There's an angel, with a hand on my head
Am E
She say I've got nothing to fear

There's a darkness, buried deep in my soul


I still got a purpose to serve
So let your light shine, deep into my home
God don't let me lose my nerve

[GUITAR SOLO]

C5 C#5 G5 F5 E5 [play four times] then play F5 E5 once.

BRIDGE:
-------
Am C G Fmaj7 E (2x) play it like the INTRO, with all the sus2's & stuff

Hey now, hey now, hey now, hey now


Wo oh hey now, hey now, hey now, hey now

135
CHORUS: [play like previous choruses]
Hey now, all you sinners
Put your lights on, put your lights on
Hey now, all you children
Leave your lights on, you better leave your lights on

VERSE 3: [play like verses 1 & 2]


Because there's a monster, living under my bed
Whispering in my ear
There's an angel, with a hand on my head
She say I've got nothing to fear

OUTRO: [Ok, now play the chords like you did in the INTRO and BRIDGE]
------
Am C G Fmaj7 E
She say, whooo-ahha, hey la la, you all shine like stars
Am C G Fmaj7 E
Whooo-aohaha, hey la la, you all shine like stars
Am
And you feel your way

136
Maroon 5 - This Love

G\B = G, B Bass = -7-10-9-7-8-7-


Cm7 = C Mineur Zeven = -8-10-8-8-8-8-
Fm7 = F Mineur Zeven = -X-8-10-8-9-8-
\Ab = As Bass = -4-X-X-X-X-X-
\Bb = Bes Bass = -6-X-X-X-X-X-
Bb = Bes = -6-8-8-7-6-6-
F7 = F Zeven = -X-8-10-8-10-8-
Eb = Es = -X-6-8-8-8-6-
Ebmaj7 = Es Majeur Zeven = -X-6-8-7-8-6-
B = B = -7-9-9-8-7-7-
Cm = C Mineur = -8-10-10-8-8-8-
G = G = -3-5-5-4-3-3-
G7 = G Zeven = --3-5-3-4-6-3-

Riff.1
e|-----------------------------------------|
B|-----------------------------------------|
G|-----------------------------------------|
D|-----------------------------------------|
A|---------5-------10-9-8----8-6-5---------|
E|-7----7----8------------------------4--6-|

Intro: G\B | Cm | Fm7 | G\B \Ab \Bb |


G\B(riff.1) | Cm | Fm7 | G\B |

G\B(riff.1) Cm7
I was so high I did not recognize
Fm7
The fire burning in her eyes
G\B
The chaos that controlled my mind
G\B(riff.1) Cm7
Whispered goodbye and she got on a plane
Fm
Never to return again
G\B
But always in my heart

Cm7 Fm7 Bb Eb
This love has taken its toll on me
Cm7 Fm7 Bb Eb
She said goodbye too many times before
Cm7 Fm7 Bb Eb
And her heart is breaking in front of me
Cm7 F7 Ab Eb G\B
I have no choice, cause I won't say goodbye anymore

G\B(riff.1) | Cm | Fm7 | G |

I tried my best to feed her appetite


Keep her comming every night
So hard to keep her satisfied
Kept playing love like it was just a game
Pretending to feel the same
Then turn around and leave again

This love has taken its toll on me


She said goodbye too many times before
And her heart is breaking in front of me
I have no choice, cause I won't say goodbye anymore

137
G\B(riff.1) | Cm | Fm7 | G |

Fm7
I'll fix these broken things
Ebmaj7
Repair your broken wings
B Cm
And make sure everything‘s alright
Fm7
My pressure on your hips
Ebmaj7
Sinking my fingertips
G
Into every inch of you
G7
Cause I know that's what you want me to do

This love has taken its toll on me


She said goodbye too many times before
Her heart is breaking in front of me
And I have no choice, cause I won't say goodbye anymore

This love has taken its toll on me


She said goodbye too many times before
My heart is breaking in front of me
And she said goodbye too many times before

This love has taken its toll on me


She said goodbye too many times before
Her heart is breaking in front of me
But I have no choice, cause I won't say goodbye anymore

This love has taken its toll on me


She said goodbye too many times before
Her heart is breaking in front of me
But I have no choice, cause I won't say goodbye anymore

Outro: Cm7 Fm7 | Bb Eb | 7x

138
Spice Girls - Stop

C Bb Am
You just walked in, I make you smile
G
It's cool but you don't even know me
C Bb Am
You take a inch, I run a mile
G
Can't win you're always right behind me
C Bb
And we know that you could to go find some other
Am G
Take or leave it or just don't even bother
C Bb Am
Caught in a craze, it's just a
G
Or will this be around forever

PRE-CHORUS:
Dm F Em
Don't you know is going too fast
Dm F Em
Racing so hard so you know it won't last
Dm Em
Don't you know, what can't you see
F7M
Slow it down, read the sign
G
So you know just where we are going

CHORUS:
C Bb
Stop right now thank you very much
Am G
I need somebody with the human touch
C Bb
Hey you, always on a run
Am G
Gotta slow it down baby, gotta have some fun
C Bb Am
Do do do do, do do do do, do do do do
G
Always be together
C Bb Am
Ba da ba da, ba da ba ba, ba da ba ba
G
Stay that way forever
C Bb
And we know that you could go and find some other
Am G
Take or leave it or 'cos we've always got each other
C Bb
You know who you are and yes, you gonna breakdown
Am G
You've crossed the line so you're gonna have to turnaround

139
BRIDGE:
C B/C
Gotta keep it and down honey, lay your back on the line
F/C
'Cos I don't care about the money,
Bb/C
don't be wasting my time
C Bb/C
You need less speed, get of my case
F/C G
You gotta slow down baby, just get out of my face

3x REFREIN

140
Spice Girls - Spice Up You Life

Intro: x2
Fm C
La la la la la la la la la
Fm C
La la la la la la la

Verse 1:
Fm C
When you're feeling sad and low
Fm C
We will take you where you gotta go
Fm C
Smiling, dancing, everything is free
Fm C
All you need is positivity

Refrain:
Fm
Colors of the world
Spice up your life!
C
Every boy and every girl
Spice up your life!
Fm
People of the world
spice up your life!
C
Ahhh

Chorus:
Fm
Slam it to the left if
you're having a good time
C
Shake it to the right if
ya know that you feel fine
Fm
Chicas to the front ha ha
C
Uh uh Go round
Fm
Slam it to the left if
you're having a good time
C
Shake it to the right if
ya know that you feel fine
Fm
shake it to the front ha ha
C
Hi Ci Ya Hold tight

(Repeat Intro)

141
Verse 2:
Fm C
Yellow man in timbuktu
Fm C
Color for both me and you
Fm C
Kung fu fighting dancing queen
Fm
Tribal spacemen and
C
all that's in between

(Repeat Refrain and Chorus)

Bridge:
Fm
Flamenco lambada
C
but hip hop is harder
Fm
We Moon-Walk the Foxtrot
C
then Polka the Salsa
Fm
Shake it shake it
shake it haka!
C
Shake it shake it
shake it haka!
Fm C
Arriba! Aha!

142
Damien Rice - Nine Crimes

Intro: Am – F – G – C 2x

Am F
Leave me out with the waste
C G
This is not what I do
Am F
It's the wrong kind of place
C G
To be thinking of you
Am F
It's the wrong time
C G
For somebody new
Am F
It's a small crime
C G
And I've got no excuse

Am F
Is that alright?
C G Am
Give my gun away when it's loaded
F
Is that alright?
C G Am
If you don't shoot it how am I supposed to hold it
F
Is that alright?
C G Am
Give my gun away when it's loaded
F
Is that alright
C G
Is that alright with you?

Leave me out with the waste


This is not what I do
It's the wrong kind of place
To be cheating on you
It's the wrong time
but she's pulling me through
It's a small crime
And I've got no excuse

Is that alright?
Give my gun away when it's loaded
Is that alright?
If you don't shoot it how am I supposed to hold it
Is that alright?
Give my gun away when it's loaded
Is that alright
Is that alright with you?

Is that alright?
Is that alright?
Is that alright with you?
Is that alright?
Is that alright?
Is that alright with you?
No...

143
Neil Young - Ohio

Intro:

Dm | F C | Dm | F C (4x)

Dm F C
Tin soldiers and Nixon's coming
Dm F C
We're finally on our own
Dm F C
This summer I hear the drumming
Dm F C
Four dead in Ohio

Gm7 C
Gotta get down to it soldiers are gunning us down
Gm7 C
Should've been done long ago
Gm7 C
What if you knew her and found her dead on the ground
Gm7 C
How can you run when you know

Dm | Dm | Dm | Dm
Dm | F C | Dm | F C (2x)

Dm F C
La la la la, la la, la la
Dm F C
La la la la, la la, la
Dm F C
La la la la, la la, la la
Dm F C
La la la la, la la, la

Gm7 C
Gotta get down to it soldiers are gunning us down
Gm7 C
Should've been done long ago
Gm7 C
What if you knew her and found her dead on the ground
Gm7 C
How can you run when you know

Dm | Dm | Dm | Dm
Dm | F C | Dm | F C (2x)

Dm F C
Tin soldiers and Nixon's coming
Dm F C
We're finally on our own
Dm F C
This summer I hear the drumming
Dm F C
Four dead in Ohio

(Repeat last line till fade out)

144
Blues Brothers - Everybody needs somebody to love

Intro: C F | Bb F | C F | Bb F | 2x

C F Bb F C F
We're so glad to see so many of you lovely people here tonight, and we
Bb F C F Bb
would especially like to welcome all the representatives of Illinois' Law
F C F Bb F
Enforcement Community who have chosen to join us here in the Palace Hotel
C F Bb F C F
Ballroom at this time. We do sincerely hope you'll all enjoy the show, and
Bb F C F Bb F
please remember people, that no matter who you are, and what you do to
C F Bb F C F Bb
live, thrive and survive, there are still some things that make us all the
F C F Bb F C F Bb F
same. You, me....them, everybody, everybody.

C F Bb F C F Bb F
Everybody needs somebody
C F Bb F C F Bb F C F | Bb F C F | Bb F
Everybody needs somebody to love........someone to love
C F | Bb F
Sweetheart to miss,
C F | Bb F
Sugar to kiss,
C F Bb
I need you you you
F C F Bb
I need you you you
F C F Bb F
I need you you you In the morning
C F Bb F C F | Bb F
I need you you you When my soul's on fire

Am
Sometimes I feel
F
I feel a little sad inside
Am
When my baby mistreats me
G
I never never never have a place to hide
C
I need you

C F | C F | C F | C F |
C F | C F | C F | C F |

Am
Sometimes I feel
F
I feel a little sad inside
Am
When my baby mistreats me
G
I never never never have a place to hide

145
C F Bb
I need you you you
F C F Bb
I need you you you
F C F Bb
I need you you you
F C F Bb
I need you you you
C
I need you

C
You know people when you do find that somebody

Hold that woman, hold that man


(riff.1)
Love him, hold him, squeeze her, please her, hold her

Squeeze and please that person, give 'em all your love

Signify your feelings with every gentle caress

Because it's so important to have that special somebody

to hold, kiss, miss, squeeze and please

C F Bb F C F Bb F
Everybody needs somebody
C F Bb F C F Bb F C F | Bb F C F | Bb F
Everybody needs somebody to love........someone to love
C F | Bb F
Sweetheart to miss,
C F | Bb F
Sugar to kiss,
C F Bb
I need you you you
F C F Bb
I need you you you
F C F Bb
I need you you you
F C F Bb
I need you you you
F C F Bb
I need you you you
F C F Bb
I need you you you
F C F Bb
I need you you you
F C F Bb
I need you you you
F C F | Bb
In the morning
F C F | Bb
When my soul's on fire
C F Bb F C F Bb F
Everybody needs somebody
C F Bb F C F Bb F
Everybody needs somebody
C F Bb F C F Bb F
Everybody needs somebody
C| C---
I Need you

146
Eagle Eye Cherry - Save Tonight

Intro:
(Riff)
| Am | F | C | G | 4x

Couplet:

Am F C G
Go on and close the curtains
Am F C G
Cause all we need is candlelight
Am F C G
You and me and the bottle of wine
Am F C G
And hold you tonight

Well, we know I'm going away


And how I wish, I wish it weren't so
so take this wine and drink with me
Let's delay our misery

Refrein:
Am F
Save tonight
C G
Fight the break of dawn
Am F
Come tomorrow
C G
Tomorrow I'll be gone

Save tonight
Fight the break of dawn
Come tomorrow
Tomorrow I'll be gone

Couplet:
There's a log on the fire
And it burns like me for you
Tomorrow comes with one desire..
To take me away

It ain't easy to say goodbye


Darling please don't start to cry
Cause girl you know I've got to go
And Lord I wish it wasn't so

Refrein:
Save tonight
Fight the break of dawn
Come tomorrow
Tomorrow I'll be gone

Save tonight
Fight the break of dawn
Come tomorrow
Tomorrow I'll be gone

[Solo]

147
COUPLET:
Tomorrow comes to take me away
I wish that I, that I could stay
but girl you know I've got to go, oh
and Lord I wish it wasn't so

Refrein:
Save tonight
Fight the break of dawn
Come tomorrow
Tomorrow I'll be gone

Save tonight
Fight the break of dawn
Come tomorrow
Tomorrow I'll be gone

Save tonight
Fight the break of dawn
Come tomorrow
Tomorrow I'll be gone

Save tonight
Fight the break of dawn
Come tomorrow
Tomorrow I'll be gone

| Am | F | C | G | 12x ---

148
Mika - Relax, take it easy

Intro: F#m |Bm |E |C#m | (x2)

F#m D
Took a right to the end of the line
Bm E
Where no one ever goes.
F#m D Bm E
Ended up on a broken train with nobody I know.
Bm E
But the pain and the longings the same.
F#m
Where the dying
Bm E
Now I‘m lost and I‘m screaming for help.

F#m Bm E
Relax, take it easy
C#m
For there is nothing that we can do.
F#m Bm E
Relax, take it easy
C#m
Blame it on me or blame it on you.

(Intro)

F#m
It‘s as if I‘m scared.
Bm
It‘s as if I‘m terrified.
E
It‘s as if I scared.
C#m
It‘s as if I‘m playing with fire.

F#m
Scared.
D
It‘s as if I‘m terrified.
Bm
Are you scared?
E
Are we playing with fire?

Relax
There is an answer to the darkest times.
It‘s clear we don‘t understand but the last thing on my mind
Is to leave you.
I believe that we‘re in this together.
Don‘t scream – there are so many roads left.

Relax, take it easy


For there is nothing that we can do.
Relax, take it easy
Blame it on me or blame it on you.

149
Relax, take it easy
For there is nothing that we can do.
Relax, take it easy
Blame it on me or blame it on you.

(Intro)

Relax, take it easy


For there is nothing that we can do.
Relax, take it easy
Blame it on me or blame it on you.

Relax, take it easy


For there is nothing that we can do.
Relax, take it easy
Blame it on me or blame it on you.

It‘s as if I‘m scared.


It‘s as if I‘m terrified.
It‘s as if I scared.
It‘s as if I‘m playing with fire.
Scared.
It‘s as if I‘m terrified.
Are you scared?
Are we playing with fire?

Outro: F#m |Bm |E |C#m |


Relax (x2)

150
Mumford and Sons - Little Lion Man
CAPO 5
> > > > > > > >
E E. S E E E. S E E E. S E E E. S E
E||-----0---0-x-----0---0-x--|-----0---0-x-----0---0-x--|
C||-----0---0-x-----0---0-x--|-----0---0-x-----0---0-x--|
G||-----2---2-x-----2---2-x--|-----2---2-x-----2---2-x--|
C||-----0---0-x-----0---0-x--|-----0---0-x-----0---0-x--|
A||--0-----------0-----------|--0-----------0-----------|
E||--------------------------|--------------------------|

> >
E E. S E E E E E E E. S E E E E E
-----0---0-0--------------|-----0---0-0--------------|
-----0---0-0--------------|-----0---0-0--------------|
-----0---0-0--2--0--0--0--|-----0---0-0--2--0--0--0--|
--0--0-----0--0--0--2--0--|--0--0-----0--0--0--2--0--|
--3--3-----3--3--3--3--3--|--3--3-----3--3--3--3--3--|
--3-----------------------|--3-----------------------|

> > > > > > > >


E E. S E S S S E S E E E. S E E E. S E
--0--0---0-0---------0--0-0--|--0--0---0-0--0--0---0-0--|
--0--0---0-0---------0--0-0--|--0--0---0-0--0--0---0-0--|
--2--2---2-2--0h-2-2-2--2-2--|--2--2---2-2--2--2---2-2--|
--0--0---0-0--0----0-0--0-0--|--0--0---0-0--0--0---0-0--|
--0--0---0-0--0----0-0--0-0--|--0--0---0-0--0--0---0-0--|
--------------------------8--|--------------------------|

> >
E E. S E E E E E E E. S E E E E E
-----0---0-0--------------|-----0---0-0--------------|
-----0---0-0--------------|-----0---0-0--------------|
-----0---0-0--2--0--0--0--|-----0---0-0--2--0--0--0--|
--0--0-----0--0--0--2--0--|--0--0-----0--0--0--2--0--|
--3--3-----3--3--3--3--3--|--3--3-----3--3--3--3--3--|
--3-----------------------|--3-----------------------|

> > > > > > > >


E E. S E E E. S E E E. S E E E. S E
--0--0---0-0--0--0---0-0--|--0--0---0-0--0--0---0-0--|
--0--0---0-0--0--0---0-0--|--0--0---0-0--0--0---0-0--|
--2--2---2-2--2--2---2-2--|--2--2---2-2--2--2---2-2--|
--0--0---0-0--0--0---0-0--|--0--0---0-0--0--0---0-0--|
--0--0---0-0--0--0---0-0--|--0--0---0-0--0--0---0-0--|
--------------------------|--------------------------|

> >
E E. S E E E E E E E. S E E E E E
-----0---0-0--------------|-----0---0-0--------------|
-----0---0-0--------------|-----0---0-0--------------|
-----0---0-0--2--0--0--0--|-----0---0-0--2--0--0--0--|
--0--0-----0--0--0--2--0--|--0--0-----0--0--0--2--0--|
--3--3-----3--3--3--3--3--|--3--3-----3--3--3--3--3--|
--3-----------------------|--3-----------------------|

> > > > > > > >


E E. S E S S S E S E E E. S E E E. S E
--0--0---0-0---------0--0-0--|--0--0---0-0--0--0---0-0--|
--0--0---0-0---------0--0-0--|--0--0---0-0--0--0---0-0--|
--2--2---2-2--0h-2-2-2--2-2--|--2--2---2-2--2--2---2-2--|
--0--0---0-0--0----0-0--0-0--|--0--0---0-0--0--0---0-0--|
--0--0---0-0--0----0-0--0-0--|--0--0---0-0--0--0---0-0--|
--------------------------8--|--------------------------|

> >
E E. S E E E E E E E. S E E E E E
-----0---0-0--------------|-----0---0-0--------------|
-----0---0-0--------------|-----0---0-0--------------|
-----0---0-0--2--0--0--0--|-----0---0-0--2--0--0--0--|
--0--0-----0--0--0--2--0--|--0--0-----0--0--0--2--0--|
--3--3-----3--3--3--3--3--|--3--3-----3--3--3--3--3--|
--3-----------------------|--3-----------------------|

151
> > > > > > > >
E E. S E E E. S E E E. S E E E. S E
---------0-x---------0-x--|---------0-x---------0-x--|
--0--0---0-x--0--0---0-x--|--0--0---0-x--0--0---0-x--|
--2--2---2-x--2--2---2-x--|--2--2---2-x--2--2---2-x--|
--0--0---0-x--0--0---0-x--|--0--0---0-x--0--0---0-x--|
--0--0---0-x--0--0---0-x--|--0--0---0-x--0--0---0-x--|
--------------------------|--------------------------|

> > > > > > > >


E E. S E E E. S E E E. S E E E. S E
---------0-x---------0-x--|---------0-x---------0-x--|
--0--0---0-x--0--0---0-x--|--0--0---0-x--0--0---0-x--|
--0--0---0-x--0--0---0-x--|--0--0---0-x--0--0---0-x--|
--0--0---0-x--0--0---0-x--|--0--0---0-x--0--0---0-x--|
--3--3---3-x--3--3---3-x--|--3--3---3-x--3--3---3-x--|
--------------------------|--------------------------|

> > > > > > > >


E E. S E E E. S E E E. S E E E. S E
---------0-x---------0-x--|---------0-x---------0-x--|
--0--0---0-x--0--0---0-x--|--0--0---0-x--0--0---0-x--|
--2--2---2-x--2--2---2-x--|--2--2---2-x--2--2---2-x--|
--0--0---0-x--0--0---0-x--|--0--0---0-x--0--0---0-x--|
--0--0---0-x--0--0---0-x--|--0--0---0-x--0--0---0-x--|
--------------------------|--------------------------|

> > > > > > > >


E E. S E E E. S E E E. S E E E. S E
---------0-x---------0-x--|---------0-x---------0-0--|
--0--0---0-x--0--0---0-x--|--0--0---0-x--0--0---0-0--|
--0--0---0-x--0--0---0-x--|--0--0---0-x--0--0---0-0--|
--0--0---0-x--0--0---0-x--|--0--0---0-x--0--0---0-0--|
--3--3---3-x--3--3---3-x--|--3--3---3-x--3--3---3-3--|
--------------------------|--------------------------|

> > > > > > > >


E E. S E E E. S E E E. S E E S S E S S
-----0-----0-----0-----0--|-----0-----0-----0----------|
--0--0---0-0--0--0---0-0--|--0--0---0-0--0--0-0-0--0-0-|
--0--0---0-0--0--0---0-0--|--0--0---0-0--0--0-0-0--0-0-|
--0--0---0-0--0--0---0-0--|--0--0---0-0--0--0-0-2--2-2-|
--5------5-5--5------5-5--|--3------3-3--2--2-2-0--0-0-|
--3-----------3-----------|--1-----------0-------------|

> > > > > > > >


E E. S E E E. S E E E. S E E E. S E
-----0-----0-----0-----0--|-----0-----0-----0-----0--|
--0--0---0-0--0--0---0-0--|--0--0---0-0--0--0---0-0--|
--0--0---0-0--0--0---0-0--|--0--0---0-0--0--0---0-0--|
--0--0---0-0--0--0---0-0--|--0--0---0-0--0--0---0-0--|
--3--3---3-3--3--3---3-3--|--3--3---3-3--3--3---3-3--|
--------------------------|--------------------------|

> > > > > > > >


E E. S E E E. S E E E. S E E S S E S S
-----0-----0-----0-----0--|-----0-----0-----0----------|
--0--0---0-0--0--0---0-0--|--0--0---0-0--0--0-0-0--0-0-|
--0--0---0-0--0--0---0-0--|--0--0---0-0--0--0-0-0--0-0-|
--0--0---0-0--0--0---0-0--|--0--0---0-0--0--0-0-2--2-2-|
--5------5-5--5------5-5--|--3------3-3--2--2-2-0--0-0-|
--3-----------3-----------|--1-----------0-------------|

> > > > > > > > v v


E E. S E E E. S E E E. S E E E. S E H H
-----0-----0-----0-----0--|-----0-----0-----0-----0--|--0--------0--------|
--0--0---0-0--0--0---0-0--|--0--0---0-0--0--0---0-0--|--0--------0--------|
--0--0---0-0--0--0---0-0--|--0--0---0-0--0--0---0-0--|--2--------0--------|
--0--0---0-0--0--0---0-0--|--0--0---0-0--0--0---0-0--|--0--------0--------|
--3--3---3-3--3--3---3-3--|--3--3---3-3--3--3---3-3--|--0--------8--------|
--------------------------|--------------------------|-----------5--------|

152
W H H W
--0----------------|--0--------0--------|--0----------------|
--0----------------|--0--------0--------|--0----------------|
--0----------------|--2--------0--------|--0----------------|
--0----------------|--0--------0--------|--0----------------|
--7----------------|--0--------8--------|--7----------------|
--8----------------|-----------5--------|--8----------------|

v v v > > > >


H H W E E. S E E E. S E
--0--------0--------|--0----------------|-----0---0-0-----0---0-0--|
--0--------0--------|--0----------------|-----0---0-0-----0---0-0--|
--2--------0--------|--0----------------|-----0---0-0-----0---0-0--|
--0--------0--------|--0----------------|--0--0-----0--0--0-----0--|
--0--------8--------|--7----------------|--5--5-----5--5--5-----5--|
-----------5--------|--8----------------|--3-----------3-----------|

> > > > > > > > >


W E E. S E E E. S E E E. S E E E. S E
--0----------------|--0--0---0-0--0--0---0-0--|--0--0---0-0--0--0---0-0--|
--0----------------|--0--0---0-0--0--0---0-0--|--0--0---0-0--0--0---0-0--|
--0----------------|--2--2---2-2--2--2---2-2--|--2--2---2-2--2--2---2-2--|
--0----------------|--0--0---0-0--0--0---0-0--|--0--0---0-0--0--0---0-0--|
--5----------------|--0--0---0-0--0--0---0-0--|--0--0---0-0--0--0---0-0--|
-------------------|--------------------------|--------------------------|

> > > > > > > >


E E. S E E E. S E E E. S E E E. S E
--0--0---0-0--0--0---0-0--|--0--0---0-0--0--0---0-0--|
--0--0---0-0--0--0---0-0--|--0--0---0-0--0--0---0-0--|
--0--0---0-0--0--0---0-0--|--0--0---0-0--0--0---0-0--|
--0--0---0-0--0--0---0-0--|--0--0---0-0--0--0---0-0--|
--3--3---3-3--3--3---3-3--|--3--3---3-3--3--3---3-3--|
--------------------------|--------------------------|

> > > > > > > >


E E. S E E E. S E E E. S E E E. S E
--0--0---0-0--0--0---0-0--|--0--0---0-0--0--0---0-0--|
--0--0---0-0--0--0---0-0--|--0--0---0-0--0--0---0-0--|
--2--2---2-2--2--2---2-2--|--2--2---2-2--2--2---2-2--|
--0--0---0-0--0--0---0-0--|--0--0---0-0--0--0---0-0--|
--0--0---0-0--0--0---0-0--|--0--0---0-0--0--0---0-0--|
--------------------------|--------------------------|

> > > > > > > >


E E. S E E E. S E E E. S E E E. S E
--0--0---0-0--0--0---0-0--|--0--0---0-0--0--0---0-0--|
--0--0---0-0--0--0---0-0--|--0--0---0-0--0--0---0-0--|
--0--0---0-0--0--0---0-0--|--0--0---0-0--0--0---0-0--|
--0--0---0-0--0--0---0-0--|--0--0---0-0--0--0---0-0--|
--3--3---3-3--3--3---3-3--|--3--3---3-3--3--3---3-3--|
--------------------------|--------------------------|

> > > > > > > >


E E. S E E E. S E E E. S E E E. S E
---------0-x---------0-x--|---------0-x---------0-x--|
--0--0---0-x--0--0---0-x--|--0--0---0-x--0--0---0-x--|
--2--2---2-x--2--2---2-x--|--2--2---2-x--2--2---2-x--|
--0--0---0-x--0--0---0-x--|--0--0---0-x--0--0---0-x--|
--0--0---0-x--0--0---0-x--|--0--0---0-x--0--0---0-x--|
--------------------------|--------------------------|

> > > > > > > >


E E. S E E E. S E E E. S E E E. S E
---------0-x---------0-x--|---------0-x---------0-x--|
--0--0---0-x--0--0---0-x--|--0--0---0-x--0--0---0-x--|
--0--0---0-x--0--0---0-x--|--0--0---0-x--0--0---0-x--|
--0--0---0-x--0--0---0-x--|--0--0---0-x--0--0---0-x--|
--3--3---3-x--3--3---3-x--|--3--3---3-x--3--3---3-x--|
--------------------------|--------------------------|

> > > > > > > >


E E. S E E E. S E E E. S E E E. S E
---------0-x---------0-x--|---------0-x---------0-x--|
--0--0---0-x--0--0---0-x--|--0--0---0-x--0--0---0-x--|
--2--2---2-x--2--2---2-x--|--2--2---2-x--2--2---2-x--|
--0--0---0-x--0--0---0-x--|--0--0---0-x--0--0---0-x--|
--0--0---0-x--0--0---0-x--|--0--0---0-x--0--0---0-x--|
--------------------------|--------------------------|

153
> > > > > > > >
E E. S E E E. S E E E. S E E E. S E
---------0-x---------0-x--|---------0-x---------0-0--|
--0--0---0-x--0--0---0-x--|--0--0---0-x--0--0---0-0--|
--0--0---0-x--0--0---0-x--|--0--0---0-x--0--0---0-0--|
--0--0---0-x--0--0---0-x--|--0--0---0-x--0--0---0-0--|
--3--3---3-x--3--3---3-x--|--3--3---3-x--3--3---3-3--|
--------------------------|--------------------------|

> > > > > > > >


E E. S E E E. S E E E. S E E S S E S S
-----0-----0-----0-----0--|-----0-----0-----0----------|
--0--0---0-0--0--0---0-0--|--0--0---0-0--0--0-0-0--0-0-|
--0--0---0-0--0--0---0-0--|--0--0---0-0--0--0-0-0--0-0-|
--0--0---0-0--0--0---0-0--|--0--0---0-0--0--0-0-2--2-2-|
--5------5-5--5------5-5--|--3------3-3--2--2-2-0--0-0-|
--3-----------3-----------|--1-----------0-------------|

> > > > > > > >


E E. S E E E. S E E E. S E E E. S E
-----0-----0-----0-----0--|-----0-----0-----0-----0--|
--0--0---0-0--0--0---0-0--|--0--0---0-0--0--0---0-0--|
--0--0---0-0--0--0---0-0--|--0--0---0-0--0--0---0-0--|
--0--0---0-0--0--0---0-0--|--0--0---0-0--0--0---0-0--|
--3--3---3-3--3--3---3-3--|--3--3---3-3--3--3---3-3--|
--------------------------|--------------------------|

> > > > > > > >


E E. S E E E. S E E E. S E E S S E S S
-----0-----0-----0-----0--|-----0-----0-----0----------|
--0--0---0-0--0--0---0-0--|--0--0---0-0--0--0-0-0--0-0-|
--0--0---0-0--0--0---0-0--|--0--0---0-0--0--0-0-0--0-0-|
--0--0---0-0--0--0---0-0--|--0--0---0-0--0--0-0-2--2-2-|
--5------5-5--5------5-5--|--3------3-3--2--2-2-0--0-0-|
--3-----------3-----------|--1-----------0-------------|

> > > > > > > >


E E. S E E E. S E E E. S E E E. S E
-----0-----0-----0-----0--|-----0-----0-----0-----0--|
--0--0---0-0--0--0---0-0--|--0--0---0-0--0--0---0-0--|
--0--0---0-0--0--0---0-0--|--0--0---0-0--0--0---0-0--|
--0--0---0-0--0--0---0-0--|--0--0---0-0--0--0---0-0--|
--3--3---3-3--3--3---3-3--|--3--3---3-3--3--3---3-3--|
--------------------------|--------------------------|

> > > > > > > >


E E. S E E E. S E E E. S E E E. S E
-----0-----0-----0-----0--|-----0-----0-----0-----0--|
--0--0---0-0--0--0---0-0--|--0--0---0-0--0--0---0-0--|
--2--2---2-2--0--0---0-0--|--0--0---0-0--0--0---0-0--|
--0--0---0-0--0--0---0-0--|--0--0---0-0--0--0---0-0--|
--0--0---0-0--8--8---8-8--|--3--3---3-3--3--3---3-3--|
--------------5------5----|--------------------------|

> > > > > > > >


E E. S E E E. S E E E. S E E E. S E
-----0-----0-----0-----0--|-----0-----0-----0-----0--|
--0--0---0-0--0--0---0-0--|--0--0---0-0--0--0---0-0--|
--2--2---2-2--0--0---0-0--|--0--0---0-0--0--0---0-0--|
--0--0---0-0--0--0---0-0--|--0--0---0-0--0--0---0-0--|
--0--0---0-0--8--8---8-8--|--3--3---3-3--3--3---3-3--|
--------------5------5----|--------------------------|

> > > > > > > >


E E. S E E E. S E E E. S E E E. S E
-----0-----0-----0-----0--|-----0-----0-----0-----0--|
--0--0---0-0--0--0---0-0--|--0--0---0-0--0--0---0-0--|
--2--2---2-2--0--0---0-0--|--0--0---0-0--0--0---0-0--|
--0--0---0-0--0--0---0-0--|--0--0---0-0--0--0---0-0--|
--0--0---0-0--8--8---8-8--|--3--3---3-3--3--3---3-3--|
--------------5------5----|--------------------------|

154
> > > > > > > >
E E. S E E E. S E E E. S E E E. S E
-----0-----0-----0-----0--|-----0-----0-----0-----0--|
--0--0---0-0--0--0---0-0--|--0--0---0-0--0--0---0-0--|
--0--0---0-0--0--0---0-0--|--0--0---0-0--0--0---0-0--|
--0--0---0-0--0--0---0-0--|--0--0---0-0--0--0---0-0--|
--5--5---5-5--5--5---5-5--|--5--5---5-5--5--5---5-5--|
--3--3---3-3--3--3---3-3--|--3--3---3-3--3--3---3-3--|

> > > > > > > >


E E. S E E E. S E E E. S E E E. S E
-----0-----0-----0-----0--|-----0-----0-----0-----0--|
--0--0---0-0--0--0---0-0--|--0--0---0-0--0--0---0-0--|
--2--2---2-2--0--0---0-0--|--0--0---0-0--0--0---0-0--|
--0--0---0-0--0--0---0-0--|--0--0---0-0--0--0---0-0--|
--0--0---0-0--8--8---8-8--|--3--3---3-3--3--3---3-3--|
--------------5------5----|--------------------------|

> > > > > > > >


E E. S E E E. S E E E. S E E E. S E
-----0-----0-----0-----0--|-----0-----0-----0-----0--|
--0--0---0-0--0--0---0-0--|--0--0---0-0--0--0---0-0--|
--2--2---2-2--0--0---0-0--|--0--0---0-0--0--0---0-0--|
--0--0---0-0--0--0---0-0--|--0--0---0-0--0--0---0-0--|
--0--0---0-0--8--8---8-8--|--3--3---3-3--3--3---3-3--|
--------------5------5----|--------------------------|

> > > > > > > >


E E. S E E E. S E E E. S E E E. S E
-----0-----0-----0-----0--|-----0-----0-----0-----0--|
--0--0---0-0--0--0---0-0--|--0--0---0-0--0--0---0-0--|
--2--2---2-2--0--0---0-0--|--0--0---0-0--0--0---0-0--|
--0--0---0-0--0--0---0-0--|--0--0---0-0--0--0---0-0--|
--0--0---0-0--8--8---8-8--|--3--3---3-3--3--3---3-3--|
--------------5------5----|--------------------------|

> > > > > > > >


E E. S E E E. S E E E. S E E E. S E
-----0-----0-----0-----0--|-----0-----0-----0-----0--|
--0--0---0-0--0--0---0-0--|--0--0---0-0--0--0---0-0--|
--0--0---0-0--0--0---0-0--|--0--0---0-0--0--0---0-0--|
--0--0---0-0--0--0---0-0--|--0--0---0-0--0--0---0-0--|
--5--5---5-5--5--5---5-5--|--5--5---5-5--5--5---5-5--|
--3--3---3-3--3--3---3-3--|--3--3---3-3--3--3---3-3--|

E E E E E E E E E E E E E E E E E Q Q Q E
-----0-----0-----0-----0--|-----0-----0-----0--0--0--|--0--0----0----0----0--|
-----0-----0-----0-----0--|-----0-----0-----0--0--0--|--0--0----0----0----0--|
-----2-----2-----2-----2--|-----2-----2-----2--2--2--|--0--0----0----0----0--|
--0-----0-----0-----0-----|--0-----0-----0-----0--0--|--0--------------------|
--------------------------|--------------------0--0--|--3--------------------|
--------------------------|--------------------0--0--|--3--------------------|

E Q E E E E S S E E E E E E E E
--0--0----0-----0-----0-0-|--0--0-----0-----0-----0--|
--0--0----0-----0-----0-0-|--0--0-----0-----0-----0--|
--0--0----0--0--0--0--0-0-|--2--2-----2-----2-----2--|
--0----------0-----0--0-0-|--0-----0-----0-----0-----|
----------------------3-3-|--0-----------------------|
--------------------------|--------------------------|

E E E E E E E E E Q Q Q E E Q E E E E S S
-----0-----0-----0--0--0--|--0--0----0----0----0--|--0--0----0-----0-----0-0-|
-----0-----0-----0--0--0--|--0--0----0----0----0--|--0--0----0-----0-----0-0-|
-----2-----2-----2--2--2--|--0--0----0----0----0--|--0--0----0--0--0--0--0-0-|
--0-----0-----0-----0--0--|--0--------------------|--0----------0-----0--0-0-|
--------------------0--0--|--3--------------------|----------------------3-3-|
--------------------0--0--|--3--------------------|--------------------------|

> > > > > > > >


E E E E E E E S S E E E E E E E S S
---------------------------|---------------------------|
--0-----0-----0-----0--0-0-|--0-----0-----0-----0--0-0-|
--0-----0-----0-----0--0-0-|--0-----0-----0-----0--0-0-|
--0--0--0--0--0--0--0--0-0-|--0--0--0--0--0--0--0--0-0-|
--5--5--5--5--5--5--5--5-5-|--7--7--7--7--7--7--7--7-7-|
--3--3--3--3--3--3--3--3-3-|--5--5--5--5--5--5--5--5-5-|

155
> > > > > > > >
E E E E E E E E E E E E E E E E
--------------------------|--------------------------|
--0-----0-----0-----0-----|--0-----0-----0-----0-----|
--0-----0-----0-----0-----|--0-----0-----0-----0-----|
--0--0--0--0--0--0--0--0--|--0--0--0--0--0--0--0--0--|
--8--8--8--8--8--8--8--8--|--8--8--8--8--8--8--8--8--|
--5--5--5--5--5--5--5--5--|--5--5--5--5--5--5--5--5--|

> > > > > > > >


E E E E E E E S S E E E E E E E S S
---------------------------|---------------------------|
--0-----0-----0-----0--0-0-|--0-----0-----0-----0--0-0-|
--0-----0-----0-----0--0-0-|--0-----0-----0-----0--0-0-|
--0--0--0--0--0--0--0--0-0-|--0--0--0--0--0--0--0--0-0-|
--5--5--5--5--5--5--5--5-5-|--7--7--7--7--7--7--7--7-7-|
--3--3--3--3--3--3--3--3-3-|--5--5--5--5--5--5--5--5-5-|

> > > > > > > >


E E E E E E E E E E E E E E E E
--------------------------|--------------------------|
--0-----0-----0-----0-----|--0-----0-----0-----0-----|
--0-----0-----0-----0-----|--0-----0-----0-----0-----|
--0--0--0--0--0--0--0--0--|--0--0--0--0--0--0--0--0--|
--8--8--8--8--8--8--8--8--|--8--8--8--8--8--8--8--8--|
--5--5--5--5--5--5--5--5--|--5--5--5--5--5--5--5--5--|

> > > > > > > >


E E E E E E E S S E E E E E E E S S
---------------------------|---------------------------|
--0-----0-----0-----0--0-0-|--0-----0-----0-----0--0-0-|
--0-----0-----0-----0--0-0-|--0-----0-----0-----0--0-0-|
--0--0--0--0--0--0--0--0-0-|--0--0--0--0--0--0--0--0-0-|
--5--5--5--5--5--5--5--5-5-|--7--7--7--7--7--7--7--7-7-|
--3--3--3--3--3--3--3--3-3-|--5--5--5--5--5--5--5--5-5-|

> > > > > > > >


E E E E E E E E E E E E E E E E
--------------------------|--------------------------|
--0-----0-----0-----0-----|--0-----0-----0-----0-----|
--0-----0-----0-----0-----|--0-----0-----0-----0-----|
--0--0--0--0--0--0--0--0--|--0--0--0--0--0--0--0--0--|
--8--8--8--8--8--8--8--8--|--8--8--8--8--8--8--8--8--|
--5--5--5--5--5--5--5--5--|--5--5--5--5--5--5--5--5--|

> > > > > > > >


E E E E E E E S S E E E E E E E S S
---------------------------|---------------------------|
--0-----0-----0-----0--0-0-|--0-----0-----0-----0--0-0-|
--0-----0-----0-----0--0-0-|--0-----0-----0-----0--0-0-|
--0--0--0--0--0--0--0--0-0-|--0--0--0--0--0--0--0--0-0-|
--5--5--5--5--5--5--5--5-5-|--7--7--7--7--7--7--7--7-7-|
--3--3--3--3--3--3--3--3-3-|--5--5--5--5--5--5--5--5-5-|

> > > > > > > >


E E E E E E E E E E E E E E E E
--------------------------|--------------------------|
--0-----0-----0-----0-----|--0-----0-----0-----0-----|
--0-----0-----0-----0-----|--0-----0-----0-----0-----|
--0--0--0--0--0--0--0--0--|--0--0--0--0--0--0--0--0--|
--8--8--8--8--8--8--8--8--|--8--8--8--8--8--8--8--8--|
--5--5--5--5--5--5--5--5--|--5--5--5--5--5--5--5--5--|

> > > > > > > >


E E E E E E E S S E E E E E E E S S
---------------------------|---------------------------|
--0-----0-----0-----0--0-0-|--0-----0-----0-----0--0-0-|
--0-----0-----0-----0--0-0-|--0-----0-----0-----0--0-0-|
--0--0--0--0--0--0--0--0-0-|--0--0--0--0--0--0--0--0-0-|
--5--5--5--5--5--5--5--5-5-|--7--7--7--7--7--7--7--7-7-|
--3--3--3--3--3--3--3--3-3-|--5--5--5--5--5--5--5--5-5-|

156
> > > > > > > >
E E E E E E E E E E E E E E E E
--------------------------|--------------------------|
--0-----0-----0-----0-----|--0-----0-----0-----0-----|
--0-----0-----0-----0-----|--0-----0-----0-----0-----|
--0--0--0--0--0--0--0--0--|--0--0--0--0--0--0--0--0--|
--8--8--8--8--8--8--8--8--|--8--8--8--8--8--8--8--8--|
--5--5--5--5--5--5--5--5--|--5--5--5--5--5--5--5--5--|

> > > > > > > >


E E E E E E E S S E E E E E E E S S
---------------------------|---------------------------|
--0-----0-----0-----0--0-0-|--0-----0-----0-----0--0-0-|
--0-----0-----0-----0--0-0-|--0-----0-----0-----0--0-0-|
--0--0--0--0--0--0--0--0-0-|--0--0--0--0--0--0--0--0-0-|
--5--5--5--5--5--5--5--5-5-|--7--7--7--7--7--7--7--7-7-|
--3--3--3--3--3--3--3--3-3-|--5--5--5--5--5--5--5--5-5-|

> > >


E E. S E E E. S E E E. S E E E. S E
--------------------------|--------------------------|
-----0---0-0-----0---0-0--|-----0---0-0-----0---0-0--|
-----0---0-0-----0---0-0--|-----0---0-0-----0---0-0--|
--0--0---0-0--0--0---0-0--|--0--0---0-0--0--0---0-0--|
--8--8-----8--8--8-----8--|--8--8-----8--8--8-----8--|
--5--5-----5--5--5-----5--|--5--5-----5--5--5-----5--|

> > >


E E. S E E E. S E E E. S E E E. S E
--------------------------|--------------------------|
-----0---0-0-----0---0-0--|-----0---0-0-----0---0-0--|
-----0---0-0-----0---0-0--|-----0---0-0-----0---0-0--|
--0--0---0-0--0--0---0-0--|--0--0---0-0--0--0---0-0--|
--5--5-----5--5--5-----5--|--7--7-----7--7--7-----7--|
--3--3-----3--3--3-----3--|--5--5-----5--5--5-----5--|

> > >


E E. S E E E. S E E E. S E E E. S E
--------------------------|--------------------------|
-----0---0-0-----0---0-0--|-----0---0-0-----0---0-0--|
-----0---0-0-----0---0-0--|-----0---0-0-----0---0-0--|
--0--0---0-0--0--0---0-0--|--0--0---0-0--0--0---0-0--|
--8--8-----8--8--8-----8--|--8--8-----8--8--8-----8--|
--5--5-----5--5--5-----5--|--5--5-----5--5--5-----5--|

> > >


E E. S E E E. S E E E. S E E E. S E
--------------------------|--------------------------|
-----0---0-0-----0---0-0--|-----0---0-0-----0---0-0--|
-----0---0-0-----0---0-0--|-----0---0-0-----0---0-0--|
--0--0---0-0--0--0---0-0--|--0--0---0-0--0--0---0-0--|
--5--5-----5--5--5-----5--|--7--7-----7--7--7-----7--|
--3--3-----3--3--3-----3--|--5--5-----5--5--5-----5--|

> > >


E E. S E E E. S E E E. S E E E. S E Q H.
--------------------------|--------------------------|--0-----------------|
-----0---0-0-----0---0-0--|-----0---0-0-----0---0-0--|--0-----------------|
-----0---0-0-----0---0-0--|-----0---0-0-----0---0-0--|--2-----------------|
--0--0---0-0--0--0---0-0--|--0--0---0-0--0--0---0-0--|--0-----------------|
--8--8-----8--8--8-----8--|--8--8-----8--8--8-----8--|--0-----------------|
--5--5-----5--5--5-----5--|--5--5-----5--5--5-----5--|--0-----------------|

> > > > > > > >


E E. S E E E. S E E E. S E E E. S E
-----0-----0-----0-----0--|-----0-----0-----0-----0--|
--0--0---0-0--0--0---0-0--|--0--0---0-0--0--0---0-0--|
--0--0---0-0--0--0---0-0--|--2--2---2-2--0--0---0-0--|
--0--0---0-0--0--0---0-0--|--0--0---0-0--0--0---0-0--|
--3--3---3-3--3--3---3-3--|--0--0---0-0--8--8---8-8--|
--------------------------|--------------5------5----|

E E. S E E E. S E E E. S E E E. S E
-----0-----0-----0-----0--|-----0-----0-----0-----0--|
--0--0---0-0--0--0---0-0--|--0--0---0-0--0--0---0-0--|
--0--0---0-0--0--0---0-0--|--2--2---2-2--0--0---0-0--|
--0--0---0-0--0--0---0-0--|--0--0---0-0--0--0---0-0--|
--3--3---3-3--3--3---3-3--|--0--0---0-0--8--8---8-8--|
--------------------------|--------------5------5----|

157
> > > > > > > >
E E. S E E E. S E E E. S E E E. S E
-----0-----0-----0-----0--|-----0-----0-----0-----0--|
--0--0---0-0--0--0---0-0--|--0--0---0-0--0--0---0-0--|
--0--0---0-0--0--0---0-0--|--0--0---0-0--0--0---0-0--|
--0--0---0-0--0--0---0-0--|--0--0---0-0--0--0---0-0--|
--3--3---3-3--3--3---3-3--|--5--5---5-5--5--5---5-5--|
--------------------------|--3--3---3-3--3--3---3-3--|

> > > > >


E E. S E E E. S E W W
-----0-----0-----0-----0--|--x----------------|-------------------|
--0--0---0-0--0--0---0-0--|--x----------------|-------------------|
--0--0---0-0--0--0---0-0--|--x----------------|-------------------|
--0--0---0-0--0--0---0-0--|--x----------------|-------------------|
--5--5---5-5--5--5---5-5--|--x----------------|-------------------|
--3--3---3-3--3--3---3-3--|--x----------------|-------------------|

W W W W
-------------------|-------------------|-------------------|-------------------|
-------------------|-------------------|-------------------|-------------------|
-------------------|-------------------|-------------------|-------------------|
-------------------|-------------------|-------------------|-------------------|
-------------------|-------------------|-------------------|-------------------|
-------------------|-------------------|-------------------|-------------------|

v
W W W
-------------------|-------------------|--0----------------||
-------------------|-------------------|--0----------------||
-------------------|-------------------|--0----------------||
-------------------|-------------------|--0----------------||
-------------------|-------------------|--3----------------||
-------------------|-------------------|--3----------------||

158
Mumford and Sons – Little Lion Man

CAPO 5

Aadd9= x-0-2-2-0-0
Cadd9= x-3-2-0-0-0

Intro:
De banjo kan je een beetje nabootsen door de Am af te wisselen met
een Aadd9, en de C af te wisselen met een Cadd9.

|Am |Am |C |C |
|Am |Am |C |C |
|Am |Am |C |C |
|Am |Am |C |C |

Couplet:
Am
Weep for yourself, my man,
C
you'll never be what is in your heart.
Am
Weep little lion man,
C
you're not as brave as you were at the start.
G
Rate yourself and rape yourself,
F Fmaj7 C
take all the courage you have left.
G
Wasted on fixing all the
F Fmaj7 C
problems that you made in your own head.

Refrein:
Am/ Fmaj7/ C/
But it was not your fault but mine,
Am Fmaj7/ C/
and it was your heart on the line.
Am/ Fmaj7/ C/
I really fucked it up this time,
G
didn't I, my dear?
Am
Didn't I, my dear?

|Am |Am |C |C |
|Am |Am |C |C |

Couplet:
Tremble for yourself my man,
you know that you have seen this all before.
Tremble little lion man,
you'll never settle any of your scores.
Your grace is wasted in your face,
your boldness stands alone among the wreck.
Learn from your mother or else
spend your days biting your own neck.

159
Refrein:
But it was not your fault but mine,
and it was your heart on the line.
I really fucked it up this time,
didn't I, my dear?
But it was not your fault but mine,
and it was your heart on the line.
I really fucked it up this time,
didn't I, my dear?
Didn't I, my dear?

But it was not your fault but mine,


and it was your heart on the line.
I really fucked it up this time,
didn't I, my dear?
But it was not your fault but mine,
and it was your heart on the line.
I really fucked it up this time,
didn't I, my dear?
Didn't I, my dear?

|Am |Am |C |C |
|Am |Am |C |C |

Bridge:

|G |C |Fmaj7 |Fmaj7 | (8x)


(Bij het 3e t/m het 8e refrein komen de aha-aaaaah‘s)

Refrein:
But it was not your fault but mine,
and it was your heart on the line.
I really fucked it up this time,
didn't I, my dear?
But it was not your fault but mine,
and it was your heart on the line.
I really fucked it up this time,
didn't I, my dear?
Didn't I, my dear?

160
Morcheeba - Wonders Never Cease

F#m - A - E (x4)

F#m A E
What do you feel
F#m A E
When you let go of the wheel
F#m A E
Can you take a leap of faith
F#m A E
Will you face the change of peace
G#m F# B
There are worlds out there
G#m F# B
Beyond compare

E D C
Going on a journey
E D C
Somewhere far out east
E D C
We'll find the time to show you
E D C
Wonders never cease

All that we've been through


Brings my soul so close to you
Why not cast your fears aside
We can laugh until we cry
There are worlds out there
Beyond compare

161
Maroon 5 - Sunday Morning

Dm9 (x5355x)
G13 (3x345x)
Cmaj7 (x354553)

Intro: Dm - G - C (C)

Dm G C
Sunday morning rain is falling
Dm G C
Steal some covers share some skin
Dm G C
Clouds are shrouding us in moments unforgettable
Dm G C
You twist to fit the mold that I am in
Dm G C
But things just get so crazy living life gets hard to do
Dm G C
And I would gladly hit the road get up and go if I knew
Dm G C
That some day it would lead me back to you
Dm G C
That some day it would lead me back to you

Dm G C Dm G C
That may be all I need In darkness she is all I see
Dm G C
Come and rest your bones with me
Dm G C
Driving slow on Sunday Morning and I never want to leave

Dm G C Dm G C
Fingers trace your every outline Paint a picture with my hands
Dm G C
Back and forth we sway like branches in a storm
Dm G C
Change of weather, still together when it ends…chorus

Bridge na de 2de Chorus


e-------------------------------------------------------------
b-------------------------------------------------------------
g-------------------------------------------------------------
d-----1--2----------------------------------------------1-----
a--3---------3P2P1 (1)—2H 3----2H3---2H3------------1H3-------
E----------------------------3-----2-----1---1--3-------------

chorus
e------------------------------------------------------x---x--
b------------------------------------------------------1---2--
g------------------------------------------------------x---x--
d-----1--2---------------------------------------------2---3--
a--3---------3P2P1—(1)-2H3----2H3-----2H3--------------3---4--
E--------------------------3-------2-------1---1---3----------

162
Kay Perry - Hot 'n Cold

G D
You change your mind
Am C
Like a girl changes clothes
G D
Yeah you, PMS
Am
Like a bitch
C
I would know
G D
And you always think
Am C
Always speak Crypticly
G
I should know
D Am C
That you're no good for me

[CHORUS]
G
Cause you're hot then you're cold
D
You're yes then you're no
Am
You're in and you're out
C
You're up and you're down
G
You're wrong when it's right
D
It's black and it's white
Am
We fight, we break up
C
We kiss, we make up

G D
You, You don't really want to stay, no
Am C
You, shouldn't really want to go-o
G
You're hot then you're cold
D
You're yes then you're no
Am
You're in and you're out
C
You're up and you're down

|G |D |Am |C |

163
[VERSE]
We used to be
Just like twins
So in sync
The same energy
Now's a dead battery
Used to laugh bout nothing
Now your plain boring
I should know
That you're not gonna change

[CHORUS]

[BRIDGE]

|Em |C |G |D |2x

Em C
Someone call the doctor
G D
Got a case of a love bi-polar
Em C
Stuck on a roller coaster
G D
Can't get off this ride

G D
You change your mind
Am C
Like a girl changes clothes

[CHORUS]
Cause you're hot then you're cold
You're yes then you're no
You're in and you're out
You're up and you're down
You're wrong when it's right
It's black and it's white
We fight, we break up
We kiss, we make up

You're hot then you're cold


You're yes then you're no
You're in and you're out
You're up and you're down
You're wrong when it's right
It's black and it's white
We fight, we break up
We kiss, we make up

You, you don't really want to stay, no


You, shouldn't really want to go-o
You're hot then you're cold
You're yes then you're no
You're in and you're out
G__________
You're up and you're down

164
Florence And The Machine - You've Got The Love

CAPO 4

Em D
Sometimes I feel like throwing my hands up in the air
A
I know I can count on you
Em D
Sometimes I feel like saying "Lord I just don't care"
A
But you've got the love I need To see me through
Em D
Sometimes it seems that the going is just too rough
A
And things go wrong no matter what I do
Em D
Now and then it seems that life is just too much
A
But you've got the love I need to see me through
Em D A
When food is gone you are my daily meal
Em D A
When friends are gone I know my savior's love is real

Your love is real

Em
You got the love
D
You got the love
A
You got the love

Em
You got the love
D
You got the love
A
You got the love

Em D
Time after time I think "Oh Lord what's the use?"
A
Time after time I think it's just no good
Em D
Sooner or later in life, the things you love you loose
A
But you got the love I need to see me through

Em
You got the love
D
You got the love
A
And you got the love

165
Em
You got the love
D
You got the love
A
And you got the love
^[Repeat]^

Em D
Sometimes I feel like throwing my hands up in the air
A
Cause I know I can count on you
Em D
Sometimes I feel like saying "Lord I just don't care"
A
But you've got the love I need to see me through.

166
Mumford and Sons - The Cave

Verse 1
C#m E
It's empty in the valley of your heart
C#m E
The sun, it rises slowly as you walk
C#m E B E
Away from all the fears and all the faults you've left behind

Verse 2 (herhaal bovenstaande akkoorden):


The harvest left no food for you to eat
You cannibal, you meat-eater, you see
But I have seen the same, I know the shame in your defeat

Refrein:
E A E
But I will hold on hope
E A E
And I won't let you choke
A E B
On the noose around your neck
C#m A E
And I'll find strength in pain
C#m A E
And I will change my ways
A E B
I'll know my name as it's called again

(Instrumentale deel: verse akkoorden)

Verse 3:
Cause I have other things to fill my time
You take what is yours and I'll take mine
Now let me at the truth
Which will refresh my broken mind

Verse 4:
So tie me to a post and block my ears
I can see widows and orphans through my tears
I know my call despite my faults
And despite my growing fears

Refrein:
But I will hold on hope
And I won't let you choke
On the noose around your neck
And I'll find strength in pain
And I will change my ways
I'll know my name as it's called again

Verse 5:
So come out of your cave walking on your hands
And see the world hanging upside down
You can understand dependence
When you know the maker's hand

167
Pre-Chorus: (refrein akkoorden)
So make your siren's call
And sing all you want
I will not hear what you have to say
Cause I need freedom now
And I need to know how
To live my life as it's meant to be

Refrein 3:
And I will hold on hope
And I won't let you choke
On the noose around your neck
And I'll find strength in pain
And I will change my ways

A E B E////
I'll know my name as it's called again.

168
The Rasmus - First Day of My Life

Riff:
C#m C#m A A B
e|-------------------------------------------------------------------
B|-------------------------------------------------------------------
G|-66---------------64-----------------------------------------------
D|-66---------------66---------------77--------------77------99------
A|-44--7777-999-77--44--7777-999-77--77-7777-999-77--77-777--99-777--
E|-----------------------------------55--------------55------77------

C#m A
Feel like I'm stoned
F#m G#
wanna be alone, just for a while, unknown
C#m A F#m
Weeks on the road a long way from home
G#m
just shut off the phone

C#m A
And you say I'll heal you,
F#m G#
I'll always be yours
C#m A F#m G#
and you say I'll kill you if I do something wrong
A F F#m
yeah, yeah, yeah,yeah, yeah, yeah

F#m B
Still feels like the first time
E C#m
to stand here by your side
F#m B
together regardless
E D C#m
we'll walk through the darkness
F#m G# F#m E Eb C#m
Still fells like the first day of my life

~~ Riff ~~

C#m A
Remember the times
F#m G#
together we swore, never give up this life
C#m A F#m
still hanging on, still going strong
G#
here I belong

C#m A
And maybe I'm crazy
F#m G#
but I just can't slow down
C#m A
And maybe I'm crazy
F#m G#
but at least I'm still around

yeah, yeah, yeah, yeah, yeah, yeah

169
F#m B
Still feels like the first time
E C#m
to stand here by your side
F#m B
together regardless
E D C#m
we'll walk through the darkness
F#m G# F#m E Eb C#m
Still fells like the first day of my life

~~ Riff ~~

-slow-
F#m G# F#m
Feels like the first day of my life,
G#
(feels like the first day)
F#m G# F#m E G# F#m
Still feels like the first day of my life

F#m B
Still feels like the first time
E C#m
to stand here by your side
F#m B
together regardless
E D C#m
we'll walk through the darkness
F#m G#
Still feels like the first day of my
F#m G#
still feels like the first day of my
F#m G# F#m E Eb C#m B A G# F#m E Eb B C#m
still feels like the first day of my life

~~ Riff ~~

end.

170
Krezip - Beautiful

INTRO

D D7/C Bm7 Bb
e|-2---2---2---2---|-0---2---2---2---|-----------------|-------0-1-0-----|
B|-3---3---3---3---|-1---1---1---1---|-----3---3---3---|-----3-------3---|
G|-2---2---2---2---|-2---------------|-----2---2---2---|---3-----------3-|
D|---0---0---0---0-|-----------------|---4-------------|-----------------|
A|-----------------|---3---3---3---3-|-2-----2---2---2-|-1---------------|
E|-----------------|-----------------|-----------------|-----------------|

COUPLET
D D7/C Bm7 Bb
e|-----2---2---2---2---|-----2---2---2---|-----------------|---------------------|
B|-----3---3---3---3---|-----1---1---1---|-----3---3---3---|-----3---3---3---3---|
G|---2-----------------|-----------------|-----2---2---2---|-----3---3---3---3---|
D|-0-----0---0---0---0-|---0-------------|---4-------------|---3-----------------|
A|---------------------|-3-----3---3---3-|-2-----2---2---2-|-1-----1---1---1---1-|
E|---------------------|-----------------|-----------------|---------------------|

D D7/C Bm7 B
e|-----2---2---2---2---|-----2---2---2---|-----------------|---------------------|
B|-----3---3---3---3---|-----1---1---1---|-----3---3---3---|-----3---3---3---3---|
G|---2-----------------|-----------------|-----2---2---2---|-----3---3---3---3---|
D|-0-----0---0---0---0-|---0-------------|---4-------------|---3-----------------|
A|---------------------|-3-----3---3---3-|-2-----2---2---2-|-1-----1---1---1---0-|
E|---------------------|-----------------|-----------------|---------------------|

CHORUS
G Em7 D D7/C Bm7
e|-----------------|-----------------|-----2-------2---|-----------------|
B|-----------------|-----3---3---3---|-----3-------1---|-----3---3---3---|
G|-----4---4---4---|-----0---0---0---|---2-------------|-----2---2---2---|
D|-----5---5---5---|-----------------|-0-----0---0-----|---4-------------|
A|---5-------------|---2-------------|---------3-----3-|-2-----2---2---0-|
E|-3-----3---3---3-|-0-----0---0---0-|-----------------|-----------------|

G Em7 D D7/C Bm7


e|-----------------|-----------------|-----2-------2---|-----------------|
B|-----------------|-----3---3---3---|-----3-------1---|-----3---3---3---|
G|-----4---4---4---|-----0---0---0---|---2-------------|-----2---2---2---|
D|-----5---5---5---|-----------------|-0-----0---0-----|---4-------------|
A|---5-------------|---2-------------|---------3-----3-|-2-----2---2---2-|
E|-3-----3---3---3-|-0-----0---0---0-|-----------------|-----------------|

Em7
e|-----------------|
B|-3---------------|
G|-0---------------|
D|-----------------|
A|-----------------|
E|-0---------------|

BREAK
D D7/C Bm7 Bb
e|-2---2---2---2---|-----2---2---2---2---|-----------------|-------0-1-0-----|
B|-3---3---3---3---|-----1---1---1---1---|-----3---3---3---|-----3-------3---|
G|-2---2---2---2---|---------------------|-----2---2---2---|---3-----------3-|
D|---0---0---0---0-|---0-----------------|---4-------------|-----------------|
A|-----------------|-3-----3---3---3---3-|-2-----2---2---2-|-1---------------|
E|-----------------|---------------------|-----------------|-----------------|

OUTRO

D D7/C Bm7 Bb D
e|-2--------5---3---2---|-----2---3-2---2---|---------2-0-----|--------------|------5-|
B|-----3----------3---3-|---3---3-----3---3-|-----3-------3---|-3------------|-----7--|
G|---2---2---(2)--------|-------------------|-----2---------4-|-3------------|----7---|
D|-0--------------------|-------------------|---4-------------|--------------|---7----|
A|----------------------|(3)----------------|(2)---(2)--------|--------------|--5-----|
E|----------------------|-------------------|-----------------|-1------------|-5------|

171
INTRO
D D7/C Bm7 Bb

D D7/C
Every day is so wonderful
Bm7 Bb
And suddenly, it's hard to breathe
D D7/C
Now and then, I get insecure
Bm7 Bb
From all the pain, I'm so ashamed

CHORUS
G Em7
But I am beautiful no matter what they say
D D7/C Bm7
Words can't bring me down
G Em7
I am beautiful in every single way
D D7/C Bm7
Words can't bring me down
Em7
So don't you bring me down today

BREAK
D D7/C Bm7 Bb

D D7/C
To all your friends, you're delirious
Bm7 Bb
So consumed in all your doom
D D7/C
Trying hard to fill the emptiness
Bm7 Bb
The peace is gone, left the puzzle undone, is that the way it is now?

CHORUS
G Em7
Cause you are beautiful no matter what they say
D D7/C Bm7
Words can't bring you down
G Em7
So you are beautiful in every single way
D D7/C Bm7
Yeah words can't bring you down
Em7
So don't you bring me down today...

172
BRIDGE [strum chords]
D D7
No matter what we do
Bm7
No matter what we say
Bb
We'll sing the song inside the tune
D
Full of beautiful mistakes
D7
And everywhere we go
Bm7
The sun will always shine
Bb
Just let it shine
G
On the other side

CHORUS [strum chords]


G Em7
We are beautiful no matter what they say
D D7 Bm7
Words can't bring us down
G Em7
We are beautiful in every single way
D D7 Bm7
Words can't bring us down
Em7
So don't you bring us down today

OUTRO
D D7/C Bm7 Bb
D
So don't you bring us down today

173
The Beatles - Eleanor Rigby

Em6 022020
Em7 022030

C Em
Aaah, look at all the lonely people
C Em
Aaah, look at all the lonely people

Couplet:
Em Em7 Em6 Em C
Eleanor Rigby, picks up the rice in a church where a wedding has been,
Lives in a dream
Em Em7 Em6 Em C
Waits at the window, wearing the face that she keeps in a jar by the door
Who is it for?

Refrein:
Em7 Em6 C Em
All the lonely people, where do they all come from?
Em7 Em6 C Em
All the lonely people, where do they all belong?

Couplet:
Em Em7 Em6 Em C
Father McKenzie, writing the words of a sermon that no one will hear,
No one comes near.
Em Em7 Em6 Em C
Look at him working, darning his socks in the night when there's nobody
there,
What does he care?

Refrein:
Em7 Em6 C Em
All the lonely people, where do they all come from?
Em7 Em6 C Em
All the lonely people, where do they all belong?

C Em
Aaah, look at all the lonely people
C Em
Aaah, look at all the lonely people

Em Em7 Em6 Em C
Eleanor Rigby, died in the church and was buried along with her name,
Nobody came
Em Em7 Em6 Em C
Father McKenzie, wiping the dirt from his hands as he walks from the grave,
No one was saved

Em7 Em6 C Em
All the lonely people, where do they all come from?
Em7 Em6 C Em
All the lonely people, where do they all belong?

174
Admiral Freebee - Rags 'n Run

Fsus2 = X-3-3-0-1-1
Fsus2/A# = X-1-3-0-1-X

Verse en intro
Fsus2 Fsus2/A#
E |-----------------------------------------------------------
B |--------1------1-------1--------------1------1-----1-------
G |----0—2------0-------2----0---------0---0------0-----0-----
D |-----------3-------3--------------3-------3------3-----3---
A |-3------------------------------1--------------------------
E |-----------------------------------------------------------

Chorus
C Bb
E |--------0-------0-------0----------------------------------
B |----------1-------1-------1------------3-------3-----3-----
G |-----0------0-------0-------0--------3---3-------3-----3---
D |---2-------------------------------3-------3-------3-----3-
A |-3-------------------------------1-------------------------
E |-----------------------------------------------------------

F Fsus2
Times like these when the temperatures freeze
Bbsus2
And the little girls they want you
Fsus2
Times when it's hard to find
Bbsus2
A parking spot on this avenue
Fsus2
So you shoot in the dark

And you're blessed with a spark


Bbsus2
Right in front of you
Fsus2
So you continue the journey
Bbsus2
You investigate all possible possibilities

Chorus:
C Bb
Soon I'm gonna leave my rags 'n' run
C Bb
I'm gonna leave my rags 'n' run
C
And the big times they're talking about
Bb
Well now I know
C F
They have not yet begun
Bb
Have not even yet begun
F
Yet begun

175
Verse:
Times like these when the temperatures freeze
And the little girls they want you
Times when it's hard to find
Anything or anyone close to you
There is no room service
No sign of food in the kitchen
And the luggage is gone
We need more strong mommas in this town
Too much monkeys putting each other down

Chorus:
Soon I'm gonna leave my rags 'n' run
I'm gonna leave my rags 'n' run
And the big times they're talking about
Well now I know
They have not even yet begun
Have not even yet begun
Yet begun

O-o-ow, ow, I'm betting on a miracle again


O-o-ow, I'm betting on a miracle again
O-o-ow, I'm betting on a miracle again

176
Bloodhound Gang - Fire, Water, Burn

G5/G E5/E
E|-----------------------------------|
B|-----------------------------------|
G|-----------------------------------|
D|--5-5-5-5-5-5-5---2-2-2-2-2-2-2-2--|
A|--5-5-5-5-5-5-5---2-2-2-2-2-2-2-2--|
E|--3-3-3-3-3-3-3-2-0-0-0-0-0-0-0-0--|

...but in the choruses and inbetween verses and choruses


the 'G Em' chord change is played like this:

G5/G (B5)E5/E (D5)


E|-----------------------------------|
B|-----------------------------------|
G|------------------9-9-9-9-9-9-7-7--|
D|--5-5-5-5-5-5-9-9-9-9-9-9-9-9-7-7--|
A|--5-5-5-5-5-5-9-9-7-7-7-7-7-7-5-5--|
E|--3-3-3-3-3-3-7-7------------------|

sometimes before going into 'G Em' the electric plays this little fill:
G5/G
E|------------|
B|------------|
G|------------|
D|-------5----|
A|-0-2-0-5----|
E|-------3----|

INTRO: [just acoustic guitar, no electric]


------
G Em G Em

CHORUS: [just acoustic guitar, no electric guitar]


-------
G Em
The roof, the roof, the roof is on fire
G Em
The roof, the roof, the roof is on fire
G Em
The roof, the roof, the roof is on fire
D C
We don't need no water let the motherfucker burn
C [stop] G Em G Em
Burn motherfucker, burn <-electric guitar starts on the word 'burn'

G Em G Em [stop]

177
VERSE 1: [just acoustic guitar, no electric]
--------
G Em
Hello my name is Jimmy Pop and I'm a dumb white guy
G Em
I'm not old or new but middle school fifth grade like junior high
G Em
I don't know mofo if y'all peeps be buggin givin props to my ho cuz
she's fly
A C
but I can take the heat cuz I'm the other white meat known as kid
funky fried

VERSE 2: [Acoustic and electric guitars are used in this verse]


--------
G Em
Yeah I'm hung like planet Pluto hard to see with the naked eye
G Em
but if I crashed into Uranus I would stick it where the sun don't
shine
G Em
Cuz I'm kinda like Han Solo always stroking my own Wookie
A C
I'm the root of all thats evil yeah but you can call me cookie

CHORUS: [Acoustic and electric both play]


-------
G Em
The roof, the roof, the roof is on fire
G Em
The roof, the roof, the roof is on fire
G Em
The roof, the roof, the roof is on fire
D C
We don't need no water let the motherfucker burn
C [stop] G Em G Em G Em G Em [stop]
Burn motherfucker, burn

VERSE 3: [both acoustic and electric play]


--------
Yo, Yo,
G Em
This hardcore ghetto gangster image takes a lot of practice
G Em
I'm not black like Barry White no I am white like Frank Black is
G Em
So if man is five and the devil is six, then that must make me seven
G Em
This honkie's gone to heaven

178
VERSE 4: [both acoustic and electric play]
--------
G Em
But if I go to hell, well then I hope I burn well
G Em
I'll spend my days with J.F.K, Marvin Gaye, Martha Raye, and Lawrence
Welk
G Em
and Kurt Cobain, Kojak, Mark Twain, and Jimi Hendrix's poltergeist
A C
and Webster yeah Emmanuel Lewis cuz he's the anti-christ

CHORUS: [Acoustic and electric both play]


-------
G Em
The roof, the roof, the roof is on fire
G Em
The roof, the roof, the roof is on fire
G Em
The roof, the roof, the roof is on fire
D C
We don't need no water let the motherfucker burn
C [stop] G Em G Em G Em G Em [stop]
Burn motherfucker, burn

Everybody here we go

E|---------------|
B|-10b12--10b12--|
G|---------------| b = bend up
D|---------------|
A|---------------|
E|---------------|

OUTRO:
------
G
C'mon party people
Em
Throw your hands in the air
G
C'mon party people
Em
Wave em like you don't care
G
C'mon party people
Em
Everybody say ho
G
C'mon party people
Em
Everybody here we go

179
Coolio - Gangsta's Paradise

INTRO: ( Fm7 Fm Em7 Cm7 )

As I walk through the valley of the shadow of death


I take a look at my life and realize there's not much left
coz I've been blastin and laughin so long, that
even my mama thinks that my mind is gone
but I ain't never crossed a man that didn't deserve it
me be treated like a punk you know that's unheard of
you better watch how you're talking, and where you're walking
or you and your homies might be lined in chalk
I really hate to trip but i gotta, loc
As I Grow I see myself in the pistol smoke, fool
I'm the kinda g the little homies wanna be like
on my knees in the night, saying prayers in the streetlight

REFREIN 1:
( Fm7 Fm Em7 Cm7 )
Been spending most their lives, living in the gangsta's paradise (2X)
Keep spending most their lives, living in the gangsta's paradise (2x)

( Fm7 Fm Em7 Cm7 )


They got the situation, they got me facin'
I can't live a normal life, I was raised by the stripes
so I gotta be down with the hood team
too much television watching got me chasing dreams
I'm an educated fool with money on my mind
got my ten in my hand and a gleam in my eye
I'm a loc'd out gangsta set trippin' banger
and my homies is down so don't arouse my anger, fool
death ain't nothing but a heartbeat away,
I'm living life, do or die, what can I say
I'm twenty-three now, but will I live to see twenty-four
the way things are going I don't know

REFREIN 2:
( Fm7 Fm Em7 Cm7 )
Tell me why are we, so blind to see
That the one's we hurt, are you and me

COUPLET
( Fm7 Fm Em7 Cm7 )
Power in the money, money in the power
minute after minute, hour after hour
everybody's running, but half of them ain't looking
what's going on in the kitchen, but I don't know what's kickin'
they say I gotta learn, but nobody's here to teach me
if they can't undersstand it, how can they reach me
I guess they can't, I guess they won't
I guess they front, that's why I know my life is out of luck, fool

REFREIN 1

REFREIN 2 (2x)

180
Alanis Morissette - Ironic

CAPO 4

EADGBE EADGBE
D/F# (2x023x) D (xx0232)
G2 (3x020x) G (320033)
Em (0x00xx) Em (022000)
Cmaj7 (x32003) F (133211)
or (x32033) C (x32010)
D4 (x54005) |
D* (x54007) These chords are used in the chorus.
|

INTRO: [Clean guitar]


------
First play Cmaj7 D4 Cmaj7, then:

E|--3---2------------|
B|----------3--------|
G|--------------0--2-|
D|----0---0----------|
A|--3---3---3--------|
E|-------------------|

Lyrics are: Hey-ey, hey, etc etc

VERSE 1: [Clean guitar]


--------
D/F# G2 D/F# Em
An old man, turned 98.
D/F# G2 D/F# Em
He won the lottery, and died the next day
D/F# G2 D/F# Em
It's a black fly, in your Chardonnay.
D/F# G2 D/F# Em
It's a death row pardon, 2 minutes too late.
D/F# G2 D/F# Em
Isn't it ironic...don't you think?

+ . + . = shows the timing.

TAB FOR VERSE 1:


| + . + . + . + . | + . + . + . + . | + . + . + . + . | + . + . + . + . |
E|-----------------|-----------------|-----------------|-----------------|
B|-------0---------|-3---------------|-3--3--3---------|----3------------|
G|-2-----2---------|-2-----0---------|-2---2-2---------|-2-----0---------|
D|-0---------------|-------0-------0-|-----------------|-0-----0---------|
A|-----------------|-----------------|-----------------|-----------------|
E|-2-----3---------|-2-----0---------|-2-----3---------|-2-----0---------|
An old man turned 98. He won the lottery, and died the next day

| + . + . + . + . | + . + . + . + . | + . + . + . + . | + . + . + . + . |
E|-----------------|-----------------|-----------------|-----------------|
B|-3-----0---------|-3---------------|-----------------|----3------------|
G|-2--2--2---------|-2-----0---------|-2--2--2---------|-2-----0---------|
D|-----------------|-0-----0---------|-0-----0---------|-0-----0---------|
A|-----------------|-----------------|-----------------|-----------------|
E|-2-----3---------|-2-----0---------|-2-----3---------|-2-----0---------|
It's a black fly in your Chardonnay. It's a death row pardon 2 minutes too late.

181
E|-----------------|-----------------|
B|----3--------3---|---3-------------|
G|-2-----2---2---2-|-2-----0---------|
D|-0-----0---------|-0-----0---------|
A|-----------------|-----------------|
E|-2-----3---------|-2-----0---------|
Isn't it ironic...don't you think?

CHORUS: [Overdriven guitar]


-------
D G D Em
It's like rain on your wedding day
D G D Em
It's a free ride when you've already paid
D G D Em
It's the good advice that you just didn't take
F C D
And who would have thought...it figures

VERSE 2: [Clean guitar, same chords as Verse 1]


--------
Mr. Play It Safe, was afraid to fly.
He packed his suitcase, and kissed his kids goodbye.
He waited his whole damn life, just to take that flight.
And as the plane crashed down, he thought "well isn't this nice.."
And isn't it ironic.... don't you think?

CHORUS: [play same as first chorus]

BRIDGE: [Clean guitar]


-------
Cmaj7
Well life has a funny way
D4 D* D4
of sneaking up on you when you think everything is okay and
Cmaj7 D4 D* D4
everything is going right
Cmaj7
And life has a funny way
D4 D* D4
of helping you out when you think everything's gone wrong and
Cmaj7
everything blows up in your face

[end bridge with:]

E|--3--2--------|
B|--------3-----|
G|-----------0--|
D|--------------|
A|--------------|
E|--------------|

182
VERSE 3: [Clean guitar, strum the same chords as in Verses 1 & 2]
--------
Throughout the verse
keyboards play something like this:
E|-------------|--------------|
B|---3--0~~~~--|---0----------|
G|-2-----------|-2----0~~~~---|
D|-------------|--------------|
A|-------------|--------------|
E|-------------|--------------|

A traffic jam, when you're already late


A no-smoking sign on your cigarette break
It's like ten thousand spoons when all you need is a knife
It's meeting the man of my dreams and then meeting his beautiful wife.
And isn't it

| + . + . + . + . | + . + . + . + . | + . + . + . + . | + . + . + . + . |
E|-----------------|-----------------|-----------3-2p0--|-----------------|
B|----3-----3------|----3-----3------|----3--3--3-----3-|----3------------|
G|-2-----2---------|-2-----0---------|-2-----2----------|-2-----0---------|
D|-0-----0---------|-0-----2---------|-0----------------|-0-----0---------|
A|-----------------|-----------------|------------------|-----------------|
E|-2-----3---------|-2-----0---------|-2-----3----------|-2-----0---------|
ironic....don't you think a little too ironic..and yeah I really do think

CHORUS: [play same as first and second chorus]


-------

OUTRO: [Clean guitar]


------
Cmaj7 D4 D* D4
Cmaj7 D4 D* D4
Life has a funny way of sneaking up on you
Cmaj7 D4 D* D4 Cmaj7
Life has a funny, funny way of helping you out
Cmaj7 Cmaj7
Helping you out

183
Acda en de Munnik - Dag Esmee

D XX0232
Dm XX7765
A X77650
G X55430
F#7 X44320
F#* X44300
Dsus4 XX0233
Dsus2 XX0230

Intro:

E ------0--------0------0----5---7--5h7--5--(0)--0-------
B ------5h6------5------5h6--6---6--6----6--(0)--5-------
G ------7--------6------7----7-------------------6-------
D ------7--------7------7----7-------------------7-------
A ---------------0-------------------------------0-------
E -------------------------------------------------------
^ ^ ^^^^^^^^^^^^^^^^^^^^^
4 keer 4 keer (goed onthouden!)

A
Ik herkende je wel
G
Kwam alleen even niet op je naam
A
'tuurlijk, Ik weet het, 4 HAVO
F#7
Jij kon zo mooi zingen
F#* F#7 D Dsus4 D Dsus2 D
Wat doe je hier achter het raam?
Dm
Nee, 'k denk niet dat 'k me schaam

A
Okee, een kopje koffie dan
G
Maar mag het gordijn dan wel dicht?
A
Of moet ik je dan soms betalen?
F#7
Ha ha, 't was een grapje, hoe is het?
F#* F#7 D Dsus4 D Dsus2 D
Je schrok, zag het aan je gezicht
Dm
Ik zie geen pest door dit licht

A
Ik woon hier al maanden
G
Ik had je niet eerder gezien
A
De kortste weg richting de supermarkt
F#7
Ja, lang geleden, 's denken
F#* F#7 D Dsus4 D Dsus2 D
Toch zeker een jaartje of tien?
Dm
Drieentachtig misschien?

184
A
Ach, gewoon

Na de HAVO de kleinkunst
G
En toen met de band
A
Plaatje gemaakt nog, nee niet zo'n succes
F#7
Maar hoe is het met jou, nou?
F#* F#7 D Dsus4 D Dsus2 D
En waarom ben je dit wat je bent?
Dm
Is het drugs of een vent?

A
Gek kan het lopen, ja, ach
G
En wat doe je er aan?
A
Blij dat je zegt zo gelukkig te zijn
F#7
Ik geloof je, bedankt
F#* F#7 D Dsus4 D Dsus2 D
En ik denk da'k maar weer eens moet gaan
Dm
Bel gewoon maar eens aan

A G
Wat wou je worden dan? Nou, dan probeer je het weer
A
Weet ik veel, ga weer naar school of je ouders
F#7
Of het arbeidsbureau
F#* F#7 D Dsus4 D Dsus2 D
Daar weten ze vast wel wat meer
Dm
Tot de volgende keer

A
Gewoon door mijn droom te onthouden
G
En laat me nu gaan
A
Of denk je soms dat het zo simpel is
F#7
Vier jaar studeren, en dan
F#* F#7 D Dsus4 D Dsus2 D
Achter duizend artiesten te staan
Dm
Sta nog steeds onderaan

185
A
Ja, 't gaat me lukken, ja
G
Ga weg want ik wil naar de kroeg
A
Wat wil je weten

't Is ieder voor zich

F#7
En wat kan ik het helpen?
F#* F#7 D Dsus4 D Dsus2 D
Ik heb het al moeilijk genoeg
Dm
Nou, het beste ermee
A
Dag Esmee
Dm
't Beste ermee
A
Dag Esmee
Dm (speel hier het laatste stukje uit het intro)
't Beste ermee
A
't Beste ermee

186
Acda en de Munnik - Als Het Vuur Gedoofd Is

C9 X32033
Bmsus4 XX4430
G/B X20033

D) (C) (C9) (G)

E -----------------------------------------------
B ----------3-------------------3----------------
G 2-----2---2-----------------0-0-------0--------
D 0-----0-0------0h3-0--2-0h2---------0----------
A --0h3-------0h3-------3---------0h2---------33-
E -----------------------------------------0h3---

D C
Vrijdagmiddag in het Vondelpark
G D C G
November en nat
D C
Vlakbij de vijver zit een man, Herman
G D
En Herman is het zat
C9 G/B C9 D
Heeft een kut-jaar ge- had

Een man met alles


C
Wat je hebben kan
G D
Vrouw, kind, huis, auto, baan
C9 G/B
Zo'n baan
C G
Maar Herman wilde het ooit anders
D C9 G/B C9 D
En denkt daar nu al maanden aan

A7sus4
Hij denkt aan wat ie wou

En denkt ik was te laf

Hij denkt is dit het nou?


D Dsus2 D Dsus2 Bm Bmsus4 Bm Bmsus4 Asus4 A
Herman denkt zichzelf in het graf

D
Was het niet gisteren
C
Dat ik aankwam hier
G D C9 G/B
Pas achttien jaar jong?
D C
Zou ik niet feesten, zuipen, reizen?
G D C9 G/B C9 D
Zou ik niet doen wat ik ooit zong?

187
A7sus4
Maar reizen kan niet meer

Dat had ie mooi gedacht

Ja, reizen terug naar huis

Want er wordt met het eten gewacht

D Dsus2 D
Als het vuur gedoofd is
Bm Bmsus4 Bm
Als het vuur gedoofd is
A
Als het vuur gedoofd is
G
Dan komen de wolven

Bm F#m
Vrijdagmiddag in het Vondelpark
G
En Herman staat op
D
Hij zwaait zijn tas ver de vijver in
A/C# Bm
En zingt weer hardop

Allang geen achttien meer


F#m
En het heldendom voorbij
G
Maar als ik nu niet ga
A
Dan is voorgoed een droom voorbij

G C
Hen die ik pijn doe

Vergeef me mijn gemis


A
Maar alles gaat verkeerd
G A
En weet je wat het is?

D Dsus2 D
Als het vuur gedoofd is

Bm Bmsus4 Bm
Als het vuur gedoofd is

A
Als het vuur gedoofd is
G
Dan komen de wolven

188
D C
Dinsdagochtend op een grindpad
G D C9 G/B
Het weekend geweest
D
Men maakt zich op
C
Voor de wandeling
G/B D C9 G/B C9 D
Als ging men naar een feest
A7sus4
En Herman mag voorop

Heeft het als enige niet koud

Want hij gaat strak gekleed

In een kist van gevoerd vurenhout

D Dsus2 D
Als het vuur gedoofd is

Bm Bmsus4 Bm
Als het vuur gedoofd is

A
Als het vuur gedoofd is
G
Dan komen de wolven

D Dsus2 D
Als het vuur gedoofd is

Bm Bmsus4 Bm
Als het vuur gedoofd is

A
Als het vuur gedoofd is
G D C G
Dan komen de wolven
D C G C D
Komen de wolven

189
Melissa Etheridge - Bring me some water

Am-riff:
e |----------------------------------|
B |----------------------------------|
G |----------------------------------|
D |--5h7--7--7--7--7--7—7p5----------|
A |--5h7--7--7--7--7--7-----7--------|
E |--5-------------------------------|

D-riff:
e |----------------------------------|
B |----------------------------------|
G |--5h7--7--7--7--7--7—7p5----------|
D |--5h7--7--7--7--7--7-----7--------|
A |--5-------------------------------|
E |----------------------------------|

Am-riff
Tonight I feel so weak

but all in love is fair

I turn the other cheek


Am---
And I feel the slap and the sting of the foul night air
D-riff Am
And I know you‘re only human, and I haven‘t got talking room
D-riff
But tonight while I‘m making excuses
E
Some other woman is making love to you

A G D
Somebody bring me some water
A G D
Can‘t you see Im burning alive
A G D
Can‘t you see my baby‘s got another lover
A G D
I dont know how I‘m gonna survive
A G D
Somebody bring me some water
A G D
Can‘t you see it‘s out of control
A G D
Baby‘s got my heart and my baby‘s got my mind
E
But tonight the sweet devil
E--- A
the sweet devil‘s got my soul

When will this aching pass


When will this night be through
I want to hear the breaking glass
I only feel the steel of the red hot truth
And I‘d do anything to get it out of my mind
I need some insanity that temporary kind
Tell me how will I ever be the same
When I know that woman is whispering your name

[REFREIN]

190
Acda en de Munnik - Als Je Bij Me Weggaat

G5 3X0033
Em7 022033
Cadd9 X32033
F# 244322
Em6 022020 of X42000
Cmaj7 X32000

INTRO: G5 / Cadd9 (2x)

G5
Ik ken je nu een dag of twee
Cadd9
Wil je nu al nooit meer missen
G5 D Dsus4 D Dsus2 D
Besef ineens dat het nu beginnen gaat
G5 Em7
En ik vraag me stiekem af
A7 Cmaj7
Wat ik zou doen als jij zou sterven
Em6 F# Bm7 B7
Of een ander vindt of mij gewoon verlaat
G5
En op slag ben ik jaloers
Cadd9
En denk aan vreselijke dingen
G5 D Dsus4 D Dsus2
Die nu komen gaan omdat ik zo van je hou
Em7 A7
Waarom kan ik niet gewoon hier zijn
Em Cmaj7
Zonder te verdwalen
Em6 F# Bm7 B7
Waarom kan ik niet, niet gewoon hier zijn bij jou
G5
En dan kan ik het niet laten
Bm
Met geen leger te bedwingen
C D Dsus4 D Dsus2
Stap ik zachtjes uit het bed en pak een bier
G5 Em7
En terwijl ik naar je kijk
Em6 Cmaj7
Hoe jij in ons bed ligt te slapen
Em6 F# Bm B7
Schrijf ik huilend die twee regels op papier

191
REFREIN:
G5 A
Als je bij me weggaat
C D
Als je bij me weggaat
G5
Mag ik dan met je mee?
A
Als je bij me weggaat

Mag ik dan met je mee


C
Mag ik dan met je mee?

D / G5 / A
(heejeeheejee etc...)
C D
Als je bij me weggaaahaaat

Em
Mag ik dan met je mee

Solo over: (Em) / C / D / G5 / Em / A7 / C / D / G5

192
Acda en de Munnik - Mooi Liedje

B7/A x 0 1 2 0 2
FaddB/A
G/A 0 0 0 0 0 3

(intro): A B7/A Dm/A A

e |--9-----------9--7------8-7-5--5-----|
B |-10--12--10---7----10---6------5-----|
G |--9-----------8---------5------6-----|
D |-------------------------------7-----|
A |--0-----------0---------0------0-----|
E |-------------------------------------|

A FaddB/A
Vanacht, als ik alleen ben
A FaddB/A
Niet meer weet wat ik moet doen
A G/A F/A
Drink ik veel dan wordt het laat

C G C

(C) G F
Wil ik dat je voor me staat
C G F C
Ik vertel je dat het niet meer gaat
F E A
En dan geef je mij een zoen

(refrein; als intro)


En dan zing ik een
A B7/A
Mooi liedje, een mooi liedje,
Dm/A A
Een mooi liedje voor jou

A FaddB/A
Ik rook, m'n laatste peuk weg
A FaddB/A
En daarna moet ik naar bed
A G/A F/A
Om na een uur weeer op te staan

C G C

(C) G F
Om weer naar buiten toe te gaan
C E F C
Dat ik ons dit heb aangedaan
F E A
Ik hoop dat jij je redt

193
(refrein)
En dan zing ik een
A B7/A
Mooi liedje, een mooi liedje,
Dm/A A
Een mooi liedje voor jou

(tussenstukje): A B7/A Dm/A A (octaaf hoger gespeeld)

A FaddB/A
Vanacht, als ik alleen ben
A FaddB/A
En weer eens huil om jou
A G/A F/A
Drink ik veel te vage dingen

C G C

(C) G F
Niet in staat me te bedwingen
C E F C
Wil ik alleen mijn pijn bezingen
F E A
En daarom zing ik nou

(refrein)
A B7/A
Dm/A A
Een mooi liedje voor jou

194
Acda en de Munnik - Niemand Sterft

INTRO: A

A
He, meneer, hoe is het weer?
D
En hoe is het met uw tuin?
E
En de kinders, alles goed?
D E D A
En uw vrouw wordt ze al bruin?

A
En uw moeder bij de tijd nog?
D
De vakantie al geboekt?
E
Wat doet u achter het Centraal dan?
D E D A
Is het de dood soms die u zoekt?

REFREIN:

F#m G
Want niemand sterft aan liefde
A
Maar aan onverschilligheid
F#m G
Of aan trots of domme fouten
A
Of gewoon onwetendheid
F#m E D
Niemand sterft aan liefde
F#m E D
Wat houdt mij dan op de been?!
F#m E D
Niemand sterft aan liefde
A
Maar om alles er omheen

A
He, studentje, lekker ventje
D
Gaat de studie nog naar wens?
E D E D A
En vanavond lekker stappen? Want je pik staat in de hens

A
Verse dame zonder plastic
D
Want dat is te veel gedoe
E
Ga maar liggen mooie tijdbom
D E D A
Je bent vast het leven moe

(REFREIN)

195
A / Asus4 / A / Asus4

A Asus4
't Is een grote ziekte, kleine naam
A G?
Het trapt iedereen opzij
D Dm
Blijf maar wijzen met je vinger
A Asus4 A
Want dan mag je in de rij

G
Vlak achter mij,
D A
kom maar in de rij

196
Acda en de Munnik - Het Geeft Niet

F# C#\F D#m
't Geeft niet dat je mij het liefste nu verrot zou slaan
B Bbm D#m G# C# B
Als dat je wat kalmeert laat ik jou je gang wel gaan
F# C#\F D#m D
't Geeft niet dat je liever nog verrekte van de pijn,
B Bbm D#m G# C# B
dan nog één seconde in m'n buurt te moeten zijn, maar

F# C#\F D#m
ga toch alsjeblieft niet met 'n ander
B F# G# C# B
en laat me lekker dromen over jou
F# C#\F D#m D
En weet als je 't vraagt dat ik verander
B C# B C#
omdat ik zo verdomd veel van je hou

't geeft niet dat je je niet langer voor wil laten liegen
dat jij niet langer toestaat dat ik jou loop te bedriegen
't Geeft niet dat jij al die jaren zomaar weg wilt smijten
Dat jij je niet gelukkig voelt en dat mij weer gaat verwijten, maar

F# C#\F D#m
ga toch alsjeblieft niet met 'n ander
B F# G# C# B
en laat me lekker dromen over jou
F# C#\F D#m D
En weet als je 't vraagt dat ik verander
B C# D
omdat ik zo verdomd veel van je hou

G D Em
ga toch alsjeblieft niet met 'n ander
C G A D C
en laat me lekker dromen over jou
G D Em D#
En weet als je 't vraagt dat ik verander
C D G
omdat ik zo verdomd veel van je hou

Outro: G | D | Em | % |
C | G | A | D C |
G | D | Em | D# |
C | D | G | Em |
C | D | G--- |

197
Acda en de Munnik - Wacht Op Mij

intro: E A E A7 E(7) A(7) E(7) A(7)

E A
Ik wil je graag vertellen wat er rondspookt in mijn hoofd
F#7 B A(sus2)
Zou iemand mij het zeggen, zou het nooit hebben geloofd
E A
Ik ben alleen vertrokken, liet een briefje 'Wacht op mij'
F#7 B B A# A G#
Drie zorgeloze woorden hoort een radeloze bij.

G# A
Ik wil je graag vertellen wat er rondspookt in mijn brein
E D7 A E
Maar wie eerlijk is in alles zal wel eenzaam zijn

Ik wil je graag vertellen, maar ik kan niet, weet niet hoe


Soms wil ik het proberen, maar ik kom er nooit aan toe
Ik draai maar om de waarheid heen, ook omdat ik die niet echt ken
Weggaan leek het simpelst, weg van alles wat ik ben

G# A
Ik wil je graag vertellen wat er rondspookt in mijn brein
E D A E
Maar wie eerlijk is in alles zal wel eenzaam zijn
E D A E
Ik wil wel eerlijk zijn in alles, maar niet eenzaam zijn.

E
Maar wacht op mij - Wacht op mij
A A/G#bass
Want ik kom eraan - Wacht op mij
F#7 B B7
Zoals altijd, zoals altijd te laat

E
Maar wacht op mij - Wacht op mij
A A/G#bass
Want ik kom eraan - Wacht op mij
F#7 B E
Zoals altijd, zoals altijd te laat

B C#m A
En ik loog me door het leven heen en tot gister ging het goed
E B
Zal je zeggen waar het fout ging, als ik weet hoe't verder moet
C#m A C#m F#
en ik vraag alleen maar wacht op mij, 't kan alleen maar beter gaan
A B E
Ik wil eerlijk zijn in alles en dan naast je mogen staan

E
Maar wacht op mij - Wacht op mij
A A/G#bass
Want ik kom eraan - Wacht op mij
F#7 B B7
Zoals altijd, zoals altijd te laat

198
Acda en de Munnik - Niet of Nooit geweest

F9 = F Negen = -1-3-1-2-1-3-
G(5) = G Vijf = 3-2-0-0-3-3-
G/F# = G, Fis Bass = -2-2-0-0-0-3-
Cadd9 = C Add Nine = -X-3-2-0-3-0-

Intro: F9 | % | G5 D | Cadd9 | G5 D | Am | % |

G(5) Cadd9 G(5) Cadd9


Ik zie twee mensen op het strand, vlakbij het water hand in hand
G(5) D
De zon zakt, ze zwijgen van geluk
G(5) Cadd9 G(5) Cadd9
Ik ken haar net want dat bij jij, ze lacht naar hem hij lijkt op mij
G(5) Em Bm D
Maar dat kan niet, want ik maak alles stuk
G(5) G(5)/F# Em G(5)
Ik kan die jongen toch niet zijn, die rust die liefde niks voor mij
Cadd9 G(5) A D
Maar waarom lijkt het, dan toch zo vertrouwd
G(5) Cadd9 G(5) Cadd9
Ik heb je lief, zoals je ziet, maar ergens klopt er hier iets niet
G(5) Em D D/C | D/B D/A
Ik draag een ring maar, ik heb jou nooit getrouwd

G5 D Cadd9
Ik ben mezelf niet of al die jaren nooit geweest
G5 D Cadd9
Ik ben de gangmaker op het verkeerde feest
Cadd9 G5 D Cadd9
Ik ben mezelf niet of nooit geweest
Cadd9 G5 D F9
Ik ben mezelf niet of nooit geweest

Ik zie twee mensen, ze gaan staan, ze draait zich om we moeten gaan


Kijk in d‘r ogen zie dezelfde pijn
Twee mensen eerder al verbonden, al die verliefdheid wat een zonde
Ze zijn het allebei maar willen het niet zijn
Ik ben mezelf niet of al die jaren nooit geweest
Ik ben de schoenmaker op het verkeerde leest
Ik ben mezelf niet of nooit geweest
Ik ben mezelf niet of nooit geweest

Bm Am Am G
Oh laat het de zon zijn, laat het de zon zijn,
G C/G C/G A
Oh laat het het strand zijn laat het de zee zijn
A D B Bm
Laat mij iets doen nu waardoor je mij nooit meer wil zien
Bm A A G
Oh laat het het zout zijn, laat het het zout zijn,
C/G
laat het mijn allerdomste fout zijn
A D B C/G
Maar laat me dit nooit meer vergeten, nooit meer vergeten
D Cadd9
Laat me dit nooit meer vergeten bovendien

199
Ik ben mezelf niet of al die jaren nooit geweest
Ik ben mezelf niet of al die jaren nooit geweest
Ik ben mezelf niet of nooit geweest
Ik ben mezelf niet of nooit geweest
Ik ben mezelf niet of nooit geweest, of al die jaren nooit geweest
Ik ben mezelf niet of nooit geweest, of al die jaren nooit geweest

Outro: F9 | C Bb Bb G |

200
Acda en de Munnik - Ren Lenny Ren

D/Dsus4/Dsus2/Dsus4/D (5)

D Dsus4
Zoek me om je heen als je voelt dat je me mist.
Dsus2 Dsus4 D
Ik weet gerust wat mijn vertrek heeft aangericht.
Dsus4
Ik kom wanneer je wil, denk maar m´n vader is de wind
Dsus2 Em G D/Dsus4/Dsus2/Dsus4/D
Ik ben zo licht nu. Ik vind altijd je gezicht.

D Dsus4
Zoek me om je heen als je boos bent of verdrietig.
Dsus2 Dsus4 D
Of vertellen wilt van wat je hebt beleefd.
Dsus4
Ik kom wanneer je wilt , ik ben je vader toch de wind
Dsus2 Dsus4 D
Maar veel verschilt het niet van hoe snel ik heb geleefd.

D Dsus4
Als het pannen van daken waait, als het gras naar je voeten graait,
Dsus2 Dsus4 D
als de wind langs je wangen aait, hier ben ik.

D
Als de zee je met schuim bezinkt
C G
Als het huilen langs huizen klinkt
C G D
Als de wind je voorover dwingt, hier ben ik.

D G
Ren Lenny ren
C G D
Als je me mist ren even heel hard met me mee.
D G
Ren Lenny ren
C Em G D
En ben je boos, heb je geen zin ren dan toch maar hard tegen me in ren Lenny
ren

D Dsus4
Zoek me in de bomen, zie de toppen zwaaiend gaan,
Dsus2 Dsus4 D
ik ben je vader, de wind, ik kom eraan. (ren ren ren)
D Dsus4
Zoek me in de haven, en als de boten langzaam dansen gaan,
Dsus2 Dsus4 D
je vader, de wind komt eraan (ren ren ren)

D Dsus4
Als het graan op de velden wuift, als het zand over duinen stuift,
Dsus2 Dsus4 D
Als de wind zelfs je fiets verschuift, hier ben ik. Ren Lenny Ren
D C G
Als je haar voor je ogen waait, als je jas om je lichaam draait
C G D
als de wind langs je wangen aait, weet dat ik je mis

201
D G
Ren Lenny ren
C G D
Als je me mist ren even heel hard met me mee.
D G
Ren Lenny ren
C Em G D
En ben je boos, heb je geen zin ren dan toch maar hard tegen me in ren Lenny
ren

D G
Ren Lenny ren
C G D
Als je me mist ren even heel hard met me mee.
D G
Ren Lenny ren
C G D
En ben je boos, heb je geen zin ren dan toch maar hard tegen me in ren Lenny
ren

D G
Ren Lenny ren
C
Ren Lenny ren
G D
Ren Lenny ren ren
D G
Ren ren Lenny ren ren
C Em G D
Ren Lenny ren Lenny ren Lenny ren ren Lenny ren

D/Dsus4/Dsus2/Dsus4/D

202
Acda en de Munnik - Slaapliedje

CAPO 1

Intro (Riff1) & en deels verse (Riff 1 & 2):

Riff1 Riff2
Dsus4 C G G/B

|-----3-------3-------3-------3------|------3------
|-------3-------3-------3-------3----|--------3----
|---2-------0-------0-------0--------|----0--------
|-0----------------------------------|-------------
|---------3--------------------------|--2----------
|-----------------3-------3----------|-------------

Dsus4 C G
Laat me zitten in het donker
Dsus4 C G
Laat me zitten in de nacht
D C G
Ik zie je schaduw in het duister
C Am
Ga maar slapen, \'k hou de wacht

Laat me zachtjes voor je zingen


Een lied wat net nog niet bestond
Een lied wat morgen weer verandert
En zo nooit wordt afgerond

C G
Laat me zitten
C G
Laat me zingen
C D
Van zo blij dat ik er ben
C G
Van je ogen, je lach
C G
Je tranen, die dingen
C C/B A D
Die ik zelfs hier in het donker nog herken

Geef je over aan het donker


Laat je vallen in de nacht
Vergeet alles wat er was, weet
Dat ik morgen op je wacht

Gaan we morgen samen spelen


Gaan we lachen in de zon
Ik zal je zingen van het leven
En hoe het dat pas bij jou begon

Geef je over
Ik zal je zingen
Van een wereld zonder pijn
Je hoeft niet te weten
Van die dingen
Alleen zo hier met mij samen te zijn

203
Riff3 (Em)
D|-0-1-2---
A|-----2---
E|---------

Em Am C
En te horen van een leven
Em Am B7
Waarin de liefde weer regeert
C D C G
En te geloven, al is het maar even
C D
Dat de haat wordt aangeleerd
Em Am B7
Dat de mensen liever zoenen
C D C G
Dan dat ze vechten op het journaal
A
Dat beer weer beter wordt
C
De poes morgen wel weer opstaat

D (aanhouden)
Dat die ook slaapt en dat het goed komt allemaal

(Zelfde als de verse)


Hoor me zingen van een afstand
Hoor me zingen door de nacht
Ik vraag de sterren om bescherming
Ik zie de maan die ook naar jou lacht

Morgenochtend ben ik bij je


Kijk je op in mijn gezicht
En een kusje voor je moeder
C D G
Die daar in het grote bed naast je ligt

204
Acda en de Munnik - Slaapliedje

CAPO: 4

e-----0-------0-------0-------0--------0-------0-------0-------0---
B-------0-------0-------0-------0--------0-------0-------0-------0-
G------------------------------------------------------------------
D---4-------2-------2-------2--------4-------2-------2-------2-----
A-2-------0------------------------2-------0-----------------------
E-----------------0-------0------------------------0-------0-------

Laat me zitten in het donker Laat me zitten in de nacht


e-----0-------0-------0-------0--------0-------0-------0-------0---
B-------0-------0-------0-------0--------0-------0-------0-------0-
G------------------------------------------------------------------
D---4-------2-------2-------2--------4-------2-------2-------2-----
A-2-------0------------------------2-------0-----------------------
E-----------------0-------4------------------------0-------4-------

Ik zie je schaduw in het duister Ga maar slapen, 'k hou de wacht


e-----0-------0-------0--------------------------------------------
B-------0-------0-------0-----0------------5-----------------------
G--------------------------------------2-----2---2-----2-----------
D---4-------2-------2------------------2-------2---------2---2---2-
A-2-------0-----------------4--------4---4-----------4-------------
E-----------------0-------5-----4--2---------------2-------4---5---

Laat me zachtjes voor je zingen Een lied wat net nog niet bestond
e-----0-------0-------0-------0--------0-------0-------0-------0---
B-------0-------0-------0-------0--------0-------0-------0-------0-
G------------------------------------------------------------------
D---4-------2-------2-------2--------4-------2-------2-------2-----
A-2-------0------------------------2-------0-----------------------
E-----------------0-------4------------------------0-------4-------

Een lied wat morgen weer verandert En zo nooit wordt afgerond


e-----0-------0-------0-------0------------------------------------
B-------0-------0-------0-------0--------2-4-2-----------2-4-2-----
G--------------------------------------4-------4-------4-------4---
D---4-------2-------2-------2--------4-----------4---4-----------4-
A-2-------0------------------------2---------------2---------------
E-----------------0-------4----------------------------------------

Laat me zitten Laat me zingen Van zo blij dat ik er ben Van je


e------------------------------------------------------------------------
B------------------------------------------------------------2-4-2-------
G-----2----1-----------2----1-----------2---------2--------4-------4-----
D---2---2--2-2---2---2---2--2-2---2---2---2-----2---2----4-----------4---
A-0------------2---0------------2---0-------2h4--------2---------------2-
E------------------------------------------------------------------------

ogen, je lach Je tranen, die dingen Die ik zelfs hier in het donker nog
herken
e-------------------------------------------------------------------------------------------
B-------------------------------------------------------------------2-------------2-4-2-----
G-----2----1-----------2----1-----------2---------------3-------4-----4---4-----4-------4---
D---2---2--2-2---2---2---2--2-2---2---2---------2-------------4---4-----4-----4-----------4-
A-0------------2---0------------2---0-----0---2---2---4---4-2---------------2---------------
E-------------------------------------------4-------2---------------------------------------

205
Geef je over aan het donker Laat je vallen in de nacht
e-----0-------0-------0-------0--------0-------0-------0-------0---
B-------0-------0-------0-------0--------0-------0-------0-------0-
G------------------------------------------------------------------
D---4-------2-------2-------2--------4-------2-------2-------2-----
A-2-------0------------------------2-------0-----------------------
E-----------------0-------4------------------------0-------4-------

Vergeet alles wat er was, weet dat ik morgen op je wacht


e-----0-------0-------0--------------------------------------------
B-------0-------0-------0-----0------------5-----------------------
G--------------------------------------2-----2---2-----2-----------
D---4-------2-------2------------------2-------2---------2---2---2-
A-2-------0-----------------4--------4---4-----------4-------------
E-----------------0-------5-----4--2---------------2-------4---5---

Gaan we morgen samen spelen gaan we lachen in de zon


e-----0-------0-------0-------0--------0-------0-------0-------0---
B-------0-------0-------0-------0--------0-------0-------0-------0-
G------------------------------------------------------------------
D---4-------2-------2-------2--------4-------2-------2-------2-----
A-2-------0------------------------2-------0-----------------------
E-----------------0-------4------------------------0-------4-------

Ik zal je zingen van het leven en hoe het dat pas bij jou begon
e-----0-------0-------0-------0------------------------------------
B-------0-------0-------0-------0--------2-4-2-----------2-4-2-----
G--------------------------------------4-------4-------4-------4---
D---4-------2-------2-------2--------4-----------4---4-----------4-
A-2-------0------------------------2---------------2---------------
E-----------------0-------4----------------------------------------

Geef je over Ik zal je zingen Van een wereld zonder pijn


e------------------------------------------------------------------------
B------------------------------------------------------------2-4-2-------
G-----2----1-----------2----1-----------2---------2--------4-------4-----
D---2---2--2-2---2---2---2--2-2---2---2---2-----2---2----4-----------4---
A-0------------2---0------------2---0-------2h4--------2---------------2-
E------------------------------------------------------------------------

Je hoeft niet te weten Van die dingen Alleen zo hier met mij samen te zijn
e-------------------------------------------------------------------------------------------
B-------------------------------------------------------------------2-------------2-4-2-----
G-----2----1-----------2----1-----------2---------------3-------4-----4---4-----4-------4---
D---2---2--2-2---2---2---2--2-2---2---2---------2-------------4---4-----4-----4-----------4-
A-0------------2---0------------2---0-----0---2---2---4---4-2---------------2---------------
E-------------------------------------------4-------2---------------------------------------

En te horen van een leven Waarin de liefde weer regeert En te


geloven, al is het maar even
e------------------------------0---0------------------------------0--------------------------
B--------------5---------------------2-1-----5--------------------------4--------------------
G--------------6------3------2---2-----------6-----3-----5------2-------4-------2----------1-
D------------6--------4----2---------------6-------4-----6----2-------4---4---2---2------2---
A-2-2-3-4--4--------4----0---------------4-------4-----6----0-------2-------0---------0h2----
E-----------------2----------------------------2-----4------------------------------0--------

Dat de haat wordt aangeleerd Dat de mensen liever zoenen Dan dat ze vechten
op het journaal
e------------------------------------------------------------------------------
B----------------2-4-2---------5--------------------------4--------------------
G-----2--------4-------4-------6-----3-----5------2-------4-------2----------1-
D---2---2----4-----------4---6-------4-----6----2-------4---4---2---2------2---
A-0--------2---------------4-------4-----6----0-------2-------0---------0h2----
E--------------------------------2-----4------------------------------0--------

206
Dat beer weer beter wordt De poes morgen wel weer opstaat Dat die ook slaapt
en dat het goed komt allemaal
e-----------------------------------------------------------------------
B--------------------------2-4-2------------2-4-2------------2-4-2------
G-----3---------2--------4-------4--------4-------4--------4-------4----
D-----4-------2---2----4-----------4----4-----------4----4-----------4--
A---4---4---0--------2----------------2----------------2----------------
E-2-------4-------------------------------------------------------------

e-----0-------0-------0-------0--------0-------0-------0-------0---
B-------0-------0-------0-------0--------0-------0-------0-------0-
G------------------------------------------------------------------
D---4-------2-------2-------2--------4-------2-------2-------2-----
A-2-------0------------------------2-------0-----------------------
E-----------------0-------4------------------------0-------4-------

Hoor me zingen van een afstand hoor me zingen door de nacht


e-----0-------0-------0-------0--------0-------0-------0-------0---
B-------0-------0-------0-------0--------0-------0-------0-------0-
G------------------------------------------------------------------
D---4-------2-------2-------2--------4-------2-------2-------2-----
A-2-------0------------------------2-------0-----------------------
E-----------------0-------4------------------------0-------4-------

Ik vraag de sterren om bescherming ik zie de maan die ook naar jou lacht
e-----0-------0-------0--------------------------------------------
B-------0-------0-------0-----0------------5-----------------------
G--------------------------------------2-----2---2-----2-----------
D---4-------2-------2------------------2-------2---------2---2---2-
A-2-------0-----------------4--------4---4-----------4-------------
E-----------------0-------5-----4--2---------------2-------4---5---

Morgenochtend ben ik bij je kijk je op in mijn gezicht


e-----0-------0-------0-------0--------0-------0-------0-------0---
B-------0-------0-------0-------0--------0-------0-------0-------0-
G------------------------------------------------------------------
D---4-------2-------2-------2--------4-------2-------2-------2-----
A-2-------0------------------------2-------0-----------------------
E-----------------0-------4------------------------0-------4-------

En een kusje voor je moeder die daar in het grote bed naast je ligt
e-----0-------0-------0----------------------------------------4----
B-------0-------0-------0-----0------------5-------------------0----
G--------------------------------------2-----2---2-----2-------1----
D---4-------2-------2------------------2-------2---------2-----2----
A-2-------0-----------------4--------4---4-----------4---------2----
E-----------------0-------5-----4--2---------------2-------4---0----

207
Gabriella Cilmi - Sweet About Me

C# E B C#
Ohh watching me, hanging by a string this time
C# E B C#
Ohh easily, the climax of the perfect lie.
C# E B C#
Ohh watching me, hanging by a string this time.
C# E B C#
Ohh easily, smile worth a hundred lies.

If theres lessons to be learned,


I'd rather get my jamming words in first so,
tell you something that I've found,
that the worlds a better place when its upside down boy.
If theres lessons to be learned,
I'd rather get my jamming words in first so,
when your playing with desire,
don't come running to my place when it burns like fire boy.

Sweet about me, nothing sweet about me


Sweet about me, nothing sweet about me
Sweet about me, nothing sweet about me
Sweet about me, nothing sweet about me

Blue, blue, blue,


waves they crash as time goes by,
so hard to catch. Too, too smooth,
ain't all that,
why don't you ride on my side of the tracks.
'If theres lessons to be learned,
I'd rather get my jamming words in first so,
tell you something that I've found,
that the worlds a better place when its upside down boy.'
If theres lessons to be learned,
I'd rather get my jamming words in first so,
when your playing with desire,
don't come running to my place when it burns like fire boy.

Sweet about me, nothing sweet about me


Sweet about me, nothing sweet about me
Sweet about me, nothing sweet about me
Sweet about me, nothing sweet about me
Sweet about me, nothing sweet about me
Sweet about me, nothing sweet about me
Sweet about me, nothing sweet about me

208
Acda en de Munnik - Waar Was Je Dan

Intro:
Dm Bb F A
Dm Bb F A

[Couplet]
Dm Bb
Waar was je dan,
F
Toen ik je belde,
A
Je vertelde later,
Dm Bb
Het was met vrienden in de stad,
F
D‘r was nog wat,
A Dm Bb F A
Een feest en daar zou jij dan zijn geweest,

[Couplet]
Wat deed je dan,
Toen je me hoorde,
Ik je stoorde,
In je spel van de vlinder in de nacht,
Je zei te zacht: ‗Niet doen, nu maar slapen‘,
En een zoen...

[Chorus]
Gm
En ik weet dat ik je niet claimen zal,
Dm Bb
Geen problemen zou gaan maken,
F
Als het moeilijk werd,
Gm
En ik weet dat ik je laten zou,
Dm Bb
Je verlaten zou ik nooit,
F
Nooit,
Gm
Maar dat het moeilijk werd,
Bb
Zo moeilijk werd,
A
Wie verwachte dat nou ooit.

[Couplet]
Maar waar bleef je dan,
Toen ik wachtte je verwachte in m‘n bed,
Ik had de wekker nog gezet,
Omdat jij toch nog komen zou,
Maar waar bleef je nou,
Waar bleef je nou,
Waar bleef je nou.

209
[Couplet]
Ik ga stuk hier,
En ik wacht maar,
En jij lacht maar ,
Alles goed,
Alles goed,
Ik ben er toch,
Ik ben toch bij je,
En we vrijen,
Alles goed.

[Bridge]
Dm Bb
Maar waar was je dan,
F
Toen ik je kuste,
A
Je uitgebluste ogen,
Dm Bb
Je bezwete wangen kuste zacht,
A C Gm
Ik weet niet wat je dacht,
Gm
Maar wel wat ik nu denk,
Bb
En wat ik niet veel langer kan,
Gm7
Liefde lieve lief,

[Couplet]
Waar ben je dan,
Waar ben je dan,
Waar ben je dan,
Waar, waar ben je dan,
Waar ben je dan,
Waar.

210
Acda en de Munnik - Verkeerd Verbonden

Cm/Bb/F (2x)

Cm Bb F
Ik heb nog helemaal niks gedaan vandaag
Fm Eb G
Alleen ontbeten, een boterham gegeten
Cm Bb F
De sloten koffie in mijn maag
Fm Eb Bb
Nu is het half vijf, weer wat houvast in mijn lijf
Cm Bb F
En mijn god wat gleed de tijd vandaag
Fm Eb G
Als in een droom, toch voel ik me loom
Cm Bb F
Mijn hele wereld gaat zo traag
Fm Ab Cm Ab
Zelfs de telefoon is niet helemaal op toon
Nana

Cm
En als ik dan opneem (als ik dan opneem)
Fm
Verkeerd verbonden (verkeerd verbonden)
Cm
Dus neem ik niet meer op
Ab G Cm Eb Ab G
Ik lik zelf mijn wonden wel vandaag

Cm Bb F
Ik heb van je gedroomd vannacht
Fm Eb G
En we speelden dat we alles deelden
Cm Bb F
Je stem klonk iets te zacht
Fm Eb Bb
Verstond niet wat je zei nananana nog van mij
Cm Bb F
En toch hebben we gedanst vannacht
Fm Eb G
Tien jaar ouder, hoofd op schouder
Cm Bb F
Ik had het echt niet meer verwacht
Fm Ab
Dacht dat ik geluk had maar mijn schouder werd zo nat

Cm
En als ik dan opneem (als ik dan opneem)
Fm
Verkeerd verbonden (verkeerd verbonden)
Cm
Dus neem ik niet meer op
Ab G Cm Eb Ab G
Ik lik zelf mijn wonden wel vandaag

211
Ab Eb
Ik ga naar je opzoek vannacht
Fm Eb
En in alle straten zal ik praten
Ab Eb
Met iedereen die naar me lacht
Fm F7
Of naar me kijkt of maar een beetje op jou lijkt
Ab Eb
En ik weet dat ik je vind vannacht
G Cm
En ik neem je mee naar huis
Ab
Je zult lachen, je bent thuis
Eb
De dag is weer gered
Ab
Want ik droom je in mijn bed

Cm
En als ik dan opneem (als ik dan opneem)
Fm
Verkeerd verbonden (verkeerd verbonden)
Cm
Dus neem ik niet meer op
Ab G Cm Fm
Ik lik zelf mijn wonden wel vandaag
Cm
Dus neem ik niet meer op
Ab G Cm Fm
Ik lik zelf mijn wonden wel vandaag
Fm
Verkeerd verbonden
Cm
Dus neem ik niet meer op

Cm/Ab/G (3x) Cm

212
Acda en de Munnik - Hoe Rook Het Vondelpark Vannacht

G5 3x0033
Fmaj7 X33210
G6 3X0000

INTRO: Asus2 / Asus2/F# / G5 / Dsus2 / D/ Dsus4 / D

Asus2 Asus2/F#
Een meneer
G5 D
zit met een dame op een terras
Asus2 Asus2/F#
Zij huilt en hij is kwaad
G5
Hij schreeuwt
D E
Ze geeft geen antwoord op zijn vraag
D D/F#
En haar tranen zijn te laat

Asus2 Asus2/F# G5 D
Dan duikt ie in zijn tas
Asus2 Asus2/F#
En ze weet ze gaat eraan
G5
Hij heeft van ver genomen foto's
D
Waarop staat
E
Wat ze met wie waar heeft gedaan

Asus2 G5 D
Hoe rook het Vondelpark vannacht?
F G
Hij vraagt het steeds

Hij wil het weten


Asus2 G5 D
Hoe rook het Vondelpark vannacht?

Asus2 Asus2/F# G5 D
Een meisje zit alleen op het terras
Asus2 Asus2/F#
En een jongen wil haar mee
G5
Hij schrijft
D E
Steeds op zijn krant een nieuwe zin
D D/F#
En dan schudt zij weer van nee
Asus2 Asus2/F#
Dan hoort ie verderop
G5 D
De man (de man)
Asus2 Asus2/F#
De man die steeds hetzelfde vraagt
G5 D
Hij schrijft: 'hoe ruikt het Vondelpark vannacht?'
E
En heeft haar harnas weggevaagd

213
Asus2 G5 D
Hoe rook het Vondelpark vannacht?
F G
Hij knikt, ze lacht

Ze wil het weten


Asus2 G5 D
Hoe ruikt het Vondelpark vannacht?

BRUG:

Fmaj7 G6 Am7
Een jongen zit alleen op het terras
Em7 Fmaj7
En rookt tevree een sigaret
G6 Fmaj7
Hij heeft de mensen van zo-even
G6
En hun tekst op rijm gezet

Asus2 Asus2/F#
En ik zit achter hem
G5
En zet ook hem op het papier
D
Dan betaal ik en ga weg
E
Er zijn me iets te veel liedjesschrijvers (iets te veel liedjesschrijvers)
hier

REFREIN 3:

Asus2 G5 D
Hoe rook het Vondelpark vannacht
F G
Wat maakt het uit? Wie kan het schelen?
Asus2 G5 D
Hoe rook het Vondelpark vannacht?
F G
Naar bos, wat had je dan gedacht?!
Asus2 G5 D
Hoe rook het Vondelpark vannacht?

/ F / G /

Asus2 G5 D
Hoe rook het Vondelpark vannacht?

214
Golden Earring - Radar Love

[intro]
--------------------------------------
--------------------------------------
-----------------------2--------------
-----2-4----2------2-4---2------------
---4------4---2--4----------0-2-2-----
--------------------------------0-----

[drum intro]
[bass intro]

[verse 1]
I've been drivin' all night, my hand's wet on the wheel

[riff 1]
-----------------
-----------------
--4/6-4-2-4-4-2--
--4/6-4-2-4-4-2--
-----------------
-----------------

there's a voice in my head that drives me heel [riff 1]

it's my baby calling, says I need you here [riff 1]

and it's half past four and I'm shifting gear [riff 1]

E B F#
when she gets lonely and the longing gets too much
E B
she sends a cable coming in from above
C#
don't need no phone at all
D A E F#
we've got a thing that's called radar love
D A E
we've got a wave in the air . . . . radar love

[verse 2]
the radio's playin some forgotten song
[riff 2]
---------------------
-14----17------------
-14----16------------
----16----15/16------
---------------------
---------------------

Brenda Lee's "Coming on stong" [riff 2]


the road has got me hypnotized
[ riff 1 up an octave ]
------------------------
------------------------
--16/18-16-14-16-16-14--
--16/18-16-14-16-16-14--
------------------------
------------------------

and I'm speeding into a new sunrise [riff 1]

215
[repeat chorus]

[bass and keyboard interlude with guitar solo fading in]

----------------------------------------------
-10-9--12-10-9-9-10----10-9--12-10-10-10------
--9-9---9--9-9-9--9-----9-9---9--9--9--9------ [play two or three times]
--9-9---9--9-9-9--9-----9-9---9--9--9--9------
----------------------------------------------
----------------------------------------------

--------------------------------------------
-14-12--15-14-12-12-14---14-12--15-14-12-14-
-12-12--12-12-12-12-12---12-12--12-12-12-12-
--------------------------------------------
--------------------------------------------
--------------------------------------------

[drum solo]

------------------------------------------------
------------------------------------------------
------------------------------------------------
------------------------------------------------
----0-3-2----0-2------------0-3-2----0-2--------
--2--------2-----2--------2--------2-----2------

------------------------------------------------
------------------------------------------------
------------------------------------------------
------2-1---------------------2-1---------------
----0--------0-2------------0--------0-2--------
--2--------2-----2--------2--------2-----2------

------------------------------------------------
------------------------------------------------
------------------------------------------------
--------------2-3-4-----------------------------
----0-3-2-3-4-------2----0-3-2-3-4-0-2-3--------
--2--------------------2-----------------0------

[drum break]

verse 3

no more speed I'm almost there


--------------------------------------------------
--------------------------------------------------
--4^6-4^6-4-2-------------------------------------
--------------4-----------------------------------
--------------------------------------------------
--------------------------------------------------

gotta keep cool now gotta take care


--------------------------------------------------
--------------------------------------------------
---------2---2-4-4^6-^6-2-------------------------
---2-3-4---4--------------------------------------
--------------------------------------------------
--------------------------------------------------

216
last car to pass, here I go
---14-14---14-14----------------------------------
---14-14---14-14----------------------------------
---14-14---14-14----------------------------------
--------------------------------------------------
--------------------------------------------------
--------------------------------------------------

the line of cars drove down real slow


------17------------------------------------------
--------------------------------------------------
---------16^18^18-14------------------------------
---16---------------------------------------------
--------------------------------------------------
--------------------------------------------------

the radio plays that forgotten song


--------------------------------------------------
--------------------------------------------------
---------14-16-14-16^18^18-14---------------------
---14-16------------------------------------------
--------------------------------------------------
--------------------------------------------------

brenda lee's coming on strong


--------------------------------------------------
--------------------------------------------------
---16^18^18-14------------------------------------
--------------------------------------------------
--------------------------------------------------
--------------------------------------------------

the news man sang his same old song


--------------------------------------------------
--------------------------------------------------
-------2------------------------------------------
---2-4-2------------------------------------------
--------------------------------------------------
--------------------------------------------------

one more radar lover gone ..


------17^19^19^19-17-14---------------------------
---14---------------------------------------------
--------------------------------------------------
--------------------------------------------------
--------------------------------------------------
--------------------------------------------------

E B F#
when I get lonely and I'm sure I've had enough ..
E B
she sends her comfort coming in from above
C#
don't need no letters at all
D A E F#
we've got a thing and it's called radar love
D A E F#
we've got a line in the sky
D A E F#
we've got a thing and it's called radar love
D A E
we've got a thing that's called
radar love

217
Gary Jules - Mad World

Intro:
Fm Bb Fm Bb

Couplet:
Fm Ab
All around me are familiar faces
Eb Bb
Worn out places worn out faces---
Fm Ab
Bright and early for the daily races
Eb Bb
Going nowhere Going nowhere---
Fm Ab
Their tears are filling up their glasses
Eb Bb
No expression No expression---
Fm Ab
Hide my head I wanna drown my sorrow
Eb Bb
No tomorrow No tomorrow---

Refrein:
Fm Bb
And I find it kinda funny I find it kinda sad
Fm Bb
The dreams in which I'm dying are the best I've ever had
Fm Bb
I find it hard to tell you I find it hard to take
Fm Bb
When people run in circles it's a very very
Fm Bb
Mad world
Fm Bb
Mad world

Couplet:
Children waiting for the day they feel good
Happy birthday, happy birthday---
And I feel the way that every child should
Sit and listen, sit and listen---
Went to school and I was very nervous
No one knew me, no one knew me---
Hello teacher tell me what's my lesson
Look right trough me, look right trough me---

Refrein:

Fm Bb
Enlarging your world
Fm Bb
Mad world

218
Caro Emerald - A night like this

D#Ø x6767x (D#m7b5 5x767x)

Licks:
C#m G#7 D#m7b5(/A)
-4---5-- -4---5-- --------
-5---5-- -4---4-- --7-----
-6---6-- -5---5-- --6-----
-6--(6)- -4------ --7-----
-4------ -6------ --6-----
-------- -4------ -(5)----

[Intro]
|C#m | | | |

[Verse]
|C#m | |
From where you are, you see the smoke start to arise,
|G#7 | |
where they play cards.
|G#7 | |
And you walk over, softly moving passed the guards.
The stakes are getting higher.
|C#m | |
You can feel it in your heart.

|C#m | |G#7 | |
|G#7 | |C#m | |
He calls you bluff.
He is the ace you never thought he played that much.
And now it's more than all this cards you want to touch.
You never know if winning this could really be enough.

|D#m7b5 |G#7 |C#m | |


Take a look, beyond the moon you see the stars.
|D#m7b5 |G#7 |C# | |
And when you look around, you know the room by heart.

|D#m7 |G#7 |C#(4)| |


I have never dreamed it.
Have you ever dreamed a night like this?
|D#m7 |G#7 |C#(4)| |
I cannot believe it.
I may never see a night like this.

|D#m7 |G#7 |C#(4)| |


When everything you think is incomplete.
Starts happening when you are cheek to cheek.
|D#m7b5 |G#7 |C#m | |
Could you ever dream it?
I have never dreamed, dreamed a night like this.

|C#m | |G#7 | |
|G# | |C#m | |
How many times,
have I been waiting by the door to hear these chimes?
To hear that some one debonaire has just a arrived.
And opened up to see my world before my eyes.

219
|C#m | |G#7 | |
|G# | |C#m | |
That silhouette creates an image on the night I can't forget.
It has the scent of something special, I can't rest.
If I resist temptation, oh I know for sure that I will lose the bet.

|D#m7b5 |G#7 |C#m | |


|D#m7b5 |G#7 |C# | |
I walk away and suddenly it seems I'm not alone.
In front of me he stands -- I stop, before he goes.

|D#m7 |G#7 |C# | |


|D#m7 |G#7 |C# | |
I have never dreamed it.
Have you ever dreamed a night like this?
I cannot believe it.
I may never see a night like this.

|D#m7 |G#7 |C# | |


|D#m7b5 |G#7 |C#m | --> solo
When everything you think is incomplete.
Starts happening when you are cheek to cheek.
Could you ever dream it?
I have never dreamed, dreamed a night like this.

<SOLO>
|C#m | |G#7 | |
|G#7 | |C#m | |

<BRIDGE>
|E |Eb Dm |C#m | |
|E |Eb Dm |C# | |
Oooh oohoo
Oooh oohoo

|D#m7 |G#7 |C# | |


|D#m7 |G#7 |C# | |
I have never dreamed it.
Have you ever dreamed a night like this?
I cannot believe it.
I may never see a night like this.

|D#m7 |G#7 |C# | |


|D#m7b5 |G#7 |C#m | |
When everything you think is incomplete.
Starts happening when you are cheek to cheek.
Could you ever dream it?
I have never dreamed, dreamed a night like this.
|C#m |

220
Jewel - Foolish Games

CAPO 1

Intro:
Dm Bb
e |-----------0----1---3---1---0----1---|-------------0---1----3---1----0---1--|
B |-------3-----------------------------|-------3------------------------------|
G |----2----2---2----2---2---2----2---2-|----3-----3----3---3----3----3---3--3-|
D |-0-----------------------------------|--------------------------------------|
A |-------------------------------------|-1------------------------------------|
E |-------------------------------------|--------------------------------------|

F C
e |-----------1----3---5----3----1--------|-------------0----1---3---1---0------|
B |-------1--------------------------1----|-------1--------------------------1--|
G |----2----2----2----2---2----2---2----2-|----0-----0----0----0---0---0---0----|
D |---------------------------------------|-------------------------------------|
A |---------------------------------------|-3-----------------------------------|
E |-1-------------------------------------|-------------------------------------|

Intro: Dm | Bb | F | C | Dm |

Bb F
You took your coat off and stood in the rain,
C Dm
You were always crazy like that
Bb
I watched from my window,
F C Dm
always felt I was outside looking in on you
Bb
You were always the mysterious one

with dark eyes and careless hair,


F C Dm
You were fashionably sensitive, but too cool to care
Bb F
Then you stood in my doorway with nothing to say
C
besides some comment on the weather

Gm
Well in case you failed to notice,
Bb
in case you failed to see,
F
This is my heart bleeding before you,
C
This is me down on my knees
Bb C F C Dm
These foolish games are tearing me apart
Bb C F C Bb
And Your thoughtless words are breaking my heart
Dm Bb Dm
You're breaking my heart

You were always brilliant in the morning


Smoking your cigarettes, talking over coffee
Your philosophies on art, Baroque moved you,
You loved Mozart and you'd speak of your loved ones
As I clumsily strummed my guitar

221
Gm Bb
Well, Excuse me, think I've mistaken you for somebody else
F C
Somebody who gave a damn,

Somebody more like myself


Bb C F C Dm
These foolish games are tearing me, you tearing, you tearing me apart
Bb C F C Bb---
And Your thoughtless words are breaking my heart
Dm
You're breaking my heart

Solo: Dm | Bb | F | C | Dm |

Bb F
You took your coat off and stood in the rain,
C---
You were always crazy like that

222
Jewel - Intuition

e|--------------------------------------------|-
B|--3----3-4-3--------------------------------|-
G|-------------5----5-7-5-3----3-5-3-2--------|-
D|--------------------------------------3--5--|-
A|--------------------------------------------|-
E|--------------------------------------------|-

| Gm | Bb | Cm | F |

Gm
I'm just a simple girl
Bb
In a high tech digital world
Cm
I really try to understand
F
All the powers that rule this land
Gm
They say Miss J's big butt is boss
Bb
Kate Moss can't find a job
Cm
In a world of post modern fad
F
What was good now is bad
Gm Cm
It's not hard to understand
Gm Eb F
Just follow this simple plan

CHORUS:
Gm
Follow your heart
Cm
Your intuition
Gm Eb F
It will lead you in the right direction
Gm
Let go of your mind
Cm
Your Intuition
Gm
It's easy to find
Eb F
Just follow your heart baby

VERSE 2:
You look at me
but you're not quite sure
Am I it or could you get more?
You learn cool from magazines
You learn love from Charlie Sheen

If you want me let me know


I promise I won't say no

223
[Chorus Repeat]

(as CHORUS)
You got something that you want me to sell
Sell your sin. Just cash in.
You got something that you want me to tell
You'll love me. Wait and see.

If you want me
Don't play games
I promise
it won't be in vain
Uh-uh-uh

[Chorus]

224
Katy Perry - I Kissed A Girl

Am C Dm
This was never the way I planned,
F Em
not my intention.
Am C Dm
I got so brave, drink in hand,
F Em
lost my discretion.
Am C
It's not what i'm used to,
Dm F Em
just want to try you on.
Am C Dm
i'm curious, for you,
F Em
caught my attention.

[Refrein]
Am C
I kissed a girl,
Dm
and I liked it.
F Em
The taste of her cherry chapstick.
Am C
I kissed a girl,
Dm
Just to try it.
F Em
I hope my boyfriend don't mind it.
Am C
It felt so wrong,
Dm
It felt so right.
F Em
Don't mean I'm in love tonight.

Am C
I kissed a girl,
Dm
And I liked it.
F Em
I liked it

[Couplet]
No, I don't even know your name,
It doesn't matter.
Your my experimental game,
Just human nature.
It's not what good girls do,
Not how they should behave.
My head gets so confused,
Hard to erase.

[Refrein]

225
[Bridge]
F Em Am
Us girls we are so magical,
C F
Soft skin, red lips, so kissable,
Em Am
Hard to resist, so touchable.
C
To good to deny it.
Dm
Ain't no big deal, it's innocent.

[Refrein]

226
Lily Allen - Fuck You

E C#m
Look inside, look inside your tiny mind

Then look a bit harder


F#m
'Cause we're so uninspired, so sick and tired
A B
Of all the hatred you harbor

E C#m
So you say it's not okay to be gay

Well, I think you're just evil


F#m
You're just some racist who can't tie my laces
A B
Your point of view is medieval

[refrein:]
E G#
Fuck you, fuck you very, very much
C#m
'Cause we hate what you do

And we hate your whole crew


B
So please don't stay in touch
E G#
Fuck you, fuck you very, very much
C#m
'Cause your words don't translate

And it's getting quite late


B
So please don't stay in touch

[couplet:]
Do you get, do you get a little kick
Out of being small minded?
You want to be like your father
It's approval you're after
Well, that's not how you find it

Do you, do you really enjoy


Living a life that's so hateful?
'Cause there's a hole where your soul should be
You're losing control a bit
And it's really distasteful

[refrein:]
Fuck you, fuck you very, very much
'Cause we hate what you do
And we hate your whole crew
So please don't stay in touch

Fuck you, fuck you very, very much


'Cause your words don't translate
And it's getting quite late
So please don't stay in touch

227
Fuck you, fuck you, fuck you
B
Fuck you, fuck you, fuck you
Em D
Fuck you

[couplet:]
You say you think we need to go to war
Well, you're already in one
'Cause it's people like you that need to get slew
No one wants your opinion

[refrein:]
Fuck you, fuck you very, very much
'Cause we hate what you do
And we hate your whole crew
So please don't stay in touch

Fuck you, fuck you very, very much


'Cause your words don't translate
And it's getting quite late
So please don't stay in touch

E G# C#m B
Fuck you, fuck you, fuck you
E G# C#m B
Fuck you, fuck you, fuck you

228
Lily Allen - Not Fair

[COUPLET]
Dm
Oh he treats me with respect

He says he loves me all the time


F
He calls me 15 times a day

He likes to make sure that I'm fine


Dm
You know I've never met a man who's made me feel quite so secure
F
He's not like all them other boys

They're all so dumb and immature

[PRE-CHORUS]
Dm
There's just one thing that's getting in the way
F
When we go up to bed you're just no good

Its such a shame


Dm
I look into your eyes I want to get to know you
F
And then you make this noise and its apparent it's all over

[CHORUS]
Gm
It's not fair
Bb
And I think you're really mean
F
I think you're really mean
C
I think you're really mean
Gm
Oh you're supposed to care
Bb
But you never make me scream
C
You never make me scream

Gm
Oh it's not fair
Bb
And it's really not ok
F
It's really not ok
C
It's really not ok
Gm
Oh you're supposed to care
Bb
But all you do is take
C
Yeah all you do is take

229
[COUPLET]
Dm
Oh I lie here in the wet patch

In the middle of the bed


F
I'm feeling pretty damn hard done by

I spent ages giving head


Dm
Then I remember all the nice things that you ever said to me
F
Maybe I'm just overreacting maybe you're the one for me

[PRE-CHORUS]

[CHORUS]

[INTERLUDE]
Dm F Dm F

[PRE-CHORUS]

[CHORUS]

230
The Beatles - Blackbird

#1 #2
3/4 G Am7 G 4/4 G
E{|---------------------------|------------------------------------|
B{|---0-------1-------3-------|---/12----12--12----12----12--12----|
G{|-------0-------0-------0---|--------0-------0-------0-------0---|
D{|---------------------------|------------------------------------|
A{|-----------0-------2-------|---/10------10------10------10------|
E{|---3-----------------------|------------------------------------|
+ . + . + . + . + . + . + .

3/4 G Am7 G 4/4 G


E||---------------------------|-----------------------------------|
B||---0-------1-------3-------|---12----12--12----12----12--12----|
G||.------0-------0-------0---|-------0-------0-------0-------0---|
D||.--------------------------|-----------------------------------|
A||-----------0-------2-------|---10------10------10------10------|
E||---3-----------------------|-----------------------------------|
+ . + . + . + . + . + . + .
1. Blackbird singing in the dead of night
2. Blackbird singing in the dead of night

#5
C A7 D7 B7 Em Cm
E |-----------------------------------|-----------------------------------|
B |---5-------8-------7-------10------|---8-----8---8-----8-----8---8-----|
G |-------0-------0-------0-------0---|-------0-------0-------0-------0---|
D |-----------------------------------|-----------------------------------|
A |---3-------7-------5-------9-------|---7-------7-------6-------6-------|
E |-----------------------------------|-----------------------------------|
+ . + . + . + . + . + . + . + .
Take these broken wings and learn to fly
Take these sunken eyes and learn to see

#7
3/2 G A7 Am7 Cm
E |----------------------------------------------------|
B |---7-------8-------5-----5---5------4-----4---4-----|
G |-------0-------0-------0-------0--------0-------0---|
D |----------------------------------------------------|
A |---5-------7-------3-------3--------3-------3-------|
E |----------------------------------------------------|
+ . + . + .
All your life
All your life

#8
G A7 Am7 D7
E |----------------------------------------------------|
B |---3-----3---3-----2-----2---2------1-----1---1-----|
G |-------0-------0-------0-------0--------0-------0---|
D |------------------------------------0-------0-------|
A |---2-------2-------0-------0------------------------|
E |----------------------------------------------------|
+ . + . + .
You were only waiting for this moment to a-
You were only waiting for this moment to be

231
-----------------------------------------------------------------------...
| 1.
#9
4/4 G C G A7 D7(Am7)
E |-----------------------------------|-----------------------------------|
B |---0-----0---0-----5-------3-------|---2-----2---2-----1-----1---1-----|
G |-------0-------0-------0-------0---|-------0-------0-------0-------0---|
D |-----------------------------------|-------------------0-------0-------|
A |-------------------3-------2-------|---0-------0-----------------------|
E |---3-------3-----------------------|-----------------------------------|
+ . + . + . + . + . + . + . + .
rise.

... ----------------- -------------------


|| 2. |
#11 || |
2/2 G
E |--------------------||-------------------|
B |---0-----0---0------||---0-----0---0-----|
G |-------0-------0---.||-------0-------0---|
D |-------------------.||-------------------|
A |--------------------||-------------------|
E |---3-------3--------||---3-------3-------|
+ . + . + . + .
free.

#13
4/4 F Em Dm C Bb C
E |-----------------------------------|-----------------------------------|
B |---10------8-------6-------5-------|---3-----3---3-----5-----5---5-----|
G |-------0-------0-------0-------0---|-------0-------0-------0-------0---|
D |-----------------------------------|-----------------------------------|
A |---8-------7-------5-------3-------|---1-------1-------3-------3-------|
E |-----------------------------------|-----------------------------------|
+ . + . + . + . + . + . + . + .
Black - bird, fly,

#15
4/4 F Em Dm C Bb A7
E |-----------------------------------|-----------------------------------|
B |---10------8-------6-------5-------|---3-----3---3-----2-----2---2-----|
G |-------0-------0-------0-------0---|-------0-------0-------0-------0---|
D |-----------------------------------|-----------------------------------|
A |---8-------7-------5-------3-------|---1-------1-------0-------0-------|
E |-----------------------------------|-----------------------------------|
+ . + . + . + . + . + . + . + .
Black - bird, fly, into the

#17
2/4 D7(Am7)
E |----------------------|
B |---1-----1---1----1---|
G |-------0-------0------|
D |---0-------0----------|
A |----------------------|
E |----------------------|
+ . + .
light of a dark black

232
#18
3/4 G Am7 G 4/4 G
E |---------------------------|-----------------------------------|
B |---0-------1-------3-------|---12----12--12----12----12--12----|
G |-------0-------0-------0---|-------0-------0-------0-------0---|
D |---------------------------|-----------------------------------|
A |-----------0-------2-------|---10------10------10------10------|
E |---3-----------------------|-----------------------------------|
+ . + . + . + . + . + . + .
night.

#20
C A7 D7 B7 Em Cm
E |-----------------------------------|-----------------------------------|
B |---5-------8-------7-------10------|---8-----8---8-----8-----8---8-----|
G |-------0-------0-------0-------0---|-------0-------0-------0-------0---|
D |-----------------------------------|-----------------------------------|
A |---3-------7-------5-------9-------|---7-------7-------6-------6-------|
E |-----------------------------------|-----------------------------------|
+ . + . + . + . + . + . + . + .

#22
3/2 G A7 Am7 Cm
E |----------------------------------------------------|
B |---7-------8-------5-----5---5------4-----4---4-----|
G |-------0-------0-------0-------0--------0-------0---|
D |----------------------------------------------------|
A |---5-------7-------3-------3--------3-------3-------|
E |----------------------------------------------------|
+ . + . + .

#23 #24
G A7 D7(Am7) 2/4 G
E |----------------------------------------------------|---------------|
B |---3-----3---3-----2-----2---2------1-----1---1-----|---0-----------|
G |-------0-------0-------0-------0--------0-------0---|---0-----------|
D |------------------------------------0-------0-------|---------------|
A |---2-------2-------0-------0------------------------|---------------|
E |----------------------------------------------------|---3-----------|
+ . + . + . + .

#25
4/4 F Em Dm C Bb C
E |-----------------------------------|-----------------------------------|
B |---10------8-------6-------5-------|---3-----3---3-----5-----5---5-----|
G |-------0-------0-------0-------0---|-------0-------0-------0-------0---|

D |-----------------------------------|-----------------------------------|
A |---8-------7-------5-------3-------|---1-------1-------3-------3-------|
E |-----------------------------------|-----------------------------------|
+ . + . + . + . + . + . + . + .
Black - bird, fly,

233
#27
4/4 F Em Dm C Bb A7
E |-----------------------------------|-----------------------------------|
B |---10------8-------6-------5-------|---3-----3---3-----2-----2---2-----|
G |-------0-------0-------0-------0---|-------0-------0-------0-------0---|
D |-----------------------------------|-----------------------------------|
A |---8-------7-------5-------3-------|---1-------1-------0-------0-------|
E |-----------------------------------|-----------------------------------|
+ . + . + . + . + . + . + . + .
Black - bird, fly, into the

#29
2/4 D7(Am7)
E |----------------------|
B |---1-----1---1----1---|
G |-------0-------0------|
D |---0-------0----------|
A |----------------------|
E |----------------------|
+ . + .
light of a dark, black

#30
3/4 G Am7 G 4/4 G
E |---------------------------|-----------------------------------|
B |---0-------1-------3-------|---12----12--12----12----12--12----|
G |---------------------------|-------0-------0-------0-------0---|
D |---------------------------|-----------------------------------|
A |-----------0-------2-------|-----------------------------------|
E |---3-----------------------|---10------10------10------10------|
+ . + . + . + . + . + . + .
night.

#31
G
E |-----------------------------------|-----------------------------------|
B |---12----12--12----12----12--12----|---12----12--12----12--------------|
G |-------0-------0-------0-------0---|-------0-------0---0---------------|
D |-----------------------------------|-----------------------------------|
A |---10------10------10------10------|---10------10------10--------------|
E |-----------------------------------|-----------------------------------|
+ . + . + . + . + . + . + . + .
molto rit.

#34
3/4 G Am7 G 3/4 C G A7
E||------------------------------|---------------------------|
B||------0-------1-------3-------|---5-------3-------2-------|
G||----------0-------0-------0---|-------0-------0-------0---|
D||------------------------------|---------------------------|
A||--------------0-------2-------|---3-------2-------0-------|
E||---10\3-----------------------|---------------------------|
+ . + . + . + . + . + .
slide down
a tempo

234
#36
2/4 Am7/D
E |------------------|
B |--1-----1---1-----|
G |------0-------0---|
D |--0-------0-------|
A |------------------|
E |------------------|
+ . + .

#37
3/4 G Am7 G 4/4 G
E||---------------------------|-----------------------------------|
B||---0-------1-------3-------|---12----12--12----12----12--12----|
G||.------0-------0-------0---|-------0-------0-------0-------0---|
D||.--------------------------|-----------------------------------|
A||-----------0-------2-------|---10------10------10------10------|
E||---3-----------------------|-----------------------------------|
+ . + . + . + . + . + . + .
Blackbird singing in the dead of night

#39
C A7 D7 B7 Em Cm
E |-----------------------------------|-----------------------------------|
B |---5-------8-------7-------10------|---8-----8---8-----8-----8---8-----|
G |-------0-------0-------0-------0---|-------0-------0-------0-------0---|
D |-----------------------------------|-----------------------------------|
A |---3-------7-------5-------9-------|---7-------7-------6-------6-------|
E |-----------------------------------|-----------------------------------|
+ . + . + . + . + . + . + . + .
Take these broken wings and learn to fly;

#41
3/2 G A7 Am7 Cm
E |----------------------------------------------------|
B |---7-------8-------5-----5---5------4-----4---4-----|
G |-------0-------0-------0-------0--------0-------0---|
D |----------------------------------------------------|
A |---5-------7-------3-------3--------3-------3-------|
E |----------------------------------------------------|
+ . + . + .
All your life

#42
4/4 G A7 Am7 G
E||-----------------------------------|-----------------------------------||
B||---3-----3---3-----2-----2---2-----|---1-----1---1-----0---------------||
G||.------0-------0-------0-------0---|-------0-------0---0--------------.||
D||.----------------------------------|---0-------0----------------------.||
A||---2-------2-------0-------0-------|-----------------------------------||
E||-----------------------------------|-------------------3---------------||
+ . + . + . + . + . + . + . + .
You were only waiting for this moment to a-rise.

235
#44
C G A7 Am7 D7 G
E |-----------------------------------|-----------------------------------||}
B |---5-------3-------2-----2---2-----|---1-----1---1-----3---------------||}
G |-------0-------0-------0-------0---|-------0-------0---0---------------||}
D |-----------------------------------|---0-------0-------0---------------||}
A |---3-------2-------0-------0-------|-----------------------------------||}
E |-----------------------------------|-------------------3---------------||}
+ . + . + . + . + . + . + . + .
You were only waiting for this moment to a-rise.

236
Beatles - Back in the U.S.S.R.

E E7

A D
Flew in from Miami Beach B. O. A. C.
C D
Didn't get to bed last night
A D
On the way the paperback was on my knee
C D
Man I had a dreadful flight

A
I'm back in the U.S.S.R.
C D
You don't know how lucky you are boy
A D Eb E
Back in the U.S.S.R.

A D
Been away so long I hardly knew the place
C D
Gee it's good to be back home
A D
Leave it till tomorrow to unpack my case
C D
Honey disconnect the phone

A
I'm back in the U.S.S.R.
C D
You don't know how lucky you are boy
Gadd9
Back in the U.S.

Back in the U.S.


A
Back in the U.S.S.R.

D
Well the Ukraine girls really knock me out
A
They leave the West behind
D D/C# D/C D/B
And Moscow girls make me sing and shout
E D A D Eb E
That Geogia's always on my mi mi mi mi mi mi mind [Oh come on!]

[solo]

A
I'm back in the U.S.S.R.
C D
You don't know how lucky you are boy
A
Back in the U.S.S.R.

237
D
Well the Ukraine girls really knock me out
A
They leave the West behind
D D/C# D/C D/B
And Moscow girls make me sing and shout
E D A D Eb E
That Geogia's always on my mi mi mi mi mi mi mind

A D
Oh, show me 'round your snow-peaked mountains way down south
C D
Take me to your daddy's farm
A D
Let me hear your balalaikais ringing out
C D
Come and keep your comrade warm

A
I'm back in the U.S.S.R.
C D
You don't know how lucky you are boy
A D Eb E A
Back in the U.S.S.R.

238
Beatles - Love Is All You Need

Intro:|G D |G |C D |

G D Em
Love love love
G D Em
Love love love
D7 G D
Love love love

G D4/F# Em
There's nothing you can do that can't be done
G D4/F# Em
Theres nothing you can sing that can't be sung
D7/A G D/F#
Nothing you can say but you can learn how to
D/E
play the game
D - D/C - D/B - D
It's easy

There's nothing you can make that can't be made


No one you can save that can't be saved
Nothing you can do but you can learn how to be you in time
It's easy

CHORUS:

G Asus4 D7
All you need is love
G Asus4 D7
All you need is love
G B7 Em Em7/D
All you need is love love
Cmaj7 D7
Love is all you need

G D/F# Em
Love love love
G D/F# Em
Love love love
D7 G D
Love love love

There's nothing you can know that isn't known


Nothing you can see that isn't shown
Nowhere you can be that isn't where you're meant to be
Its easy

239
G Asus4 D7
All you need is love
G Asus4 D7
All you need is love
G B7 Em Em7/D
All you need is love love
Cmaj7 D7
Love is all you need
D7 G
Love is all you need
G Asus4 D7
All you need is love (All together now)
G Asus4 D7
All you need is love (Everybody now)
G Asus4 D7
All you need is love
G D G
Love is all you need (Herhalen en fade out)

240
Beatles - Hard Day's Night

Intro: G7sus4 ---

n.c. G C G F G
It's been a hard day's night, and I've been working like a dog,
G C G F G
It's been a hard day's night, I should be sleeping like a log,
C D
But when I get home to you, I find the things that you do,
G C7 G
Will make me feel alright.
G C G F G
You know I work all day, to get you money to buy you things,
G C G F G
And it's worth it just to hear you say, you're gonna give me everything.
C D
So why I love to come home, 'cause when I get you alone,
G C G
You know I'll be okay.
Bm Em Bm
When I'm home, everything seems to be right;
G Em C7 D7
When I'm home, feeling you holding me tight, tight, yeah.
G C G F G
It's been a hard day's night, and I've been working like a dog,
G C G F G
It's been a hard day's night, I should be sleeping like a log,
C D
But when I get home to you, I find the things that you do,
G C7 G
Will make me feel alright.

Solo (played on electric 12-string):


G C G F G
--------------------------------------------
--------------------------------------------
--------------------------------------------
----------------------3---3---3---3---------
------1-3-1-3/5~---3h5-3h5-3h5-3h5-5\3-1----
-3--3------------------------------------3~-

C D
So why I love to come home, 'cause when I get you alone,
G C G
You know I feel o kay

G C G
You know I feel all right,
G C F9/D F/D
You know I feel all right

Outro:
F9/D F/D F9/D F/D F9/D F/D F9/D F/D
-3-------1-------3-------1-------3-------1-------3-------1-
---1---1---1---1---1---1---1---1---1---1---1---1---1---1---
-----2-------2-------2-------2-------2-------2-------2-----
-----------------------------------------------------------
-----------------------------------------------------------
-----------------------------------------------------------

241
Lily Allen - Smile

Gm
when you first left me
F
I was wanting more
Gm
but you were f***ing that girl next door
F
what'd you do that for

Gm
when you first left me
F
I didnt know what to say
Gm
I never been on my own that way
F
just sat by myself all day

[CHORUS]
Gm F
at first when I see you cry
Gm
yeah it makes me smile
F
yeah it makes me smile
Gm F
at worst I feel bad for a while
Gm
but then I just smile
F
I go ahead and smile

I was so lost back then


but with a little help from my friends
I found the light in the tunnel at the end

now you're calling me up on the phone


so you can have a little whine and a moan
and it's only because you're feeling alone

[CHORUS]

lalala lalala lalala lalalaaaaa

[CHORUS]

242
Beatles - Free As A Bird

F#dim/A: X-0-1-2-1-2
E+5: X-X-2-1-1-0
G#maj7: X-X-6-5-4-3

Intro:

A F#m7 | Fmaj7 E | A F#m7 | Dm E


A F#m7 | Dm G | C Am | Esus4 E

A F#m7 Fmaj7
Free
E A F#m7 Dm
As a bird
E A F#m7 Dm
It's the next best thing to be
G C Am Esus4 E
Free as a bird

A F#m7 Fmaj7
Home
E A F#m7 Dm
Home and dry
E A F#m7 Dm
Like a homing bird I'll fly
G C Am Esus4 E
As a bird on wings

F
Whatever happened to
F#dim/A
The life that we once knew
G A
Can we really live without each other

F
Where did we lose the touch
F#dim/A
That seemed to mean so much
G Esus4 E
It always made me feel so

A F#m7 Fmaj7
Free
E A F#m7 Dm
As a bird
E A F#m7 Dm
It's the next best thing to be
G C Am Esus4 E
Free as a bird

A F#m7 Fmaj7
Home
E A F#m7 Dm
Home and dry
E A F#m7 Dm
Like a homing bird I'll fly
G C Am E+5 G
As a bird on wings

243
F
Whatever happened to
F#dim/A
The life that we once knew
G Esus4 E
Always made me feel so free

C Am7 | G#maj7 G | C Am7 | Fm7 G


C Am7 | Fm7 G

A F#m7 Fmaj7
Free
E A F#m7 Dm
As a bird
E A F#m7 Dm
It's the next best thing to be
G A F#m7 Dm
Free as a bird
G A F#m7 Dm
Free as a bird
G A F#m7 Dm G A
Free as a bird

244
Beatles - Lucy In The With Diamonds

Intro: Riff 1

Riff 1:
A A/G A/F# A/F
E|---------12-------12---------------12-------10-9-----|
B|-----10----------------10------10-----------------10-|
G|-9------------12-----------11-----------10-----------|
D|-----------------------------------------------------|

Riff 2:
A A/G A/F# F
E|---------12-------12---------------12---------------------|
B|-----10----------------10------10-------13---10---13---10-|
G|-9------------12-----------11-----------10-------------10-|
D|----------------------------------------------------------|

Riff 3:
A A/G A Dm
E|---------12-------12--------9---12---9---12---9---12---13---10---13-|
B|-----10----------------10---10-----------10------------10-----------|
G|-9------------12----------------------------------------------------|
D|--------------------------------------------------------------------|

(Riff 1)
Picture yourself in a boat on a river
(Riff 2)
With tangerine trees and marmalade skies
(Riff 1)
Somebody calls you, you answer quite slowly
(Riff 3)
A girl with kaleidoscope eyes

Bb C
Cellophane flowers of yellow and green
F Bb
Towering over your head
C G
Look for the girl with the sun in her eyes
D
And she's gone

G C D
Lucy in the sky with diamonds
G C D
Lucy in the sky with diamonds
G C D
Lucy in the sky with diamonds
D
Aaaaahhhhh

Follow her down to a bridge by a fountain


Where rocking horse people eat marshmellow pies
Everyone smiles as you drift past the flowers
That grow so incredibly high

Newpaper taxis appear on the shore


Waiting to take you away
Climb in the back with your head in the clouds
And you're gone

245
Lucy in the sky with diamonds
Lucy in the sky with diamonds
Lucy in the sky with diamonds
Aaaaahhhhh

Picture yourself on a train in a station


With plasticine porters with looking glass ties
Suddenly someone is there at the turnstyle
The girl with the kaleidoscope eyes

Lucy in the sky with diamonds


Lucy in the sky with diamonds
Lucy in the sky with diamonds
Aaaaahhhhh

Lucy in the sky with diamonds


Lucy in the sky with diamonds
Lucy in the sky with diamonds
Aaaaahhhhh

Lucy in the sky with diamonds


Lucy in the sky with diamonds
Lucy in the sky with diamonds

(Fade out)

246
Beatles - Maxwell's Silver Hammer

D B7 Em
Joan was quizzical, studied pataphysical, science in the home,
A7 D A
late night all alone with a test tube, oh, oh, oh, oh.
D B7 Em
Maxwell Edison, majoring in medicine, calls her on the phone.
A7 D A
Can I take you out to the pictures, Jo-o-o-oan?
E7 A7
But, as she's getting ready to go, a knock comes from the door:

REFREIN
D E7
Bang! Bang! Maxwell's silver hammer came down upon her head.
A7 Em A7 D
Clang! Clang! Maxwell's silver hammer made sure that she was dead.

Back in school again, Maxwell plays the fool again, teacher gets annoyed.
Wishing to avoid an unpleasant sce-e-e-ene.
She tells Max to stay when the class has gone away,
so he waits behind. Writing fifty times "I must not be so-o-o-o.
But, when she turns her back on the boy, he creeps up from behind:

[REFREIN]

P.C. thirtyone said "We've caught a dirty one.", Maxwell stands alone.
Painting testimonial pictures, oh, oh, oh, oh.
Rose and Valerie, screaming from the gallery, say he must go free.
The judge does not agree. And he tells them so-o-o-o.
But, as the words are leaving his lips, a noise came from behind:

[REFREIN]

247
Beatles - Magical mystery tour

Intro:

D | A | E

E
Roll up, roll up for the magical mystery tour
Step right this way

E G A
Roll up, roll up for the mystery tour
E G A
Roll up, roll up for the mystery tour

Roll up (and that's an invitation)


Roll up for the mystery tour
Roll up (to make a reservation)
Roll up for the mystery tour

D D7 G Gm
The magical mystery tour is waiting to take you away
D A
Waiting to take you away

Roll up, roll up for the mystery tour


Roll up, roll up for the mystery tour

Roll up (we've got everything you need)


Roll up for the mystery tour
Roll up (satisfaction guaranteed)
Roll up for the mystery tour

The magical mystery tour is hoping to take you away


Hoping to take you away

B | F#m | B | F#m | A | B7
The mystery trip

Now, the magical mystery tour


Roll up, roll up for the mystery tour

Roll up (and that's an invitation)


Roll up for the mystery tour
Roll up (to make a reservation)
Roll up for the mystery tour

The magical mystery tour is coming to take you away


Coming to take you away

D D7 G Gm
The magical mystery tour is dying to take you away
D A D
Dying to take you away, take you today

(Fade out)

248
Beatles - Twist and Shout

Main riff:

e---------------------------------------
b---------------------------------------
g--------2--0--4--2---------------------
d-0---4--------------------2--5-5--4--2-
a--------------------0--4---------------
e---------------------------------------

Intro.
D G A7 G D G A7

G D G A7
Well shake it up baby, now (Shake it up baby)
G D G A7
Twist and shout (Twist and shout)
G
Come on, come on, come on, come on
D G A7
baby now (Come on baby)
G D G A7
Come on and work it on out (Work it on out)
G D G A7
Well, work it on out (Work it on out)
G D G A7
You know you look so good (Look so good)
G D G A7
You know you got me goin' now (Got me goin')
G D G A7 G
Just like I knew you would

G D G A7
Well shake it up baby, now (Shake it up baby)
G D G A7
Twist and shout (Twist and shout)
G
Come on, come on, come on, come on
D G A7
baby now (Come on baby)
G D G A7
Come on and work it on out (Work it on out)
G D G A7
You know you twist little girl (Twist little girl)
G D G A7
You know you twist so fine (Twist so fine)
G D G A7
Come on and twist a little closer now (Twist a little closer)
G D G A7
And let me know you're mine (Let me know you're mine)

A7
Ah-ah-ah-ah

249
G D G A7
Well shake it up baby, now (Shake it up baby)
G D G A7
Twist and shout (Twist and shout)
G
Come on, come on, come on, come on
D G A7
baby now (Come on baby)
G D G A7
Come on and work it on out (Work it on out)
G D G A7
Well, work it on out (Work it on out)
G D G A7
You know you look so good (Look so good)
G D G A7
You know you got me goin' now (Got me goin')
G D G A7 G
Just like I knew you would

250
Beatles - She Loves You

Em
She loves you, yeah, yeah, yeah
A7
She loves you, yeah, yeah, yeah
C G6
She loves you, yeah, yeah, yeah

G Em
You think you've lost your love
Bm D
Well I saw her yesterday
G Em
It's you she's thinking of
Bm D
And she told me what to say

[Chorus]
G6
She says she loves you
Em [xx5003 xx4002 xx2000]
And you know that can't be bad
Cm6
Yes she loves you
D
And you know you should be glad

She said you hurt her so


She almost lost her mind
But now she says she knows
You're not the hurting kind

[repeat chorus]

[Post-chorus]
Em
She loves you, yeah, yeah, yeah
A7
She loves you, yeah, yeah, yeah
Cm
With a love like that
D G
You know you should be glad

And so its up to you


I think it's only fair
Pride can hurt you too
Apologize to her

[repeat chorus]

[repeat post-chorus] G G/F# Em


(...glad)

251
[Coda]
Cm
With a love like that
D7 G G/F# Em
You know you should be glad
Cm
With a love like that
D [N.C.] G G/F#
You know you should be glad
Em6
Yeah, yeah, yeah
C G6
Yeah, yeah, yeah, yeah

252
Beatles - Sgt. Pepper's Lonely Hearts Club Band

G7 A7
It was twenty years ago today
C7 G7
Sergeant Pepper taught the band to play
G7 A7
They've been going in and out of style
C7 G7
But they're guaranteed to raise a smile
A7
So may I introduce to you
C7
The act you've known for all these years
G7 C7 G7
Sergeant Pepper's Lonely Heart's Club Band

Trumpet Solo:
| C7 - F7 |
| C7 - D7 |

G Bb C7 G
We're Sergeant Pepper's Lonely Heart's Club Band
C7 G7
We hope you will enjoy the show
G Bb C7 G
Sergeant Pepper's Lonely Heart's Club Band
A7 D7
Sit back and let the evening go
C7
Sergeant Pepper's Lonely
G7
Sergeant Pepper's Lonely
A7
Sergeant Pepper's Lonely
C7 G7
Heart's Club Band

C7
It's wonderful to be here
F7
It's certainly a thrill
C7
You're such a lovely audience
D7
We'd like to take you home with us

We'd love to take you home

253
G7 A7
I don't really wanna stop the show
C7 G7
But I thought you might like to know
G7 A7
That the singer's gonna sing a song
C7 G7
And he wants you all to sing along
A7
So may I introduce to you
C7
The one and only Billy Shears
G7 C7 G7
Sergeant Pepper's Lonely Heart's Club Band

254
Beatles - Michelle

Eb6 = xx1313
Ddim = xx0101
G7-9 = 320131
Ab7sus4 = xx1122
Fmmaj7 = 132111
Fm6 = 133131

intro: / Bbm/ /
Fm Fmaj7 / Fm7 Fm6 / F / C /
E-------8--------8----------8--------8--------8----6-------8---
B-------9--------9----------9--------9--------6----6--9----8---
G--10--10-----9--9------8---8----7---7-----6--6----6--6----9---
D--------------------------------------------------------------
A--------------------------------------------------------------
E--------------------------------------------------------------

verse:
F Bbm7 Eb6 D0 C G7-9 C
Michelle, ma belle, these are words that go together well, my Michelle
F Bbm7 Eb6 D0 G7-9 C G7-9 C
Michelle, ma belle, sontles mots qui vont tres bien ensemble, tres bien ensemble

Fm Ab7sus4 Db
I love you, I love you, I love you, that's all I want to say
C7 Fm
until I find a way
Fm Fmmaj7 Fm7 Fm6 Bbm/F C
I will say the only words I know that you'll understand.

Chorus

I need you, I need you, I need you, I need to make you see
oh what you mean to me
until I do I'm hoping you will know what I mean
I love you:
solo
e|--------------------------------------------------------------------------------
B|--------------------------------------------------------------------------------
G|--------------------------------------------------------------------------------
D|---------7----8-10--11---6----5---5-6-8----------5-6---------6------------------
A|8-8-10---------------------------------6--8--8-----5--7--5----8--7------7-8-10--
E|--------------------------------------------------------------------8-10--------
I want you, I want you, I want you, I think you know by now
I'll get to you somehow
until I do I'm telling you so you'll understand

Bbm7 Eb6 D0 G7-9 C G7-9 C


Michelle, ma belle sont les mots qui vont tres bien ensemble, tres bien ensemble
F Bbm7 C Fm C F
I will say the only words I know that you'll understand, my Michelle

255
Beatles - While My Guitar Gentle Weeps

Intro:
Am – Am/G – Am6 – Fmaj7
Am – G – D – E – E7

Verse:
Am Am/G Am6 Fmaj7
I look at you all see the love there that's sleeping
Am G D E
While my guitar gently weeps
Am Am/G Am6 Fmaj7
I look at the floor and I see it needs sweeping
Am G C E
Still my guitar gently weeps

Refrein:
A C#m F#m C#m Bm E
I don't know why nobody told you how to unfold your love
A C#m F#m C#m
I don't know how someone controlled you
Bm E
They bought and sold you

Verse:
Am Am/G Am6 Fmaj7
I look at the world and I notice it's turning
Am G D E
While my guitar gently weeps
Am Am/G Am6 Fmaj7
With every mistake we must surely be learning
Am G C E
Still my guitar gently weeps

Refrein:
A C#m F#m C#m
I don't know how you were diverted
Bm E
You were perverted too
A C#m F#m C#m
I don't know how you were inverted
Bm E
No one alerted you

Verse:
Am Am/G Am6 Fmaj7
I look at you all see the love there that's sleeping
Am G D E
While my guitar gently weeps
Am Am/G Am6 Fmaj7
Look at you all...
Am G C E
Still my guitar gently weeps

(fade out)

256
Beatles - With a little help from my friends

Am6 - x02212

E B F#m
What would you think if I sang out of tune
B7 E
Would you stand up and walk out on me?
B F#m
Lend me your ears and I'll sing you a song
B7 E
And I'll try not to sing out of key

[chorus:]
D A E
Oh, I get by with a little help from my friends
D A E
Mm, I get high with a little help from my friends
A E B7
Mm, gonna try with a little help from my friends

E B F#m B7 E
What do I do when my love is away (Does it worry you to be alone?)
B F#m
How do I feel by the end of the day
B7 E
(Are you sad because you're on your own?) No...

[chorus]

[bridge:]
C#m F#7 E D A
(Do you need anybody?) I need somebody to love
C#m F#7 E D A
(Could it be anybody?) I want somebody to love

[verse:]
Would you believe in a love at first sight
Yes, I'm certain that it happens all the time
What do you see when you turn out the light
I can't tell you but I know it's mine ...

[chorus]

[bridge:]
(Do you need anybody?) I just need someone to love
(Could it be anybody?) I want somebody to love

D A E
Oh, I get by with a little help from my friends
D A E
Mm, I'm gonna try with a little help from my friends
D A E
Oh I get high with a little help from my friends
D A
Yes, I get by with a little help from my friends
C Am6 E
With a little help from my friends

257
Beatles - Yellow Submarine

Stemming Eb-Ab-Db-Gb-Bb-Eb

D C G
In the town where I was born
Em Am C D
Lived a man who sailed the sea
C D C G
And he told us of his life
Em Am C D
In the land of submarines

So we sailed up to the sun


Till we found the sea of green,
And we lived beneath the waves
In our yellow submarine.

G D
We all live in a yellow submarine,
G
Yellow submarine, yellow submarine.
D
We all live in a yellow submarine,
G C
Yellow submarine, yellow submarine

D C G
And our friends are all on board
Em Am C D
Many more of them live next door
C D C G Em
And the band begins to play

|||| ||||
Am C | D C

We all live in a yellow submarine,


Yellow submarine, yellow submarine.
We all live in a yellow submarine,
Yellow submarine, yellow submarine.

|||| |||| |||| |||| |||| ||||


D C | G Em | Am C | D C | D C | G C

As we live a life of ease,


Every one of us has all we need.
Sky of blue and sea of green
In our yellow submarine.

We all live in a yellow submarine,


Yellow submarine, yellow submarine.
We all live in a yellow submarine,
Yellow submarine, yellow submarine.

258
Waylon - Hey

Verse:
Em
I was blinded by the light,
Bm
'Cause I was so misty eyed.
G
I was looking for love
A
And she was right on time

Em
I was shaking, she was too.
Bm
Didn't know what I should do.
G
It was late on a Sunday,
A
Tell me, is that a crime

[Pre-chorus] 2x
Em
Can I hold you for the last time?
C
Can I hold you for the last time?
Bm
Can I hold you for the last time?
A
Than I'm gone.

Whoohooh.

Chorus:
G
Hey, I call you in the morning.
D C
I call you in the evening.
C Cm Dm Eb F
See you around, 'round, 'round, 'round.

G
Hey, you don't have to love me.
D C
You just have to like me.
C Cm Dm Eb F
Just lay me down, down, down, down.

259
Verse:
Em
I don't wanna compromise.
Bm
Don't wanna have to tell you lies.
G A
Let's not get emotional or rationalize.

Em
Now, don't you go imagine
That I whisper something crazy
Bm
Like I love you.
G
Stranger things have happened
A
To the two of us.

[Pre-chorus] 1x

Whoohooh.

[Chorus]

Bridge:
Em A
If you were the one for me,
C Bm
Would I even recognize, whoohoohoo
Em A
I could be your only love,
C Bm
Your only for tonight.

Solo:
G-D-C
Cm-Dm-Eb-F

[Chorus] 2x

260
Boudewijn de Groot - Parijs, Berlijn, Madrid

CAPO III

C - Em - Am - D
C - G - F - G

C Em Am D
Ik heb nog twee paar schoenen in Madrid waarvan een paar dat me prima zit
C G F G
En soms denk ik: ik neem de trein om weer eens in Madrid te zijn

C Em Am D
Er staat een zak met wasgoed in Parijs, waarin een hemd, dat mis ik voor
geen prijs
C G F G
En soms denk ik: ik stap eens op en haal die zak met wasgoed op

C Em Am D
Ik heb ook nog een koffer in Berlijn, maar ik weet niet meer wat de inhoud
wel kan zijn
C G F G
En soms denk ik: weet je wat ik doe, ik ga eens naar die koffer toe

F Fm
Maar ja, Madrid, Parijs, Berlijn, waar mijn schoenen en mijn hemd en mijn
koffer zijn
F/C
Wat moet ik met die grote steden?
F G
Wat moet ik met die resten van een ver verleden?

C Em
Die schoenen zijn beschimmeld en dat hemd is te klein
Am D
En die koffer zal wel niet te tillen zijn

F Fm
Ach ja, Parijs, Berlijn, Madrid, waar iemand anders met zijn voeten in mijn
schoenen zit
F/C
Van dat hemd zullen ze wel een stofdoek maken
F G
En die koffer, die doet tenslotte niets ter zake...

C Em
Wat moet ik met die dingen, ik blijf zitten waar ik zit
Am D F
Ik ben bij jou, tabé Parijs, Berlijn, Madrid (ooh!)

Solo in F/C, dan over naar G

C Em Am D
Ik heb nog twee paar schoenen in Madrid waarvan een paar dat me prima zit
C G F G
En soms denk ik: ik neem de trein om weer eens in Madrid te zijn

261
C Em Am D
Er staat een zak met wasgoed in Parijs, waarin een hemd, dat mis ik voor
geen prijs
C G F G
En soms denk ik: ik stap eens op en haal die zak met wasgoed op

C Em Am D
Ik heb ook nog een koffer in Berlijn, maar ik weet niet meer wat de inhoud
wel kan zijn
C G F G
En soms denk ik: weet je wat ik doe, ik ga eens naar die koffer toe

C - G - F - G
C - G - F - G C

262
Sniff 'N' the Tears - Driver's Seat

Riff:
e |-----------------| e |-----------------|
B |-----------------| B |----3-5------3---|
G |-----------------| of G |-2---------4---4-|
D |----0-2------0---| D |--------5--------|
A |-0---------2---0-| A |-----------------|
E |--------3--------| E |-----------------|

Bm A G
Doing alright
Bm A G
A little jiving on a Saturday night
Bm A G
And come what may
Bm A G
Gonna dance the day away

Jenny was sweet


Show a smile for the people she needs
I'm trouble, let's drive,
I don't know the way you came alive

News is blue (the news is blue)


Has its own way to get to you
What can I do (what can I do)
When I remember my time with you

Pick up your feet


Got to move to the trick of the beat
There is no lead
Just take your place in the driver's seat

Bm A G Bm A G
Driver's seat, oohoo, driver's seat, yeah

Doing alright
A little jiving on a Saturday night
And come what may
Gonna dance the day away

Driver's seat, oohoo, driver's seat, yeah

Jenny was sweet


There is no lead
Pick up your feet, pick up, pick up
Pick up your feet, gonna dance the day away

Driver's seat, oohoo, driver's seat, yeah


Driver's seat, oohoo, driver's seat, yeah
Driver's seat...

263
Boudewijn de Groot - Onderweg

CAPO I

G - G - C - D
G - G

G C D G
Nu valt de nacht, zacht als de sneeuw en alles staat stil in de kou
G C D G
Valt er van ver, een ster op mijn pad, dan neem ik hem mee voor jou

D C D C D C D
Stil staan in 't woud, donker en oud, de sparren versteend op wacht
D C G C G D
Het licht komt van ver, van lichtjaren her en ik ben onderweg

G C D G
Nu is de nacht, zacht als de sneeuw, de hemel als ijs zo blauw
G C D G
Ik draag een ster, van ver in mijn hand, ik ben onderweg naar jou

D C - D C - D C - D
D C - G C - G D - D

G C D G
Nu valt de nacht, zacht als de sneeuw en alles staat stil in de kou
G C D G
Valt er van ver, een ster op mijn pad, dan neem ik hem mee voor jou

264
Prins, De Munnik en Den Tex - Stormvogels

Intro:

Dm Gm }
Dm Gm }
Dm Gm } 2x
A Dm }

Dm Gm
De ene is een doener
Dm Gm
en de andere een dromer.
Dm Gm
Ooit hadden we een bandje,
A Dm
maar dat kwam niet van de grond.
Dm Gm
Wat ons samen, nou het is meer nog,
Dm Gm
wat ons scheidt dan wat ons bindt.
Dm Gm
Het gaat van introvert naar sceptisch,
A Dm
tot een gulle grote mond.

Dm Gm
En we lachen om elkander,
Dm Gm
als de avond daar om vraagt.
Dm Gm
En we geven lik op stuk
A Dm
aan wie de humor niet verdraagt.
Dm Gm
Niet voor de hand liggende vrienden,
Dm Gm
in een wekelijks vast decor.
Dm Gm
Maandag-avond op de Nieuwmarkt,
A Dm
In café L'etoil du Nord.

Dm Gm Dm Gm
Storm-vogels in het stam - café.
Dm Gm A Dm
Een avond zonder ‗kut - tv‘.
Dm C Am Bb
We halen zingend mooie tijden terug,
Gm A Dm
En pissen samen van de brug.
Gm C F Bb A Dm
Want morgen is er weer een dag en alles stroomt voorbij.

Dm Gm }
Dm Gm }
Dm Gm } 2x
A Dm }

265
Dm Gm Dm Gm
De ene is getrouwd en de andere al zo vaak.
Dm Gm A Dm
De derde is een losse, hij weigert zo‘n verbond.
Dm Gm Dm Gm
En zo weinig als ze hebben, het is wat de anderen ontberen,
Dm Gm A Dm
proberen van elkaar te leren, scepsis, lust en grote mond.

Dm Gm Dm Gm
En het is niet wie er gelijk heeft, of wie het meeste weet,
Dm Gm A Dm
het is het mooist verhaal of het fraaist verpakte leed.
Dm Gm Dm Gm
Het zijn vrienden voor het leven, maar steeds heel even.
Dm Gm A Dm
Hoor ze praten, maandagavond, in café Le Toir du Nord.

Dm Gm Dm Gm
Stormvogels in de tamme stad.
Dm Gm A Dm
Drie maten op het oorlogs-pad.
Dm C Am Bb
Ze halen zingend mooie tijden terug
Gm A Dm
en pissen samen van de brug.
Gm C F Bb A Dm
Want morgen is er weer een dag en alles stroomt voorbij.

Dm Gm }
Dm Gm }
Dm Gm } 2x
A Dm }

266
Dm Gm
De ene is een denker
Dm Gm
en de ander is een prater.
Dm Gm
Ooit hadden we een bandje,
A Dm
maar dat kwam niet van de grond.
Dm Gm
We lullen over vroeger,
Dm Gm
maar we zwijgen over later.
Dm Gm
Ge-heimen houdt je voor je,
A Dm
die gaan zelden in het rond.
Dm Gm
Al-leen als het echt moet,
Dm Gm
als je het echt niet meer kan houden.
Dm Gm
Dan ver-tel je het je vrienden
A Dm
en dan zit het altijd snor.
Dm Gm
Want je laat elkaar niet zitten,
Dm Gm
je bent één door dik en dun.
Dm Gm
Maandag-avond op de Nieuwmarkt,
A Dm
in café Le Toir Du Nord.

Dm Gm Dm Gm
Storm-vogels tegen sluitings-tijd.
Dm Gm A Dm
Een wereld zonder na – rig - heid.

Dm C Am B#
We halen zingend mooie tijden terug
Gm A Dm
en pissen samen van de brug.
Gm C F Bb A Dm
Want morgen is er weer een dag en alles stroomt voorbij.
Gm C F Bb A Dm
Want morgen is er weer een dag en alles stroomt voorbij.

Dm Gm }
Dm Gm }
Dm Gm } 2x
A Dm }

267
Doe Maar - 1 nacht alleen

Em | F# | Am | Em D
Em | F# | Am | Em D
G | | Am | D
G | | Am | D

[couplet:]
G
Laat me pitten en hou de gordijnen dicht
Am D
Tranen in mun ogen van ut ochtendlicht
G
Nevel in mun kop en un tong van leer
Am
Ik wou nog vroeg naar bed maar oh
D
Daar ging ik weer

G
Een pilsje hier twee whiskies daar
Am D
En sjansen met un dame in de "late night bar"
G
Net als ik naar huis ga loop ze met me mee
Am D
Ze kijkt me vragend aan en oh ik zeg niet nee(jee)
Am D
Ohoho Ahaha

[refrein:]
G Bm
Één nacht alleen, één nacht alleen
F
Kom niet bij me kloppen, mun deur is op slot
C D
Laat me een keer slapen of ik ga kapot
G Bm
Één nacht alleen, ohoho één nacht alleen
C Bm Am
Met de stilte om me heen
Em
Één nacht alleen

Em | F# | Am | Em D
Em | F# | Am | Em D
G | | Am | D
G | | Am | D

[couplet:]
Sylvia Jeanette Natalie en Fien
Elsje Treesje Truus Babbette Betsie en Sabine
Greet Magreet Magriet Marie Marei en Angelien
Mies Marjan Marjo Marlyn en kleine Tine

[refrein]

Em | F# | Am | Em D
Em | F# | Am | Em D

[refrein] (2x/fade)

268
Doe Maar - Sinds 1 dag of 2 (32 jaar)

A5/Ab = 477xxx
F#dim = 234242

A
Sinds een dag of twee

Vlinders in m'n hoofd

Sinds een dag of twee

Aangenaam verdoofd
F#m C#m D
'k Was haast vergeten hoe 't voelt
E A
Om verliefd te zijn

Ik kijk om me heen
Door een roze bril
Veel te lang alleen
'k Stond een beetje stil
Hoe kon ik 't weten
M'n wereldje was zo klein

Refrein:
Am A5/Ab
't Is wel een beetje raar
C F#dim
Tweeëndertig jaar
Fm7 Fm7
Trillend op m'n benen (op m'n benen)
G G7 A D
Als ze is verdwenen (is verdwenen oh la la la la la)
A D
Ze is ze is van mij (oh la la la la la)
A D
Ze is ze is van mij (oh la la la la la)
A D
Ze is ze is van mij (oh la la la la la)

Mannen bij de vleet


Wachtend in een rij
Deert me toch geen reet
Want ze kijkt naar mij
Liefde, oh liefde
Waar was jij toch al die tijd

Alles wat ze zegt


Slik ik voor zoete koek
En m'n scherpe blik
Is ook al dagen zoek
't Kan me niet schelen
Zolang ze maar met me vrijt

A D A
(oh la la la la la) ze is ze is van mij
G A
(oh la la la la oh oh oh) ze is van mij

269
Doe Maar - Belle Helene

intro:
B-1-3-5-6-8-10-11-13-15-
G-2-3-5-7-9-10-12-14-15-

Dm Bb Am Dm

G A Dm
't Is dus toch zo ver gekomen. Dat jij hier naast me ligt.

G A Dm F
En in de schemer van de ochtend kijk ik naar je gezicht.

Bb F G Bb F G
Je bent hetzelfde maar toch anders. Ik heb je zolang niet gezien.

G A Dm Gm F
Je bent ineens geen kind meer. Maar zo mooi en minstens 17.

Refr:
Dm Bb C Dm
Oe belle Helene Helene ma belle

Oe belle Hélène
Hélène ma belle

Ik weet niet of het goed of slecht is


Dat ik met je vrijen wou
En wat een ander ook mag zeggen
Ik vond het fijn bij jou
Zoals je naast me ligt te slapen
Zo heb ik jou nog niet gezien
Je lijkt ineens geen kind meer
Maar zo mooi en minstens zeventien

Oe belle Hélène
Hélène ma belle
Oe belle Hélène
Hélène ma belle

270
Doe Maar - Doe maar net alsof

Dm | Dm | G | G |
Dm | Dm | G | G |

[couplet:]
Dm G
Je ziet in je krantje dat ut
Dm G
Allemaal uit de hand loopt
Dm G
Je leest maar niet verder want je
Dm G
Voelt ut begin van wanhoop
Dm G
Dan rook je un stikkie en je
Dm G
Vergeet wat je wilt vergeten
Dm G
Je kijkt televisie en je
Dm G
Vermijdt zo ut ware leven

[refrein:]
F
Dus doe maar net alsof je neus bloedt
G
Doe doe maar net alsof je neus bloedt
Bb C Dm
Doe maar net alsof je neus bloedt
F
Doe maar net alsof je neus bloedt
G
Doe maar net alsof je neus bloedt
Bb C Dm
Doe maar net alsof je neus bloedt

[couplet:]
Je ging nog wel stemmen, want je
Wou je niet laten kisten
Je zou toch niet willen dat ze
Iets zonder jou beslisten
Maar blijf je ook wakker om dat
Gajes te kontroleren
Ze naaien je beste maatje
Voordat je je kont kunt keren

[refrein] (3x/fade)

271
Doe Maar - Heroine

D C | G | D C | G
D C | G | D C | G
D C | G | D C | G
D C | G | D C | G

D C G D C G
Mijn god, wat ben je veranderd, je bent dezelfde niet
D C G D C G Bb
Je had zo'n mooie mond vol tanden, daar is niks meer van over
D C G D C G
En dan die blik in je ogen, je kijkt wel maar je ziet niets
D C G D C G Bb
Ik heb je altijd gemogen, ze vinden je een klootzak

G#
Heroine, godverdomme
Heroine, godverdomme
Heroine is een vloek
Heroine, godverdomme
Heroine, godverdomme
Hero- wie verdient dat

D C | G | D C | G
D C | G | D C | G

Als jij alleen was op de wereld, nou, dan kon ik er nog bij
Maar heb het lef eens te beweren dat er niemand naar je omkijkt
Je belazert al je vrienden, verneukt je eigen lief
Besteelt je moeder voor een tientje als jij maar je shot krijgt

Heroine, godverdomme
Heroine, godverdomme
Heroine is een vloek
Heroine, godverdomme
Heroine, godverdomme
Hero- wie verdient dat

Ah, ah, ah, ah

Je zegt je zit in de zorgen, je bent een zielepiet


En elke dag zeg jij weer: "Morgen stop ik met die rotzooi"
Nou, het is je eigen leven, je moet het zelf maar zien
Maar ik zou er wat voor geven als ik je weer eens lachen zag

Heroine, godverdomme
Heroine, godverdomme
Heroine is een vloek
Heroine, godverdomme
Heroine, godverdomme
Wie, heregod, verdient dat

272
Doe Maar - Pa

Intro: Em-D/Em-D///Em-D/Em-D/

Em D/G Em D/G Em D/G


Zoals je daar nu zit, je haren bijna wit, de rimpels op je handen
Em D/G Em D/G Em D/G
Zo vriendelijk en zacht, wie had dat ooit gedacht, je bent zoveel veranderd !
C Bm C Bm C Bm7 Am
Ik werd niet wat je wou, maar papa luister nou, ik doe de dingen die ik doe
Em – D
Met m'n ogen dicht !

Em D/G Em D/G Em D/G


Je was heel wat van plan, maar daar kwam weinig van, ik lever geen prestaties
Em D/G Em D/G Em D/G
ik heb niet veel geleerd, deed alles net verkeerd, heb moeite met relaties !
C Bm C Bm C Bm7 Am
Ik loop niet in de rij, ik breek en vecht me vrij en doe de dingen die ik doe
Em – D Em – D
Met m'n ogen dicht !

Em/B D/A C D
Knoop je jas dicht, doe 'n das om, was eerst je handen
Em/B D/A C D
Kam je haren, recht je schouders, denk aan je tanden
Em/B D/A C Bm
Blijf niet hangen, recht naar huis toe, spreek met twee woorden
C D7 Em – D Em – D
Stel je netjes voor, eet zoals 't hoort en zeg U !!!

Em D/G Em D/G Em D/G


Ik sta hier en ik zing, ik doe gewoon mijn ding, dat moet je accepteren.
Em D/G Em D/G Em D/G
Ach luister nou toch pa, het is nog niet te laat, want leven kun je . . .
leren
C Bm C Bm C Bm7 Am
Ik weet niet waar ik sta, loop niemand achterna, maar doe de dingen die ik
doe,
Em – D Em – D
met mijn ogen dicht !

chorus repeating until fade-out

273
Doe Maar - Smoorverliefd

F9 XX3013

C Bb F C Bb F C Bb F
Mijn oh mijn Oh ik heb pijn O zo'n pijn
E F G Am
tot over mijn oren smoorverliefd op jou
C Bb F C Bb F C Bb F
Keer op keer stort ik weer neer ik kan niet meer
E F G Am
Tot over mijn oren smoorverliefd op jou

C G Bb F C G
Veel te vrij. Wat moet ik met een meisje zo als jij
C G Bb F E
Veel te vrij. Je hebt niemand nodig tot over zijn oren
F G C6
Smoorverliefd op jou

C Bb F C Bb F C Bb F
Ik ben verward voel es m'n hart gaat veel te hard
E F G Am
Tot over m'n oren smoorverliefd op jou
C Bb F C Bb F C Bb F
Ik voel me verrot ik ga kapot. Ik lijk wel zot
E F G Am
Tot over m'n oren smoorverliefd op jou

Am G
Ik lijk wel zot en ik voel me rot
E F9 G
Liefde is een vreemde ziekte

274
Pointer Sisters - I'm so excited

Eb6/Bb 6-6-8-8-8-8

Intro:
Gm | Cm C7sus4 Cm | Eb Ebsus2 Eb | Bbsus4 Bb
Gm | Cm C7sus4 Cm | Eb Ebsus2 Eb | Eb6/Bb Bb

Gm Cm
Tonight's the night we're gonna make it happen,
Eb Bb
Tonight we'll put all other things aside.
Gm Cm
Give in this time and show me some affection,
Eb Bb
We're going for those pleasures in the night.

Am
I want to love you, feel you,
Gm Dm
Wrap myself around you.
Am
I want to squeeze you, please you,
Gm
I just can't get enough,
Eb Gm7
And if you move real slow,
F
I'll let it go

Gm
I'm so excited,
Eb
And I just can't hide it,
F
I'm about to lose control
Gm
And I think I like it.

I'm so excited,
Eb
And I just can't hide it,
(Eb/C) F
And I know, I know, I know, I know
Gm (F Gm)
I know I want you, want you

Gm Cm
We shouldn't even think about tomorrow,
Eb Bb
Sweet memories will last a long long time.
Gm Cm
We'll have a good time baby don't you worry,
Eb Bb
And if we're still playing around boy that's just fine.

275
Gm
Let's get excited,
Eb
And I just can't hide it,
F
I'm about to lose control
Gm
And I think I like it.

I'm so excited,
Eb
And I just can't hide it,
(Eb/C) F
And I know, I know, I know, I know
Gm (F Gm)
I know I want you, want you

276
Gnarls Barkley - Crazy

Cm Eb
I remember when, I remember, I remember when I lost my mind
Ab
There was something so pleasant about that phase.

Even your emotions had an echo


Gm G(7)
In so much space
Cm
And when you're out there, without care,
Eb
Yeah, I was out of touch
Ab
But it wasn't because I didn't know enough
Gm G(7)
I just knew too much

Cm
Does that make me cra-zy
Eb
Does that make me cra-zy
Ab
Does that make me cra-zy
Gm G(7)
Probably

(this verse pattern for the second verse is the same as the third verse, but
different
the first)

C Ab
And I hope that you are having the time of your life
Eb Gm G(7)
But think twice, that's my only advice
Cm Eb
Come on now, who do you, who do you, who do you, who do you think you are,
Ab
Ha ha ha bless your soul
Gm G(7)
You really think you're in control

Well, I think you're crazy


I think you're crazy
I think you're crazy
Just like me

My heroes had the heart to lose their lives out on a limb


And all I remember is thinking, I want to be like them
Ever since I was little, ever since I was little it looked like fun
And it's no coincidence I've come
And I can die when I'm done

Maybe I'm crazy


Maybe you're crazy
Maybe we're crazy
Probably

277
Raymond van het Groenewoud - Ik ben God niet

CAPO: 1 (caribisch) of 3 (rock)

Intro : E – D – A (4x)

Verse:
E D A E D A
dit zal je wel verbazen ik kan niet alles aan
E D A E D A
ik ben nogal eenvoudig, uit mijn lood te slaan
E D A E D A
ik veeg niet elk obstakel fluitend van de baan
B
wie had dit ooit gedacht, zoveel bescheidenheid
ik heb niet overal voor alles tijd

Refrein:
n.c. E D A C
ik ben God niet, God woont aan de overkant
E D A C
God niet, ben niet tegen veel bestand
E D A C
het doseren, controleren, elke chaos te trotseren
E D A C
en bij kortsluiting heel teder je aanwezigheid te eren
B
het lijkt me nu wel zeker, het lijkt me nu wel
n.c. E D – A
het lijkt me nu wel zeker ik ben God niet

VERSE:
en jij die dacht dat ik er altijd zou zijn voor jou
gaaf ongeschonden, vloeibaar zonder zout
dat ik de losse grond ben, waarop jij hebt gebouwd
ik kan het niet verdragen, omdat ik van je hou
van je hou, van je hou, hou, hou, hou, hou, hou, hou
is dat soms wat je wenst, dat ik niet lang meer leef
dat ik getikt en dat mijn hart begeeft

REFREIN:
ik ben God niet, God woont aan de overkant
God niet, ik heb niet zoveel verstand
van soigneren en charmeren, door de druk te navigeren
en in tijden van verwarring, met attentie te vereren
het lijkt me nu wel zeker, het lijkt me nu wel
het lijkt me nu wel zeker, ik ben God niet

Intro : E – D – A (fade out)

278
Radiohead - Karma Police

INTRO:
------
Am D7sus2/F# Em G
Am F Em G
Am D G G/F# C C/B Am
Bm D

VERSE 1:
--------
Am D7sus2/F# Em
Karma Police,
G Am (Amadd9)
arrest this man,
F Em
he talks in maths,
G Am
he buzzes like a fridge
D G G/F# C C/B Am Bm D
he's like a detuned ra-di--o

VERSE 2: [play same as verse 1]


--------
Karma Police,
arrest this girl,
her Hitler hairdo,
is making me feel ill,
and we have crashed her party

CHORUS:
-------
C D G F#
This iswhat you'll get,
C D G F#
This iswhat you'll get,
C D G
This iswhat you'll get,
Bm C Bm D
When you mess with us...

VERSE 3: [play same as verses 1 & 2]


--------
Karma Police,
I've given all I can,
it's not enough,
I've given all I can,
but we're still on the payroll

CHORUS: [play same as first chorus]


-------
This is what you'll get,
This is what you'll get,
This is what you'll get,
When you mess with us...

279
OUTRO:
------
Bm D G
For a minute there,
D G D E
I lost myself I lost myself,
Bm D G
For a minute there,
D G D E
I lost myself I lost myself,

Bm D G D G D E

Bm D G
For a minute there,
D G D E
I lost myself I lost myself,
Bm D G
Just for a minute there,
D G D E
I lost myself I lost myself,

[Keep playing OUTRO chord progression 'till end]

280
Ramses Shaffy - Zing, vecht, huil, bid, lach, werk en bewonder

B6 = B Zes = -7-9-7-8-9-7-
A#Ø = Ais Halfverminderd = -6-7-8-6-9-6-
Dadd6 = D Add Zes = -X-5-7-7-7-7-
Dadd9 = D Add Nine = -X-5-7-7-5-5-
A#b5 = Ais Verlaagde Vijf = -X-1-2-3-3-1-
G#m+5 = Gis Mineur Verhoogde Vijf = -4-7-6-4-4-4-
Gadd6 = G Add Zes = -3-5-X-4-5-3-

G E
Voor degene in een schuilhoek achter glas
G E
Voor degene met de dichtbeslagen ramen
G E
Voor degene die dacht dat-ie alleen was
G B C# | B | C# B |
Moet nu weten, we zijn allemaal samen

G E
Voor degene met ‘t dichtgeslagen boek
G E
Voor degene met de snel vergeten namen
G E
Voor degene die 't vruchteloze zoeken
G Bsus4 B
Moet nu weten, we zijn allemaal samen

E B6 C#m7 B7 A#Ø B7
Zing, vecht, huil, bid, lach, werk en bewonder
E Emaj7 E7 A Dadd6
Zing, vecht, huil, bid, lach, werk en bewonder
E B6 C#m7 B7 A#Ø B7sus4 B7
Zing, vecht, huil, bid, lach, werk en bewonder
E B6 C#m7 B7 A#Ø B7sus4 B7
Zing, vecht, huil, bid, lach, werk en bewonder
E
Niet zonder ons

Voor degene met de slapeloze nacht


Voor degene die 't geluk niet kan beamen
Voor degene die niets doet, die alleen maar wacht
Moet nu weten, we zijn allemaal samen

Voor degene met z'n mateloze trots


In z'n risicoloze hoge toren
Op z'n risicoloze hoge rots
Moet nu weten, zo zijn we niet geboren

Zing, vecht, huil, bid, lach, werk en bewonder


Zing, vecht, huil, bid, lach, werk en bewonder
Zing, vecht, huil, bid, lach, werk en bewonder
Zing, vecht, huil, bid, lach, werk en bewonder
Niet zonder ons

281
G E
Voor degene met 't open gezicht
G E
Voor degene met 't naakte lichaam
G E
Voor degene in 't witte licht
G Bsus4 B
Voor degene die weet, we komen samen

Zing, vecht, huil, bid, lach, werk en bewonder


Zing, vecht, huil, bid, lach, werk en bewonder
Zing, vecht, huil, bid, lach, werk en bewonder
Zing, vecht, huil, bid, lach, werk en bewonder
Niet zonder ons

E Dadd9 C#m C Bsus4 A#b5 A G#m+5


Niet zonder ons, Niet zonder ons, Niet zonder ons, Niet zonder ons,
Gadd6 F#m7 Fmaj7 E Dadd9 C#m C Bsus4
Niet zonder ons, Niet zonder ons, Niet zonder ons, Niet zonder ons,
A#b5 A G#m+5 Gadd6 F#m7 Fmaj7 E Dadd9
Niet zonder ons, Niet zonder ons, Niet zonder ons, Niet zonder ons,
C#m C Bsus4 A#b5 A G#m+5 Gadd6 F#m7
Niet zonder ons, Niet zonder ons, Niet zonder ons, Niet zonder ons,
Fmaj7 E
Niet zonder ons

282
Obadiah Parker - Hey Ya

CAPO 4

C F
My baby don't mess around
F
Because she loves me so
G Am7
And this I know for sure
C F
But does she really wanna
F
But can't stand to see me
G Am7
Walk out the door
C F
Don't try to fight the feeling
F G Am7
Because the thought alone is killing me right now
C F
Thank god for mom and dad
F
For sticking two together
G Am7
'Cause we don't know how.

Chorus:
C F
And, Hey Ya
G Am7
Hey Ya
C F
Hey Ya
G Am7
Hey Ya

C
You think you've got it
F
Ohh, you think you've got it
F
But got it just don't get it
G Am7
Till' there's nothing at all.
C
We get together
F
Oh, we get together
F G Am7
But seperate's always better when there's feelings involved.
C F
If what they say is "Nothing is forever"
G Am7
Then what makes, Then what makes, Then what makes, Then what makes,
G Am7
Love the exception?
C
So why you, why you
F F
Why you, why you, why you are we so in denial
G Am7
When we know we're not happy here

283
Chorus:
C F
And, Hey Ya
G Am7
Hey Ya
C F
Hey Ya
G Am7
Hey Ya

C F
Alright now fellas
G Am7
Now what's cooler than being cool?
C F
I can't hear you now
F G Am7
I say what's cooler than being cool?
C F
Alright, alright, alright, alright
G Am7
Alright, alright, alright, alright
Alright, alright, alright, alright
C F
Ok now ladies
G Am7
And we gonna break this thing down in just a few seconds here
C F
Now don't have me break it down for nothing
G Am7
Now I wanna see y'all on y'alls baddest behavior
C F
Lend me some sugar,
G Am7
I am your neighbor

Shake it, shake, shake it, shake it


Shake it, shake it, shake, shake it,
Shake it, shake, shake it, shake it
Shake it, shake it, shake, shake it,
Shake it like a Polaroid picture
Shake it, shake, shake it, shake it
Shake it, shake it, shake, shake it,

Chorus:
C F
And, Hey Ya
G Am7
Hey Ya
C F
Hey Ya
G Am7
Hey Ya

284
K3 - Heya Mamma

Refrein: 2x
Bb F
He yo he ya mamani
Gm Dm
ye ho He ya mamani
Eb Bb Cm Bb F
ye ho He he he he he he he he.

Couplet:
Bb F
Hittegolf in de stad,
Gm Dm Eb Bb
jongens en meisjes dansen door de straten
Cm F
lekker uitgelaten
Bb F
Ik wil jou jij wilt mij,
Gm Dm Eb Bb
ik weet een plekje waar ze ons niet vinden
Cm F
Jij mag me verslinden

Dm Gm
Doe het heel zachtjes,
Dm F Bb
geen kreetjes en geen lachjes
Dm Gm
Heel zachtjes,
Ab
T‘wordt een leuke zomer
F
lieve mooie dromen

Refrein: 2x
He yo he ya mamani
ye ho He ya mamani
ye ho He he he he he he he he.

Couplet:
Bb F
Hittegolf in mijn hart
Gm Dm Eb Bb
Laat mij vanavond naar je kamer komen
Cm F
duizend hete dromen
Bb F
Ik wil jou jij wilt mij
Gm Dm Eb Bb
Slaap nu maar zacht en laat je ramen open
Cm F
Ik kom eraan geslopen

Doe het heel zachtjes,


geen kreetjes en geen lachjes
Heel zachtjes,
T‘wordt een leuke zomer
lieve mooie dromen

285
Refrein: x2
He yo he ya mamani
ye ho He ya mamani
ye ho He he he he he he he he.

He mame he mame mame mame,mame,mame oebadoelé

Dm Gm Dm F Bb
Doe het heel zachtjes,
Dm Gm
Heel zachtjes,
Ab
T‘wordt een leuke zomer
F
lieve mooie dromen

Refrein:
Bb F
He yo he ya mamani
Gm Dm
ye ho He ya mamani
Eb Bb Cm Bb F
ye ho He he he he he he he he.

Bridge: C

Refrein: 2x
C G
He yo he ya mamani
Am Em
ye ho He ya mamani
F C Dm C G
ye ho He he he he he he he he.

Refrein: 2x
He yo he ya mamani
ye ho He ya mamani
ye ho He he he he he he he he.

He yo

286
Jose Gonzales - Heartbeats

Tuning - D-A-D-F#-B-E
CAPO 1

E ||--------------------------------|--------------------------------|
B ||--------------------------------|---------------------------0----|
F#||---------------3----------------|---------------3----------------|
D ||------------0-----------0-------|------------0-----------0-------|
A ||-----4h-5-5------4h-5-5----5-0--|-----4h-5-5------4h-5-5----5-0--|
D ||--0-----------------------------|--0-----------------------------|

------------------------------|-------------------------------|----||
----------0-------------------|-------------------------------|----||
-----------------------0------|----------0---------------0----|----||
-------4----4------------4----|-------0------0--------0-------|----||
--2--2---------0h-2-2---------|-----5------5---4h-5-5------0--|----||
---------------------------4--|--5----------------------------|----||

E ||--------------------------------||
B ||--------------------------------||
F#||---------------3----------------||
D ||----------0-----------0---------||
A ||-----4h-5---5----4h-5---5--5-0--||
D ||--0-----------------------------||

The later part plus the ending strum

------------------------------|------------------------------|
------------------------------|------------------------------|
----------0-------------0-----|----------0-------------0-----|
-------0------0------0------0-|-------0------0------0------0-|
-----7------7------7------7---|-----7------7------7------7---|
--7-------------7-------------|--7-------------7-------------|

------------------------------|------------------------------|
------------------------------|------------------------------|
----------0-------------0-----|----------0-------------0-----|
-------0------0------0------0-|-------0------0------0------0-|
-----5------5------5------5---|-----5------5------5------5---|
--5-------------5-------------|--5-------------5-------------|

------------------------------|------------------------------|
------------------------------|------------------------------|
----------0-------------0-----|----------0-------------0-----|
-------0------0------7------0-|-------0------0------0------0-|
-----7------7------7------7---|-----7------7------7------7---|
--7-------------7-------------|--7-------------7-------------|

------------------------------|-----------------------------|-------||
------------------------------|-----------------------------|-------||
----------0-------------0-----|----------0-------------0----|---3---||
-------0------0------0------0-|-------0------0------0-------|---0---||
-----5------5------5------5---|-----5------5------5------0--|---0---||
--5-------------5-------------|--5-------------5------------|---0---||

287
One night to be confused, one night to speed up truth
We had a promise made
Four hats and then away

Both under influence, we had a devine sense


To know what to say
I need some razorblade

To call for hands of above, to lean on


Wouldn't be good enough
For me, no

One night of magic rush, the star just simple touch


One night to push up stream
And then relieve

Ten days of perfect tunes


The colors red and blue
We had a promise made
We were in love

To call for hands of above, to lean on


Wouldn't be good enough

For me, no

To call for hands of above, to lean on


Wouldn't be good enough

And you
You knew you had to fight different
And you
Kept us away with wolf teeths, sharing different heartbeats
In one night

To call for hands of above, to lean on


Wouldn't be good enough
For me, no
To call for hands of above, to lean on
Wouldn't be good enough

288
Blof - Liefs uit Londen

Dmaj7 : x-x-0-2-2-2
Am7/9 : x-0-6-8-5-0
Fsus2 : x-x-3-0-1-1
Fadd2 : x-x-3-2-1-3
G7/9s4: 3-x-3-2-1-1 (G7/9sus4 akkoord)

INTRO:
A | Dmaj7 | F | G
A | Dmaj7 | F | Gsus4 G

Intro:

A Dmaj7 F G
e |------------0--5------------------------------------|
B |-2----0-2-3----2-------1---3--1--0-----3--1--0------|
G |-2--2----------2-----2-----2--------2--0-------2----|
D |-2-------------0-----------3------------------------|
A |-0--------------------------------------------------|
E |---------------------------1-----------3------------|

A Dmaj7 F G
e |------------0--5------------------------------------|
B |-2----0-2-3----2-------1---3--1--0-----1--0---------|
G |-2--2----------2-----2-----2--------2--0------------|
D |-2-------------0-----------3------------------------|
A |-0--------------------------------------------------|
E |---------------------------1-----------3------------|

Am7/9 C
Van de wereld weet ik niets
F C(F)
Niets dan wat ik hoor en zie, niets dan wat ik lees
Am7/9 C Fsus2 C(F) Fadd2
Ken geen andere landen, zelfs al ben ik er geweest
F G
Grote steden ken ik niet
Dm Dmsus2 Dm
Behalve uit de boeken, behalve van T.V.
Fmaj7 E E
Ken geen andere stad dan de stad waar ik leef

REFREIN:
A Dmaj7
Maar zij stuurt me kaarten uit Madrid
D Fmaj7 C(F) Fadd2 C(F)
En uit Moskou komt een brief
A Dmaj7
Met de prachtigste verhalen
D Fmaj7 C(F) G
En God, wat is ze lief
C Dm Dmsus2 Fmaj7 C(F) G
Gisteren uit Lissabon 'ik mis je' en een zoen
C Dm C(F) F
Vandaag uit Praag een kattebel, want er is zoveel te doen
C Bb Am
En morgen, als de postbode mijn huis weer heeft gevonden
Fmaj7 E A
dan stort ze mijn hart vol, met al het liefs uit Londen

289
(speel intro riff)
A | Dmaj7 | F | G
A | Dmaj7 | F | Gsus4 G

Am7/9 C
Van de wereld weet ik niets
F C(F)
niets dan wat ik hoor en zie, niets dan wat ik voel
Am7/9 C Fsus2 C(F) Fadd2
Ik leef van dag tot dag, zonder vrees en zonder doel
F G
Verre landen ken ik niet
Dm Dmsus2 Dm
Behalve uit mijn atlas, die droom ik elke nacht
Fmaj7 E E
Maar ik droom alleen de landen waar ze ooit aan me dacht

BRIDGE:
Fmaj7
Als een mooi en groot geloof
Em(G)
Aan de muur van mijn gedachten
Fmaj7
hangt een wereldkaart te wachten
D
Tot ze terugkomt
Fmaj7
Met haar reizen in mijn hoofd
C(E)
Steek ik vlaggen in de aarde
Dm7 G7/9sus4
Dezelfde kleur, dezelfde waarde

Refrein:
A Dmaj7
Maar zij stuurt me kaarten uit Madrid
D Fmaj7 C(F) Fadd2 C(F)
En uit Moskou komt een brief
A Dmaj7
Met de prachtigste verhalen
D Fmaj7 C(F) G
En God, wat is ze lief
C Dm Dmsus2 Fmaj7 C(F) G
Gisteren uit Lissabon 'ik mis je' en een zoen
C Dm C(F) F
Vandaag uit Praag een kattebel, want er is zoveel te doen
C Bb Am
En morgen, als de postbode mijn huis weer heeft gevonden
Fmaj7 E A
dan stort ze mijn hart vol, met al het liefs uit Londen

Dmaj7 D | F | G7 G | A | A

290
Blof - Harder Dan Ik Hebben Kan

Intro:
E |-----5-------------5-----------5-----5-----|
B |-2h3---3-2---0-2h3---3~~---2h3---3-3---3~~-|
G |-------------------------------------------|
D |-------------------------------------------|
A |-------------------------------------------|
E |-------------------------------------------|

Em C D C
Je buien maken vlekken op mijn hagelwit humeur
D Em D Dsus4 D
Ik heb m'n handen op je heupen, maar m'n hoofd is bij de deur
Em C D C
Ze zeggen dat het went, Ik heb het geprobeerd
D Em D
Maar hoe ik het ook wend of keer, M'n huis beschermt niet meer

Bm D/F#
Het regent harder dan ik hebben kan
G D/F# Em D G
Harder dan ik drinken kan
Bm D/F#
Het regent harder dan de grond aankan
G D/F# Em D G
Harder dan ik hebben kan

Je buien zijn de wolken aan mijn hemelsblauw humeur


Ik heb m'n handen op je heupen, maar m'n hoofd is bij de deur
Je ogen blijven grijs, ontkennen elke kleur
Het is alsof hier niemand woont, alsof er niets gebeurt

(intro riff)
Bm D/F#
Het regent harder dan ik hebben kan
G D/F# Em D G
Harder dan ik drinken kan
Bm D/F#
Het regent harder dan de grond aankan
G D/F# Em D G
Harder dan ik hebben kan

Solo:
E-----------------------------------------------------------------------------
B-----------------------------------------------------------------------------
G-----------7-9p7--9b10r9p7--9p7------------7-9p7--9b10r9~-7-7~~--------------
D-------7h9----------------------9~~----7h9-----------------------------------
A--9\-------------------------------------------------------------------------
E--9\-------------------------------------------------------------------------

E-----------------------------------------------------------------------------
B-----------------10--------------------15b16-15b16r15P12---------------------
G------7-9p7--9b10--10r9-9~-7~~---------------------------14b15r14P12--14p12--
D--7h9----------------------------X-X-----------------------------------------
A---------------------------------X-X-----------------------------------------
E-----------------------------------------------------------------------------

E---------------------------------------------------------------------------
B--------12--------------12-----12---12~~-----------------------------------
G--------12--------------12-----12--11~~----11h12-11-----11h12-11-----------
D--14-12----14-14~----------X-X----------------------12-----------12-12/14--
A------------------12h14----X-X---------------------------------------------
E---------------------------------------------------------------------------

291
E--------------------------------------------12-----------------------------
B--------------------------------------------12-----------------------------
G--------------11-11h12-11~--11-12-12h14-12---------------------------------
D--12h14-12H14--------------------------------------------------------------
A---------------------------------------------------------------------------
E---------------------------------------------------------------------------

Je buien zijn te donker voor mijn hemelsblauw humeur


Want mijn hoofd is in de wolken en m'n hand al bij de deur

Bm D/F#
Het regent harder dan ik hebben kan
G D/F# Em D G
Harder dan ik drinken kan
Bm D/F#
Het regent harder dan de grond aankan
G D/F# Em D G
Harder dan ik hebben kan

Bm D/F#
Het regent harder dan ik hebben kan
G D/F# Em D G
Harder dan ik drinken kan
Bm D/F#
Het regent harder dan de grond aankan
G D/F# Em D G
Harder dan ik hebben kan

292
Blof - Blauwe Ruis

[INTRO]

Em Bm C Am 2x

[COUPLET 1]

Em Bm C
Je droeg weer blauw die avond
Am
In een schaduw van zwart licht
Em Bm C
Er werd geen gat gedicht
Am
Met de brief die jij me nazond
Em Bm C
De tijd draait alles om
Am
Wat eens prachtig was wordt lelijk
Em Bm C
En wat je toen zo moeilijk vond
Am
Daar denk je niet meer aan
Em/G Bm/F# C
Laat je me nog gaan
Am
Wat onaf was blijf wel liggen
Em/G Bm/F# C C
Het maakt niets ongedaan

[REFREIN]

C Bm
Blauwe Ruis
Em
In het ziel en in m‘n oren
D
Ik wil het niet meer horen
C
Maar het houd nooit meer op
C Bm
Blauwe Ruis
Em
Wat je had gaat nooit verloren
D
Het wordt alleen maar harder
C
Het houd nooit meer op

[TUSSENSPEL]

Em Bm C Am

293
[COULPET 2]

Em Bm C
Je draagt steeds blauw die avond
Am
Op het scherm in m‘n hoofd
Em Bm C
En de brief die je me nazond
Am
Ik heb je niets beloofd
Em Bm C
En ook niets afgerond
Am
Onaangenaam verdoofd
Em Bm C
Blijf ik staren naar de grond

[REFREIN]

[BRIDGE]

Bm - Am - G - F#m - C - C

[SOLO]

Em - Bm - C - Am 2x

Em/G Bm/F# C
Laat je me nog gaan
Am
Wat onaf was blijf wel liggen
Em/G Bm/F# C C
Het maakt niets ongedaan

[REFREIN]

C Bm
Blauwe ruis....
Em D C
C Bm
Blauwe ruis....
Em

D C
Het wordt alleen maar harder, het houd nooit meer

294
Blof - Het Is Laat

Cadd9 X32033

1 INTRO & COUPLET a)


E-------------7----------------0-------------0-------------0---------------
B----4---5-----------------------0-------------0-------------0-------------
G---4------------------------2-----2-------2-----2-------2-----------------
D--4-----------------------2-------------2-------------2-------------------
A--------------------------------------0-------------0---------------------
E------------------------2-------------------------------------------------
"Ik doe mijn best om wakker te blijven. Maar mijn ogen vallen dicht."
enz.

2 COUPLET b)
E-------------0--------------------5------------------0--------------------
B-----------0---0--------------2-3----------------------0------------------
G---------2-------2-----------2-----------2---------2-----2----------------
D-------3--------------------2----------2---------2------------------------
A-------------------------------------0---------0--------------------------
E--------------------------------------------------------------------------
"Er zit veel te veel te hoog. Op het randje van"

E--------0--------------------
B----------0------------------
G------2-----2----------------
D----2------------------------
A--0--------------------------
E-----------------------------
"de slaap.

3 REFREIN)
E-------------1-------------------0------
B-----------3---3-------------------0----
G---------2-------2-------------2-----2--
D-------0---------------------2----------
A---------------------------0------------
E----------------------------------------
"Het is laat. Ik ben moe."
"Teveel gedronken. Teveel gepraat.

E-------------0--------------0-------------------0----------------5--------
B-----------0---0----------0---0---------------0---0-----------2-3---------
G---------2-------2------2-------2-----------2-------2--------2------------
D-------3--------------4-------------------3-----------------2-------------
A--------------------------------------------------------------------------
E---------------------------------------------------------------------0----
"Teveel gerookt en nog meer gepraat. Ik ben moe."

E------------------7----------------0-------------0------------------------
B---------4---5-----------------------0-------------0----------------------
G--------4------------------------2-----2-------2-----2---1--2-------------
D-------4-----------------------2-------------2-----------2--2-------------
A-------------------------------------------0------------------------------
E-----------------------------2--------------------------------------------
"Het is laat."

295
Ik doe mijn best
om wakker te blijven.
Maar mijn ogen vallen dicht.
Ik hou maar net m'n evenwicht.
Op het randje van de slaap.

Ik doe mijn best


om niet iets raars te zeggen.
Want mijn mond valt bijna droog.
Er zit veel te veel te hoog.
Op het randje van de slaap.

Het is laat.
Ik ben moe.
Teveel gedronken.
Teveel gepraat.
Teveel gerookt en nog meer gepraat.
Ik ben moe.
Het is laat.

Ik doe mijn best


om niet te blijven zwijgen.
Maar mijn stiltes vallen op.
En jij weet wat ik verstop.
Op het randje van de slaap.

Het is laat.
Ik ben moe.
Teveel gedronken.
Teveel gepraat.
Teveel gerookt en nog meer gepraat.
Ik ben moe.
Het is laat.

Het is laat.
Het is laat.
Het is laat.
Het is laat...

296
Blof - Aan De Kust

Intro:
"G(5)" "Em7" "Bm7" _2x_
e|--3--3--3-3---3--3--3-3---2---5--2---5-5-5--2---5-5-5-5--|
B|--3--3--3-3---3--3--3-3---2h3-3--2h3-3-3-3--2h3-3-3-3-3--|
G|o-0--0--0-0---0--0--0-0---2---2--2---2-2-2--2---2-2-2-2-o|
D|o-0--0--0-0---2--2--2-2---2h4-4--2h4-4-4-4--2h4-4-4-4-4-o|
A|--2--2--2-2---2--2--2-2---2---2--2---2-2-2--2---2-2-2-2--|
E|--3--3--3-3---0--0--0-0----------------------------------|

G(5) Em7 Bm7


De zoute zee slaakt een diepe zilte zucht
G(5) Em7 Bm7
Boven het vlakke land trilt stil de warme lucht
G(5) Em7 Bm7
Iemand slaat soms onverwacht maar zeker op de vlucht
G(5) Em7 Bm7
Alarmfase twee is hier nauwelijks nog berucht

Am Am-Am7\B-Cadd9
Maar men weet het niet
D G(5) | C D |
En zwijgt van wat men hoort en ziet

G(5) Em7 Bm7


Hier aan de kust, de Zeeuwse kust
Cadd9 D Em7 D Cadd9
Waar de mensen onbewust zin in mosselfeesten krijgen
Em7 D Cadd9 Em7 D Cadd9 \C \B
En van eten slechts nog zwijgen als ze zat zijn en voldaan
Am Bm C
Dan weer rustig slapen gaan

Hier aan de kust, de Zeeuwse kust


Waar een ieder onbewust in het Duits wordt aangesproken
Waar de ketting is gebroken en alle schepen zijn verbrand
Maar er is niets aan de hand

Vlissingen ademt zwaar en moedeloos vannacht


De haven is verlaten want er is nog maar een vracht
Die moet in het donker buitengaats worden gebracht
Gedenk de goede tijden van zuiverheid en kracht

Maar men weet het niet,


en zwijgt van wat men hoort en ziet

Hier aan de kust, de Zeeuwse kust


Waar de zomer onbewust met een rotgang wordt genoten
En waar wild en onverdroten iedereen zijn gang kan gaan
Tot men zat is en voldaan

G(5) Em7 Bm7


Hier aan de kust, de Zeeuwse kust
Cadd9 D Em7 D Cadd9
Waar de liefde van de lust steeds maar weer zal gaan verliezen
Em7 D Cadd9 Em7 D Cadd9 \C \B
Omdat ze nooit kan kiezen tussen goed en niet zo kwaad
Am Bm C--- Cm---
Maar dat is zoals het gaat
G(5)---
Hier aan de kust

297
Alicia Keys - Wild Horses

Intro:

| G G/F# | Am7/E | 4x

Couplet:

(Adam Levine)

Bm G Bm G
Childhood living is easy to do
Am7 C D G D
The things you wanted I bought them for you
Bm G Bm G
Graceless lady you know who I am
Am7 C D G D
You know I can‘t let you slide through my hands

Refrein:

Am7 C G F E7
Wild horses couldn‘t drag me away
Am7 C G F E7 Am7 C/G E7
Wild, wild horses, couldn‘t drag me away

Couplet:

(Alicia Keys)

I watched you suffer a dull aching pain


Now you decided to show me the same
No sweeping exits or offstage lines
Could make me feel bitter or treat you unkind

Refrein:

Wild horses couldn‘t drag me away


Wild, wild horses, couldn‘t drag me away

Couplet:

(Adam Levine)

I know I dreamed you a sin and a lie


I have my freedom but I don‘t have much time

(Alicia Keys)

Faith has been broken, tears must be cried


Let‘s do some before we die

Refrein:

Wild horses couldn‘t drag me away


Wild horses couldn‘t drag me away
Wild, wild horses, we‘ll ride them some day

| Bm G | Bm G | 4x

298
Blof - Omarm

Bm9 x20222
Gmaj7 320002
Cadd9 x32033
Em9 x7577x

[COUPLET 1]
Dsus2 Dsus2/F Dsus2/G
Hoe ver je gaat

Dsus2/Bb A7 Dsus2
Heeft met afstand niets te maken

Dsus2/F Dsus2/G Dsus2/Bb A7


Hoogstens met de tijd

Bm9 Gmaj7
En ik weet niet hoe het komt

Gmaj7/F#
Dat ik weg wil

Bm9 Gmaj7
Maar het treft me hard en zuiver

Gmaj7/F#
En het houdt hardnekkig stand

Cadd9
Dus hier sta ik

Cadd9
Met een uitgestoken hand

[REFREIN]
D E7(13)
Lief, ga dan mee

Em9
Omarm me

Bm9 A/C#
Omarm me, omarm me

D E7(13)
Lief, ga dan mee

Em9
Omarm me

Bm A/C#
Omarm me, omarm me

Cadd9
En breng me nergens heen

299
[COULPET 2]

Dsus2 Dsus2/F Dsus2/G


Hoe diep je gaat

Dsus2/Bb A7 Dsus2
Heeft met denken niets te maken

Dsus2/F Dsus2/G Dsus2/Bb A7


Hoogstens met een wil

Bm9 Gmaj7
En het voelt alsof ik weet

Gmaj7/F#
Waar ik heenga

Bm9 Gmaj7
Het leidt me in het donker

Gmaj7/F#
En het spot met mijn verstand

Cadd9
Hier sta ik

Cadd9
Met mijn uitgestoken hand

Hoe recht je staat

Heeft met zwaarte niets te maken

Hoogstens met de wind

300