You are on page 1of 21

BAND ON THE RUN

* 01. Band On The Run *


* 02. Jet *
* 03. Bluebird *
* 04. Mrs. Vanderbilt *
* 05. Let Me Roll It *
* 06. Mamunia *
* 07. No Words *
* 08. Picasso’s Last Words *
* 09. Nineteen Hundred and Eighty Five *
* 10. Helen Wheels *
* 11. Country Dreamer *
* *
------------------------------------------------------

Band On The Run


(McCartney)

Intro:

E|--10/12-10---5/7-5-----2~---2-2~----5h7-5h7-5h7-5----10/12-10---5~----|
B|--10/12-10---5/7-5-----2~---2-2~----5h7-5h7-5h7-5----10/12-10---5~----|
G|-----------------------2~---2-2~--------------------------------------|
D|-----------------------0~---0-0~--------------------------------------|
A|----------------------------------------------------------------------|
E|----------------------------------------------------------------------|

E|--5h7-5h7-5h7-5~-----10/12-10---5/7-5-----2~---2-2~----5h7-5h7-5h7-5--|
B|--5h7-5h7-5h7-5~-----10/12-10---5/7-5-----2~---2-2~----5h7-5h7-5h7-5--|
G|------------------------------------------2~---2-2~-------------------|
D|------------------------------------------0~---0-0~-------------------|
A|----------------------------------------------------------------------|
E|----------------------------------------------------------------------|

E|--10/12-10---5~----5h7-5h7-5h7-5-----15-14-12-10--10-11--/15---|
B|--10/12-10---5~----5h7-5h7-5h7-5-----15-14-12-10--10-11--/15---|
G|---------------------------------------------------------------|
D|---------------------------------------------------------------|
A|---------------------------------------------------------------|
E|---------------------------------------------------------------|
E|--15-14-12-10--10-11--/15--14h15-14---|
B|--15-14-12-10--10-11--/15-------------|
G|--------------------------------------|
D|--------------------------------------|
A|--------------------------------------|
E|--------------------------------------|

Dmaj7
Stuck inside these four walls,
G
Sent inside forever,
Dmaj7
Never seeing no one
G
Nice again
Dmaj7 G Dmaj7 G Dmaj7 Gm
Like you Mama you Mama you.

Am D
E|-------------------------------------------|
B|-------------------------------------------|
G|-----5-5-5/4-4-4/2-2-2~-----7-7-7-7-7/4-4--|
D|-----2-2-2/2-2-2/2-2-2~--0--4-4-4-4-4-0-0--|
A|--0----------------------------------------|
E|-------------------------------------------|

Am D Am
E|--------------------------------------------------------------------------|
B|--------------------------------------------------------------------------|
G|-----5-5-5/4-4-4/2-2-2~-----7-7-7-7-7/4-4--5-5-5/4-4-4/2-2-2~-------------|
D|-----2-2-2/2-2-2/2-2-2~--0--4-4-4-4-4-0-0--2-2-2/2-2-2/2-2-2~----2--------|
A|--0------------------------------------------------------------0----------|
E|-------------------------------------------------------------------0--3^--|

Am D
E|-------------------------------------------|
B|-------------------------------------------|
G|-----5-5-5/4-4-4/2-2-2~-----7-7-7-7-7/4-4--|
D|-----2-2-2/2-2-2/2-2-2~--0--4-4-4-4-4-0-0--|
A|--0----------------------------------------|
E|-------------------------------------------|

Am D Am
E|--------------------------------------------------------------------------|
B|--------------------------------------------------------------------------|
G|-----5-5-5/4-4-4/2-2-2~-----7-7-7-7-7/4-4--5-5-5/4-4-4/2-2-2~-------------|
D|-----2-2-2/2-2-2/2-2-2~--0--4-4-4-4-4-0-0--2-2-2/2-2-2/2-2-2~----2--------|
A|--0------------------------------------------------------------0----------|
E|-------------------------------------------------------------------0--3^--|

Am
If I ever get out of here,
D
Thought of giving it all away
Am
To a registered charity.

D
All I need is a pint a day
Am
If I ever get out of here.
Am
If I ever get out of here.
E|--------------------------------------------------------------|
B|--------------------------------------------------------------|
G|--------------------7--7-7--5~--------------------7--7-7--5~--|
D|-----------------5--7--7-7--5~-----------------5--7--7-7--5~--|
A|--------3--5--7-----5--5-5--3~--------3--5--7-----5--5-5--3~--|
E|---3--5--------------------------3--5-------------------------|

E|----------------0--0--0--0---1--1--1--1---0--0--0--0---1--1--1--1---|
B|----------------1--1--1--1---1--1--1--1---1--1--1--1---1--1--1--1---|
G|----------------0--0--0--0---0--0--0--0---0--0--0--0---0--0--0--0---|
D|----------------2--2--2--2---2--2--2--2---2--2--2--2---2--2--2--2---|
A|--------3-------3--3--3--3----------------3--3--3--3----------------|
E|---3--5----3--5-----------------------------------------------------|

C Fmaj7
Well, the rain exploded with a mighty crash
C
As we fell into the sun,
C Fmaj7
And the first one said to the second one there
Em
I hope you're having fun.
G C Em C Am
Band on the run, band on the run.
Fmaj7 C
And the jailer man and sailor Sam

Fmaj7
Were searching every one
C Fmaj7 C Fmaj7 C Fmaj7 C Fmaj7
For the band on the run, band on the run
C Fmaj7 C Fmaj7 C Fmaj7
Fmaj7
band on the run, band on the run

C Fmaj7
Well, the undertaker drew a heavy sigh
C
Seeing no one else had come,
C Fmaj7
And a bell was ringing in the village square
Em
For the rabbits on the run.

G C Em C Am
Band on the run, band on the run.
Fmaj7 C
And the jailer man and sailor Sam

Fmaj7
Were searching every one
C Fmaj7 C Fmaj7 C Fmaj7 C Fmaj7
For the band on the run, band on the run

Solo: Fmaj7 | C | Fmaj7

C Fmaj7 C Fmaj7 C Fmaj7 C Fmaj7


For the band on the run, band on the run
C Fmaj7 C Fmaj7 C Fmaj7
Fmaj7
band on the run, band on the run

C Fmaj7
Well, the night was falling as the desert world
C
Began to settle down.
C Fmaj7
In the town they're searching for us every where
Em
But we never will be found.

G C Em C Am
Band on the run, band on the run.
Fmaj7 Riff C
And the county judge, who held a grudge
Fmaj7
Will search for ever more

C Fmaj7 C Fmaj7 C Fmaj7 C Fmaj7


For the band on the run, band on the run
C Fmaj7 C Fmaj7 C Fmaj7
Fmaj7
band on the run, band on the run

Em G C

-----------------------------------------------------------------------------
Jet
Intro x3 __________
| 1, 2
E|-----------------------------|------------|
B|-----------------------------|------------|
G|--4---4-6-7-------4---4-6-7--|--9---------|
D|--4---4-6-7-------4---4-6-7--|--9---------|
A|--2---2-4-5-------2---2-4-5--|--7---------|
E|-----------------------------|------------|

A D A
Jet! I can almost remember their funny faces
That time you told me that
D
You were going to be marrying soon.
C#m7 Bm
And Jet, I thought the only
B5 C#5 D6 A
Lonely place was on the moon.
A A
Jet! Jet!

A D A
Jet! Was your father as bold as a sergeant major?
How come he told you that
D
You were hardly old enough yet?
C#m7 Bm
And Jet, I thought the major
B5 C#5 D6 A
Was a lady suffragette.
A A
Jet! Jet!

Bm E
Ah, matter, want Jet to always love me?
Bm E
Ah, matter, want Jet to always love me?
Bm A
Ah, matter, much later. Oh Jet

D A C G D A A
D A C G D A A
Solo:

A D A
E|-17---14----------------------------------|
B|---------17-14-------------14-------------|
G|---------------16-14-14-16----------------|
D|------------------------------16-16-16-14-|
A|------------------------------------------|
E|------------------------------------------|

A D
E|-/17-17-17-17-14-------------------------------------------------|
B|-----------------17-14-------------14----------------------------|
G|-----------------------16-14-14-16-------------------------------|
D|--------------------------------------16---14h16-14h16-14h16-14--|
A|-----------------------------------------------------------------|
E|-----------------------------------------------------------------|

Cm7 Bm
Jet, I thought the major
B5 C#5 D6 A
Was a lady suffragette.
A A
Jet!Jet!

Bm E
Ah, matter, want Jet to always love me?
Bm E
Ah, matter, want Jet to always love me?
Bm A
Ah, matter, much later.

D A C G D A A
D A C G D A A

A D A
Jet! with the wind in your hair of a thousand laces.
Climb on the back and we'll
D
Go for a ride in the sky.
Cm7 Bm
Jet, I thought the major
B5 C#5 D6 A
Was a lady suffragette.
A A
Jet!Jet!

E
E|--------------------------|
B|--------------------------|
G|----9---------------------|
D|----9---------------------|
A|----7---------------------|
E|--------------------------|
Yeah

Cm7 Bm
Jet, I thought the major
B5 C#5 D6 A
Was a lady suffragette.
A
Jet!

E|-----------------------------------------|
B|-----------------------------------------|
G|--4---4-6-7-------4---4-6-7----9---------|
D|--4---4-6-7-------4---4-6-7----9---------|
A|--2---2-4-5-------2---2-4-5----7---------|
E|-----------------------------------------|

End:
A D A
E|-17---14-----------------------------------|
B|---------17-14-------------14--------------|
G|---------------16-14-14-16----16-16-16--14~|
D|-------------------------------------------|
A|-------------------------------------------|
E|-------------------------------------------|

--------------------------------------------------------------------------------
Bluebird
(McCartney)

Gm
Late at night when the wind is still
Fm Bb6
I'll come flying through your door,
Fm Bb
And you'll know what love is for.

Ebmaj7
l'm a bluebird, I'm a bluebird
Ab6
l'm a bluebird, l'm a bluebird
Yeah, yeah, yeah.

Ebmaj7
l'm a bluebird, I'm a bluebird
Ab6
l'm a bluebird,

Gm
Touch your lips with a magic kiss
Fm Bb6
And you'll be a bluebird too,
Fm Bb
And you'll know what love can do.

Ebmaj7
l'm a bluebird, I'm a bluebird
Ab6
l'm a bluebird, l'm a bluebird
Yeah, yeah, yeah.

Ebmaj7
l'm a bluebird, I'm a bluebird
Ab6
l'm a bluebird

Cm Cm/Bb
Bluebird
Dm7 G7
Ah Ha,
Cm Cm/Bb
Bluebird
Dm7 G7
Ah Ha,
Ab Ebmaj7
Bluebird.

Gm
Fly away through the midnight air
Fm Bb6
As we head across the sea,
Fm Bb
And at last we will be free.

Ebmaj7
l'm a bluebird, I'm a bluebird
Ab6
l'm a bluebird, l'm a bluebird
Yeah, yeah, yeah.

Emja7
You're a bluebird, You're a bluebird
Ab6
You're a bluebird
Yeah, yeah ,yeah.

Cm Cm/Bb
Bluebird
Dm7 G7
Ah Ha,
Cm Cm/Bb
Bluebird
Dm7 G7
Ah Ha,
Ab Ebmaj7
Bluebird.

Gm
All alone on a desert island
Fm Bb6
We're living in the trees,
Fm Bb
And we're flying in the breeze.

Ebmaj7
l'm a bluebird, I'm a bluebird
Ab6
l'm a bluebird, l'm a bluebird
Yeah, yeah, yeah.

Ebmaj7
l'm a bluebird, I'm a bluebird
Ab6 G | Cm Bb Ab G
l'm a bluebird,

Cm Cm/Bb
Bluebird
Dm7 G7
Ah Ha,
Cm Cm/Bb
Bluebird
Dm7 G7
Ah Ha,
Ab Ebmaj7
Bluebird.
--------------------------------------------------------------------------------
Mrs Vanderbilt
(McCartney)

Chords:
EADGBE
Am: 002210
Em7: 022030
E7: x20130
A: 002220
Dm6: xx0201
Dm: x00231
Dm/C: x30231
G: 320003
C: 032010
Em: 022000
E: 022100

INTRO: Am Em E7 Am

Am
Down in the jungle living in a tent
Em7
You don't use money you don't pay rent
E7
You don't even know the time
Am
But you don't mind

Em7
Ho hey ho
E7 Am
Ho hey ho
Em7
Ho hey ho
E7 Am
Ho hey ho

Em7
When your light is on the blink
E7 Am
You never think of worrying
E7 Am
What's the use of worrying
Em7
When your bus has left the stop
E7 Am
You'd better drop your hurrying
E7 Am A
What's the use of hurrying

Dm Dm/C G
Leave me alone, Mrs Vanderbilt
C Em Dm Am
I've got plenty of time on my own

E Am
What's the use of worrying
E Am
What's the use of hurrying
E Dm6 Am
What's the use of anything
Ho hey ho (4 TIMES)

Dm Dm/C G/B G
e|-------------------------------------------------------------|
B|------------10------------10---------8^v---------------------|
G|--------10-------------10----------7-----7---7---------------|
D|----/12------------/10----------/9---------9-----------------|
A|-------------------------------------------------------------|
E|-------------------------------------------------------------|

C Em Dm Am
e|--------------------------------8-8p7---------------------------------|
B|----------8------------------8--------8--6^-6^v~---5^-5^v~------------|
G|--------9-------------9----9------------(7^-7^v~---5^-5^v~)2nd guitar-|
D|-----/10------------9-------------------------------------------------|
A|----------------/10---------------------------------------------------|
E|----------------------------------------------------------------------|

When your pile is on the wane


You don't complain of robbery
Run away don't bother me
What's the use of worrying
What's the use of anything

Leave me alone, Mrs Washington


I've got plenty of time on my own

What's the use of worrying


What's the use of hurrying (no use)
What's the use of anything

Ho hey ho ( 8 times)

----------------------------------------------------------------------------
Let Me Roll It
(McCartney)

Chords:
EADGBE
A: x02220
F#m: 244222
E: 022100

INTRO: A F#m A F#m E A E A F#m E

E
You gave me something
F#m
I understand
E F#m
You gave me loving in the palm of my hand

A F#m A
I can't tell you how I feel
F#m E
My heart is like a wheel
A
Let me roll it
E A
Let me roll it to you
E A
Let me roll it
E A E F#m E F#m
Let me roll it to you

I want to tell you


And now's the time
I want to tell you that you're going to be mine

I can't tell you how I feel


My heart is like a wheel
Let me roll it
Let me roll it to you
Let me roll it
Let me roll it to you

I can't tell you how I feel


My heart is like a wheel
Let me roll it
Let me roll it to you
Let me roll it
Let me roll it to you

You gave me something


I understand
You gave me loving in the palm of my hand

I can't tell you how I feel


My heart is like a wheel
Let me roll it
Let me roll it to you
Let me roll it
Let me roll it to you

F#m E F#m E...

Riff’S:

Intro Riff Bass:

A F#m A F#m
E |------------------|---------------------------------|
B |------------------|---------------------------------|
G |------------------|---------------------------------|
D |-------2--4--2--2-|-------2--4—4h6h4--2-------|
A |-0--/4------------|-0--/4---------------------------|
E |------------------|---------------------------------|

E A x4 E
E |--|-----------------|--|--------------0--0--0----|
B |-0|-----------------|0-|--------------0--0--0----|
G |--|-----------------|--|-----------1--1--1--1----|
D |--|---------------4-|--|--------2--2--2--2--2----|
A |-0|---------0--/4---|0-|-----2--2--2--2--2--2----|
E |--|-0--/4-----------|--|--0--0--0--0--0--0--0----|

Little Riff:

F#m E
E |--2h3-2--0--2-0-----------|--2h3-2--0--2-0-----------|
B |--2------0--2-0--2--0-----|--2------0--2-0--2--0-----|
G |-----------------2--0-----|-----------------2--0-----|
D |--------------------------|--------------------------|
A |--------------------------|--------------------------|
E |--------------------------|--------------------------|
-----------------------------------------------------------------------------
Mamunia
(McCartney)

Chords EADGBE

Amaj9 x02225
Amaj8 x02224
A6 x02222
A x02220
Asus4 x02230
D xx0232
E 022100
C x32010
C/B x20010
Am x02210
Am/G 3x2210
Am/F# 2x2210
F 1332xx
Dm xx0231
C/G 3x2010

Amaj9 Amaj8 A6 A
Asus4 A E A

Amaj9 Amaj8 A6 A
Mamunia Mamunia Mamunia, Oh oh oh
Asus4 A E A
Mamunia Mamunia, oh oh oh oh
Amaj9 Amaj8 A6 A
Mamunia Mamunia Mamunia, Oh oh oh
Asus4 A E A
Mamunia Mamunia, oh oh oh oh

C C/B Am Am/G
The rain comes falling from the sky,
Am/F# F C C/G
To fill the stream that fills the sea
C C/B Am Am/G Am/F# Riff 1
And that's where life began for you and me
C C/B Am Am/G
So the next time you see rain it ain't bad,
Am/F# F C C/G
Don't complain it rains for you,
C C/B Am Am/G
The next time you see L.A rainclouds,
Am/F# F C C/G C C/B
Don't complain it rains for you and me

Amaj9 Amaj8 A6 A
Mamunia Mamunia Mamunia, Oh oh oh
Asus4 A E A
Mamunia Mamunia, oh oh oh oh
Amaj9 Amaj8 A6 A
Mamunia Mamunia Mamunia, Oh oh oh
Asus4 A E A
Mamunia Mamunia, oh oh oh oh

C C/B Am Am/G
It might have been a bright blue day
Am/F# F C C/G
But rainclouds had to come this way
C C/B Am Am/G
Am/F# Riff
They're watering everything that they can see.
C C/B Am Am/G
A seed is waiting in the earth
Am/F# F C C/G
For rain to come and give him birth,
C C/B Am AmG Am/F# Am/F# Riff
it's all he really needs to set him free
C C/B Am Am/G
So the next time you see l.a. rainclouds
Am/F# Am/F# Riff
Don't complain, it rains for you.

G C
So lay down your umbrellas
E Am
Strip off your plastic macs.
D
You've never felt the rain my friend,
Dm G7
Till you've felt it running down your back

C C/B Am Am/G
So the next time you see rain, it ain't bad
Am/F# F C C/G
Don't complain, it rains for you.
C C/B Am Am/G
The next time you see l.a. rainclouds
Am/F# F C C/G C C/B
Don't complain it rains for you and me.

Amaj9 Amaj8 A6 A
Mamunia Mamunia Mamunia, Oh oh oh
Asus4 A E A
Mamunia Mamunia, oh oh oh oh
Amaj9 Amaj8 A6 A
Mamunia Mamunia Mamunia, Oh oh oh
Asus4 A E A
Mamunia Mamunia, oh oh oh oh

Amaj9 Amaj8 A6 A
Mamunia Mamunia Mamunia, Oh oh oh
Asus4 A E A
Mamunia Mamunia, oh oh oh oh
Amaj9 Amaj8 A6 A
Mamunia Mamunia Mamunia, Oh oh oh
Asus4 A E A
Mamunia Mamunia, oh oh oh oh

Riff

E |-----------|--------|
B |-----------|--------|
G |-----------|--------|
D |-----------|--------|
A |---------0-|--------|
E |--1--3-----|--1--3--|

---------------------------------------------------------------------------
No Words
(Laine)

Intro:
Guitar 1
A A7 Em F#m
E|--0---------------|--0---------------|--0---------------|--2---------|
B|--2---------------|--2---------------|--0---------------|--2---------|
G|--2---------------|--0---------------|--0---------------|--3---------|
D|--2---------------|--2---------------|--2---------------|--4---------|
A|--0---------------|--0---------------|--2---------------|--4---------|
E|------------------|------------------|--0---------------|--2---------|

Guitar 2

E|----------------0-|----------------0-|------------------|------------|
B|--------2~--2h3---|-----2-2~---2h3---|-------0~--0h2h3--|--2~--------|
G|------2---2-------|------------------|-----2------------|------------|
D|----2-------------|------------------|------------------|------------|
A|--0---------------|------------------|------------------|------------|
E|------------------|------------------|------------------|------------|

Guitar 1
Bm (N/C) E A
E|-----2--------|-----------|--0----------|--0------------------------|
B|-----3--------|-----------|--0----------|--2------------------------|
G|-----4--------|-----------|--1----------|--2------------------------|
D|-----4--------|-----------|--2----------|--2------------------------|
A|-----2--------|-----------|--2----------|--0------------------------|
E|--------------|-----------|--0----------|---------------------------|

Guitar 2

E|-----2-2--2~--|-----2--0--|------0------|---------------------------|
B|--3--3-3--3~--|--3--3--2--|--3~--2--3/--|--2~-----------------------|
G|--------------|-----1-----|--4~-----4/--|--2~-----------------------|
D|--------------|-----------|-------------|---------------------------|
A|--------------|-----------|-------------|---------------0--2--0-----|
E|--------------|-----------|-------------|---------0--2-----------2--|

Guitar 1
A A7 Em F#m
E|--0---------------------0--------------0-------------2---------------|
B|--2---------------------2--------------0-------------2---------------|
G|--2---------------------0--------------0-------------2---------------|
D|--2---------------------2--------------2-------------4---------------|
A|--0---------------------0--------------2-------------4---------------|
E|---------------------------------------0-------------2---------------|
You want to give your love away, And end up giving nothing

Bm E A
E|------2-------------------4----0-----0---------0----------------------------|
B|------3-------------------3----2-----0---------2----------------------------|
G|------4------------------------------1---------2----------------------------|
D|------4------------------------------2---------2----------------------------|
A|------2------------------------------2---------0----------------0--2--0-----|
E|-------------------------------------0--------------------0--2-----------2--|
I'm not surprised, that your black eyes, are gazing.
A A7 Em F#m
E|--0--------------------0---------------0----------------2---------------|
B|--2--------------------2---------------0----------------2---------------|
G|--2--------------------0---------------0----------------2---------------|
D|--2--------------------2---------------2----------------4---------------|
A|--0--------------------0---------------2----------------4---------------|
E|---------------------------------------0----------------2---------------|
You say that love is everything, And what we need the most of

Bm E A
E|----2---------------------4----0---0--------0----------------------------|
B|----3---------------------3----2---0--------2----------------------------|
G|----4------------------------------1--------2----------------------------|
D|----4------------------------------2--------2----------------------------|
A|----2------------------------------2--------0----------------------------|
E|-----------------------------------0-------------------------------------|
I wish you knew, that's just how true, my love was.

Pre-Chorus:

Guitar 1

E E C#
F#m
E|--0---------------|--0---------------|--1-----------------------|--2----------|
B|--0---------------|--0---------------|--2-----------------------|--2----------|
G|--1---------------|--1---------------|--1-----------------------|--2----------|
D|--2---------------|--2---------------|--3-----------------------|--4----------|
A|--2---------------|--2---------------|--4-----------------------|--4----------|
E|--0---------------|--0---------------|--------------------------|--2----------|

Guitar 2

E|-------------------|-----4/--5--5--4--|---1/--4/--7--7--7----|--7/-5h4h5/--2~-|
B|-----5/--7--7---5--|---5--------------|-2--------------------|----------------|
G|---4---------------|-4----------------|----------------------|----------------|
D|-6-----------------|------------------|----------------------|----------------|
A|-------------------|------------------|----------------------|----------------|
E|-------------------|------------------|----------------------|----------------|

Chorus:

E|----2--------0-----------------|
B|----3--------2-----------------|
G|----2--------2-----------------|
D|----0--------2-----------------|
A|-------------0-----------------|
E|-------------------------------|
No words for my

Guitar 1
E E C# F#m
E|--0---------------|--0---------------|--1------------------|--2----------|
B|--0---------------|--0---------------|--2------------------|--2----------|
G|--1---------------|--1---------------|--1------------------|--2----------|
D|--2---------------|--2---------------|--3------------------|--4----------|
A|--2---------------|--2---------------|--4------------------|--4----------|
E|--0---------------|--0---------------|---------------------|--2----------|
love

E|-------------------|-----4/--5--5--4--|---1/4/--10--9--7/--|--5h4h5/--2~-|
B|-----5/--7--7---5--|---5--------------|-2------------------|-------------|
G|---4---------------|-4----------------|--------------------|-------------|
D|-6-----------------|------------------|--------------------|-------------|
A|-------------------|------------------|--------------------|-------------|
E|-------------------|------------------|--------------------|-------------|

Verso 2:

Guitar 1
A A7 Em F#m
E|--0--------------------0-------------------0-----------------2---------------|
B|--2--------------------2-------------------0-----------------2---------------|
G|--2--------------------0-------------------0-----------------2---------------|
D|--2--------------------2-------------------2-----------------4---------------|
A|--0--------------------0-------------------2-----------------4---------------|
E|-------------------------------------------0-----------------2---------------|
You're burning love, sweet burning love, It's deep inside, You mustn't

Bm E A
E|---2------------------------0-------------------0-----------------|
B|---3------------------------0-------------------2-----------------|
G|---4------------------------1-------------------2-----------------|
D|---4------------------------2-------------------2-----------------|
A|---2------------------------2-------------------0-----------------|
E|----------------------------0-------------------------------------|
hide, your burning love, Sweet burning love, your burning love.

A A7 Em F#m
E|--0---------------------0--------------0------------------2-------------|
B|--2---------------------2--------------0------------------2-------------|
G|--2---------------------0--------------0------------------2-------------|
D|--2---------------------2--------------2------------------4-------------|
A|--0---------------------0--------------2------------------4-------------|
E|---------------------------------------0------------------2-------------|
You want to turn your head away, And someone's thinking of you

Bm E A
E|----2--------------------4--0-0----0----------------------------|
B|----3--------------------3--2-0----2----------------------------|
G|----4-------------------------1----2----------------------------|
D|----4-------------------------2----2----------------------------|
A|----2-------------------------2----0----------------------------|
E|------------------------------0---------------------------------|
I wish you'd see, it's only me,I love you.

Pre-Chorus:

Guitar 1

E E C#
F#m
E|--0---------------|--0---------------|--1-----------------------|--2----------|
B|--0---------------|--0---------------|--2-----------------------|--2----------|
G|--1---------------|--1---------------|--1-----------------------|--2----------|
D|--2---------------|--2---------------|--3-----------------------|--4----------|
A|--2---------------|--2---------------|--4-----------------------|--4----------|
E|--0---------------|--0---------------|--------------------------|--2----------|
Guitar 2

E|-------------------|-----4/--5--5--4--|---1/--4/--7--7--7----|--7/-5h4h5/--2~-|
B|-----5/--7--7---5--|---5--------------|-2--------------------|----------------|
G|---4---------------|-4----------------|----------------------|----------------|
D|-6-----------------|------------------|----------------------|----------------|
A|-------------------|------------------|----------------------|----------------|
E|-------------------|------------------|----------------------|----------------|

Chorus:

E|----2--------0-----------------|
B|----3--------2-----------------|
G|----2--------2-----------------|
D|----0--------2-----------------|
A|-------------0-----------------|
E|-------------------------------|
No words for my

Guitar 1

E E C# F#m
E|--0---------------|--0---------------|--1------------------|--2----------|
B|--0---------------|--0---------------|--2------------------|--2----------|
G|--1---------------|--1---------------|--1------------------|--2----------|
D|--2---------------|--2---------------|--3------------------|--4----------|
A|--2---------------|--2---------------|--4------------------|--4----------|
E|--0---------------|--0---------------|---------------------|--2----------|
love
Guitar 2

E|-------------------|-----4/--5--5--4--|---1/4/--10--9--7/--|--5h4h5/--2~-|
B|-----5/--7--7---5--|---5--------------|-2------------------|-------------|
G|---4---------------|-4----------------|--------------------|-------------|
D|-6-----------------|------------------|--------------------|-------------|
A|-------------------|------------------|--------------------|-------------|
E|-------------------|------------------|--------------------|-------------|

Solo:

Guitar 1
Bm / / / / E / / / / Bm / / / /
E|--2-------------|--0-------------|--2-------------|
B|--3-------------|--0-------------|--3-------------|
G|--4-------------|--1-------------|--4-------------|
D|--4-------------|--2-------------|--4-------------|
A|--2-------------|--2-------------|--2-------------|
E|----------------|--0-------------|----------------|
Guitar 2

E|----------------|-------/7-------|----------------|
B|--5b7-----------|-----------7-7--|--7~------------|
G|----------------|----------------|----------------|
D|----------------|----------------|----------------|
A|----------------|----------------|----------------|
E|----------------|----------------|----------------|

Guitar 1

E / / / / Bm / / / /

E|--0--------------------------------------|--2-----------------------------|
B|--0--------------------------------------|--3-----------------------------|
G|--1--------------------------------------|--4-----------------------------|
D|--2--------------------------------------|--4-----------------------------|
A|--2--------------------------------------|--2-----------------------------|
E|--0--------------------------------------|--------------------------------|

Guitar 2

E|--/7-7-7-7--/7-7-7-7--/7-7-7-5-----------|-------------------------------|
B|-------------------------------7-5----5--|-------------3-5b7r------------|
G|------------------------------------7----|--7~---4-2-4-------------------|
D|-----------------------------------------|-------------------------------|
A|-----------------------------------------|-------------------------------|
E|-----------------------------------------|-------------------------------|

Guitar 1

E / / / / Bm / / / / E / / / /
E|--0------------|--2--------------------|--0-------------------------------|
B|--0------------|--3--------------------|--0-------------------------------|
G|--1------------|--4--------------------|--1-------------------------------|
D|--2------------|--4--------------------|--2-------------------------------|
A|--2------------|--2--------------------|--2-------------------------------|
E|--0------------|-----------------------|--0-------------------------------|
Guitar 2

E|-----3/--12----|-----------------------|-------------------------------|
B|--5~-----------|--12--10h12--10----12~-|--12-12-12-12-10-------12------|
G|---------------|----------------11-----|-----------------10-11-9-------|
D|---------------|-----------------------|-------------------------------|
A|---------------|-----------------------|-------------------------------|
E|---------------|-----------------------|-------------------------------|

Guitar 1

Bm / / / / E / / / /
E|--2---------------------|--0--------------------------------------------|
B|--3---------------------|--0--------------------------------------------|
G|--4---------------------|--1--------------------------------------------|
D|--4---------------------|--2--------------------------------------------|
A|--2---------------------|--2--------------------------------------------|
E|------------------------|--0--------------------------------------------|

Guitar 2

E|--7---------------------|-----7---------------------------------------|
B|--7--5--7-7--7-7--7-7---|--7------------7-----------------------------|
G|------------------------|------------9--------------------------------|
D|------------------------|----------9----------------------------------|
A|------------------------|---------------------------------------------|
E|------------------------|---------------------------------------------|

--------------------------------------------------------------------------------
Chords:
EADGBE
G: 320003
Bm: x24432
D: xx0232
F: 133211
Am: x02210
Am7: x02010
Bbo: xx2323
Eb7: xx1323
Ab: xx1114
F7: xx3545
Bb: xx3336
G7: xx5767

G D F G
A grand old painter died last night
D
His paintings on the wall
Am
Before he went, he bade us well
D G
And said goodnight to us all

G Bm Em Am7
Drink to me, drink to my health
G D G D
You know I can't drink anymore
Drink to me, drink to my health
G D C G
You know I can't drink anymore

Bm Em
Three o'clock in the morning
Bm Em
I'm getting ready for bed
Am G
It came without a warning
Bm
But I'll be waiting for you, baby
Am D
I'll be waiting for you there
G Bm Em Am7
So drink to me, drink to my health
G D G D
You know I can't drink anymore
G Bm Em Am7
Drink to me, drink to my health
G F C G Bbo Am D
You know I can't drink anymore

INTERLUDE: Eb7 Ab Eb7 Ab F7 Bb


F7 Bb G7

Bm D6 Bm D6 A (Jet)

G Bm Em Am7
Drink to me, drink to my health
G D G D
You know I can't drink anymore
G Bm Em Am7
Drink to me, drink to my health
G D C G
You know I can't drink anymore

Bm Em Bm Em Am G Bm
D

G Bm Em Am7
Drink to me, drink to my health
G D G D
You know I can't drink anymore
G Bm Em Am7
Drink to me, drink to my health
G D C G
You know I can't drink anymore

INTERLUDE

Em Am
Oh oh
O oh

G Bm Em Am7
Drink to me, drink to my health
G
You know I-

Ho hey ho
Ho hey ho

----------------------------------------------------------------------------
Nineteen Hundred And Eighty Five
(McCartney)

Chords used:

(you could use a capo at first fret)

Cm7: x35343
Eb: xx5343
Cm: x35543
Ab: 466544
Bb: 688766
G: 355433
Dbm: 9-11-11-9-9-9---|
Gdim: x-10-11-9-11-9--|
G*: x-10-12-12-12-x-|

Cm7 Eb Cm7 Eb Cm7 Ab Cm Cm7

Eb Cm
Oh no one ever left alive in nineteen hundred and eighty five will ever do
Eb
She may be right, she may be fine
Cm
She may get love but she won't get mine cos I got you
Ab Cm
Oh I, Oh I
Cm7
Well I just can't get enough of that sweet stuff

My little lady gets behind

Cm Bb Ab G (x2) Cm

Dbm Ab Cm Gdim

Cm7

Eb Cm
Oh my mama said the time would come when I would find myself in love with you
Eb
I didn't think, I never dreamed
Cm
That I would be around to see it all come true
Ab Cm
Woh I, Oh I
Cm7
Well I just can't get enough of that sweet stuff my little lady gets behind

Dbm Ab Cm Gdim

Cm7

Eb
Oh no one ever left alive in nineteen hundred and eighty five will ever do
Eb
She may be right, she may be fine
Cm
She may get love but she won't get mine cos I got you
Ab Cm
Oh I, Oh I
Cm7
Well I just can't get enough of that sweet stuff

My little lady gets behind

Cm Bb Ab G (x11)

| C B G# | C B G# | C
G# | C B G# | C (big orchestral bit)

G*
C Fmaj7 C Fmaj7 C Fmaj7
Fmaj7 C Fmaj7 C Fmaj7
Band on the run, Band on the run, Band on the run,
C Fmaj7 C Fmaj7 C Fmaj7
Fmaj7
Band on the run, Band on the run,
--------------------------------------------------------------------------------
Helen Wheels
(McCartney)

A
Said farewell to my last hotel
It was never much kind of abode
Glasgow town never brought me down
When I was heading out on the road
Carlisle City never looked so pretty
And the Kendal freeway's fast
Slow down driver, want to stay alive
I want to make this journey last
A
Helen - hell on wheels
Ain't nobody else gonna know the way she feels
Helen - hell on wheels
E
And they never gonna take her away

A
M6 south down to Liverpool
Where they play the West Coast sound
Sailor Sam, he came from Birmingham
But he never will be found
Doing fine when a London sign
Greets me like a long lost friend
Mister Motor won't you check her out
She's got to take me back again
A
Helen - hell on wheels
Ain't nobody else gonna know the way she feels
Helen - hell on wheels
E
And they never gonna take her away

A
Got no time for a rum and lime
I wanna get my right foot down
Shake some dust off of this old bus
I gotta get her out of town
Spend the day upon the motorway
Where the carburettors blast
Slow down driver, I wanna stay alive
I want to make this journey last

A
Helen - hell on wheels
Ain't nobody else gonna know the way she feels
Helen - hell on wheels
E
And they never gonna take her away

----------------------------------------------------------------------------
Country Dreamer
(McCartney)

C F C
I'd like to walk in a field with you,
G7 F C G7
take my hat and my boots off too.
C F C A7
I'd like to lie in a field with you.
D7 G7 C A7
Would you like to do it too, May?
D7 G7 C G7
Would you like to do it too?

C F C
I like to stand in the stream with you,
G7 F C G7
roll my trousers up and not feel blue.
C F C A7
I'd like to wash in a stream with you.
D7 G7 C
Would you like to do it too?

Am G
You and I, country dreamer,
F C
when there's nothing else to do;
Am G
Me oh my, country dreamer,
F G
make a country dream come true.

I'd like to climb up a hill with you,


stand on top and admire the view.
I'd like to roll down a hill with you.
Would you like to do it too, May?
Would you like to do it too?

You and I, country dreamer,


when there's nothing else to do;
Me oh my, country dreamer,
make a country dream come true.

I'd like to climb up a hill with you,


take my hat and my boots off too.
I'd like to lie in a field with you.
Would you like to do it too, May?
D7 G7 C A7
Would you like to do it too, May?
D7 G7 F C
Would you like to do it too?