You are on page 1of 4

Diego Torres calidad:

Color Esperanza(TAB) dtor0


AUTOR: Cachorro López, Coti Sorokin, Diego Torres
ALBUM: Un Mundo Diferente Enviado por gustavo, basado en gust

Descarga el Tono "Color Esperanza" a tu


Móvil
Se que hay en tus ojos con solo mirar
1 -----------0-0----------------------------
2 --3--0--3-------3-1-1-0-------------------
3 -------------------------2--0-------------
4 ------------------------------------------
5-------------------------------------------
6-------------------------------------------
Que estas cansado de andar y de andar
1 -----------------------0------------------
2 ------------0-0-0---3-----3---------------
3 --0--0--2--------------------0------------
4 ------------------------------------------
5-------------------------------------------
6-------------------------------------------

Y caminar girando siempre en un lugar


1 ------------------------------------------
2 -------------------------0--1--0----------
3 -----0--2--0--------0--2----------0--2----
4 --2---------------2-----------------------
5 ------------------------------------------
6 ------------------------------------------

Se que las ventanas abrir


1 -----------0-0----------------------------
2 --3--0--3-------3-1-1-0-------------------
3 -------------------------2--0-------------
4 ------------------------------------------
5-------------------------------------------
6-------------------------------------------
Cambiar el aire depende de mi
1 -----------------------0------------------
2 ------------0-0-0---3-----3---------------
3 --0--0--2--------------------0------------
4 ------------------------------------------
5-------------------------------------------
6-------------------------------------------
Te ayudara vale la pena una vez mas
1 ------------------------------------------
2 -------------------------0--1--0----------
3 -----0--2--0--------0--2----------0--2----
4 --2---------------2-----------------------
5 ------------------------------------------
6 ------------------------------------------

Saber que se puede querer que se pueda


1 ------------------------------------------
2 --0-0--------0-------0-0--1-0-------------
3 -------2--0--------------------2-0--------
4 ---------------0-------------------------
5-------------------------------------------
6-------------------------------------------

quitarse los miedos sacarlos afuera


1 ------------------------------------------
2 --1-1--0---1--------1-1--0----------------
3 ---------2---0-------------2-0------------
4 ---------------------------------4--------
5 ------------------------------------------
6 ------------------------------------------

pintarse la cara color esperanza


1 ------0-----------------------------------
2 -3-3----3-3--0-------3-1--0---------------
3 -----------------------------2-2--0-------
4 ------------------------------------------
5-------------------------------------------
6-------------------------------------------

entrar al futuro con el corazón


1 ------------------------------------------
2 ---------0-----------------1-0------------
3 -0-0--2----0--------------------0-2-------
4 -------------0----------0-----------------
5-------------------------------------------
6-------------------------------------------
Es mejor perderse que nunca embarcar
1 -----------0-0----------------------------
2 --3--0--3-------3-1-1-0-------------------
3 -------------------------2--0-------------
4 ------------------------------------------
5-------------------------------------------
6-------------------------------------------

Mejor tentarse a dejar de intentar


1 -----------------------0------------------
2 ------------0-0-0---3-----3---------------
3 --0--0--2--------------------0------------
4 ------------------------------------------
5-------------------------------------------
6-------------------------------------------

Aquella vez que no es tan facil empezar


1 ------------------------------------------
2 -------------------------0--1--0----------
3 -----0--2--0--------0--2----------0--2----
4 --2---------------2-----------------------
5 ------------------------------------------
6 ------------------------------------------

Se que lo imposible se puede lograr


1 -----------0-0----------------------------
2 --3--0--3-------3-1-1-0-------------------
3 -------------------------2--0-------------
4 ------------------------------------------
5-------------------------------------------
6-------------------------------------------

que la tristeza algun dia se ira


1 -----------------------0------------------
2 ------------0-0-0---3-----3---------------
3 --0--0--2--------------------0------------
4 ------------------------------------------
5-------------------------------------------
6-------------------------------------------
y asi sera, la vida cambia y cambiara
1 ----------------------------------------
2 –--------------------0--1-0----------------
3 -0—0-2-0---0--0-2------------2--2-------------
4 ------------------------------------------
5-------------------------------------------
6-------------------------------------------

sentiras que el alma vuela por cantar una vez mas


1 ------------0-----------------------------
2 --0-----------0--3--0-----0--------0-1----
3 ----2-0---0----------------2-0-2-------2--
4 ------------------------------------------
5-------------------------------------------
6-------------------------------------------

ESTRIBILLO X2

Related Interests