You are on page 1of 2

G D Em C E B A C5 G5 D5

Márchate (tab.)(tremolo)
intro:
G D Em C
E------
B------
G------
D------
A-2--3-
E------
Esto dos veces
1 solo:
e--19--19--17--15--19--17--1--15--------------------------------------------15v-------------
b----------------------------------------17-15--17-------------------15-----------17--------
g------------------------------------------------------16vv--16--17--------16---------------
d--------------------------------------------------------------------------------------------
a--------------------------------------------------------------------------------------------
E--------------------------------------------------------------------------------------------

e-------------15-----------------15-----------------15-------19-22-20-19--------------------
b--------15-------15-------15-------15-------15-------15-------------------------20br-22v--20
g-16-----------------16-----------------16---------------------------------------------------
d--------------------------------------------------------------------------------------------
a--------------------------------------------------------------------------------------------
E---------------------------------------------------------------------------------------------

G D Em C
Si en tinieblas té ocultas y me niegas tus culpas

G D Em C
Ya no importa lo que digas sé que nunca

G D Em C
Me amaras como dejan heridas mis dulces ilusiones

G D Em C G D
Difícil fue cosechar lo que nunca sembraste

Pre coro:

Em C5 G5 D5
No te pido q me ames o me olvides

Em C5 G5 D5
Quiero q recuerdes cuanto te he querido

Coro:
G5 D5 Em C5
[y] márchate sal ya de mi mente -----/
/
G5 D5 Em C5 / 2 veces
márchate no vuelvas a verme -----/

2 solo:

me da flojera hacerlo, pero todo sea por el rock


e---------------------2-3--7--7---7---7---7---8-10-12-10-8-7-8-7-8-7-5--5------------17v
b-----------------3-5--------5--5---5---5------------------------------8--8-7-5-7-8----
g----------2-4-5----------------------------5-------------------------------------------
d---2-4-5-------------------------------------------------------------------------------
a-5------------------------------------------------------------------------------------
E---------------------------------------------------------------------------------------

G D Em C
Nunca supiste amarme es mejor que te marches

G D Em C G
Para q tener el sueño si no será realidad
D Em C
Si mi amor no quiso q te embriagues de mi alma

G D Em C G D
Para q seguir viajando si este no es mi camino
Repetir el pre coro y el coro
Aquí viene el 3 solo q después se los mando
D# D# A# Cm G# A# A#
e|------------------------|----------------|--------------------------|
B|-----11-11-11-11--9-8-6-|-6-6-8--9/8-6-8-|-------------6-8-6-----11-|
G|--8--12-12-12-12-10-8-7-|-7-7-8-10/8-7-8-|--8--8--8--8-7-8-7---8----|
D|--8---------------------|----------------|-10-10-10-10-------8------|
A|------------------------|----------------|--------------------------|
E|------------------------|----------------|--------------------------|
D
Me quedo callado
A
Soy como un niño dormido
F#m
Que puede despertarse
Bm
Con apenas sólo un ruido
G
Cuando menos te lo esperas
Em
Cuando menos lo imagino
A D
Sé que un día no me aguanto y voy y te miro

A
Y te lo digo a los gritos
F#m Bm
Y te ríes y me tomas por un loco atrevido
G Em
Pues no sabes cuanto tiempo en mis sueños has vivido
A
Ni sospechas cuando te nombré
D A
Yo, yo no me doy por vencido
F#m Bm
Yo quiero un mundo contigo
G Em A D
Juro que vale la pena esperar, y esperar y esperar un suspiro
G Em G
Una señal del destino
A D
No me canso, no me rindo, no me doy por vencido
A
Tengo una flor de bolsillo,
F#m Bm
Marchita de buscar a una mujer que me quiera
G Em
Y reciba su perfume hasta traer la primavera
A D
Y me enseñe lo que no aprendí de la vida
A
Que brilla más cada día,
F#m Bm
Porque estoy tan sólo a un paso de ganarme la alegría
G Em
Porque el corazón levanta una tormenta enfurecida
A
Desde aquel momento en que te ví…
D A
Yo, yo no me doy por vencido
F#m Bm
Yo quiero un mundo contigo
G Em A D
Juro que vale la pena esperar, y esperar y esperar un suspiro
G Em G
Una señal del destino
A G
No me canso, no me rindo, no me doy por vencido
D A F#m Bm
Este silencio esconde demasiadas palabras
G Em A
No me detengo, pase lo que pase seguiré
D A
Yo, yo no me doy por vencido
F#m Bm
Yo quiero un mundo contigo
G Em A D
Juro que vale la pena esperar, y esperar y esperar un suspiro
G Em G
Una señal del destino
A D
No me canso, no me rindo, no me doy por vencido
G Em A D
Juro que vale la pena esperar, y esperar y esperar un suspiro
G Em G
Una señal del destino
A D
No me canso, no me rindo, no me doy por vencido

Related Interests