You are on page 1of 248

Sumário

Abba - Take A Chance On Me chords.......................................................................................................................5


A-ha – Take on me.....................................................................................................................................................6
Animals, The - The House of Rising Sun..................................................................................................................7
Association, The - Never My Love...........................................................................................................................8
Badfinger - Day After Day........................................................................................................................................9
Beatles, The - Because.............................................................................................................................................10
Beatles, The - Blackbird..........................................................................................................................................11
Beatles, The - Day Tripper.......................................................................................................................................12
Beatles, The - Norwegian Wood..............................................................................................................................13
Beatles, The - Nowhere Man...................................................................................................................................14
Big Country - In A Big Country..............................................................................................................................15
Bob Dylan - Hurricane............................................................................................................................................16
Bob Dylan – If not for you......................................................................................................................................20
Bob Dylan - Jokerman.............................................................................................................................................22
Bob Dylan – Just like a woman...............................................................................................................................25
Bob Dylan - Lay Lady Lay – Bob Dylan................................................................................................................27
Bob Dylan – Like a Rolling Stone...........................................................................................................................28
Bob Dylan - Mr. Tambourine Man..........................................................................................................................32
Bob Dylan - Positively 4th Street............................................................................................................................35
Bobby McFerrin - Don’t worry, be happy...............................................................................................................37
Bob Seger - Against The Wind................................................................................................................................38
Bob Seger - Shame on the Moon.............................................................................................................................40
Bob Seger - Still the Same.......................................................................................................................................41
Carpenters, The - Close to you................................................................................................................................42
Cat Stevens - Morning Has Broken.........................................................................................................................43
Cat Stevens – Oh Very Young..................................................................................................................................44
Cat Stevens – Wild World........................................................................................................................................45
Charles Aznavour - Que c'est triste Venise..............................................................................................................46
Charles Trenet – La Mer..........................................................................................................................................47
Coldplay - The Scientist..........................................................................................................................................48
Coldplay - Yellow....................................................................................................................................................49
Creedence Clearwater Revival - Hey Tonight.........................................................................................................50
Creedence Clearwater Revival - Have You Ever Seen The Rain............................................................................51
Creedence Clearwater Revival - Proud Mary..........................................................................................................52
Creedence Clearwater Revival - Who ll Stop The Rain..........................................................................................53
Cure, The - In Between Days..................................................................................................................................54
Daft Punk – Get Lucky............................................................................................................................................55
Dan Fogelberg - Longer...........................................................................................................................................56
Daniel Powter – Bad Day........................................................................................................................................57
David Bowie - China Girl........................................................................................................................................58
David Bowie - Space Oddity...................................................................................................................................59
David Bowie - The Man Who Sold The World.......................................................................................................60
David Bowie - Ziggy Stardust.................................................................................................................................61
Depeche Mode - Enjoy the silence..........................................................................................................................62
Depeche Mode - Just Can't Get Enough..................................................................................................................63
Dire Straits - Money for Nothing............................................................................................................................64
Dire Straits - Sultans of swing.................................................................................................................................65
Donald Fagen - I.G.Y. (International Geophysical Year)........................................................................................66
Echo & The Bunnymen - The Game.......................................................................................................................67
Echo & The Bunnymen - The Killing Moon...........................................................................................................68
Elton John - Can You Feel The Love Tonight.........................................................................................................69
Elton John - Daniel..................................................................................................................................................70
Elton John - Goodbye yellow brick road.................................................................................................................71
Elton John – I guess that’s why the called the blues...............................................................................................72
Elton John - Nikita...................................................................................................................................................73
Elton John - Rocket Man.........................................................................................................................................74
Elton John – Skyline Pigeon....................................................................................................................................75
Elton John - Your Song............................................................................................................................................76
Elvis Presley – Kis me quick...................................................................................................................................77
Erasure - Blue Savannah..........................................................................................................................................78
Erasure - Love To Hate You.....................................................................................................................................79
Erasure - Oh L'amour..............................................................................................................................................80
Everly Bros - All I have to do is dream...................................................................................................................81
Extreme - Hole Hearted...........................................................................................................................................82
Flock of Seaguls - I ran............................................................................................................................................83
George Harrison - Love Comes to Everyone..........................................................................................................84
Guns'n'Roses - Sweet Child O' Mine.......................................................................................................................85
Herman Hermits - There's A Kind Of Hush.............................................................................................................86
Hollies, The - The Air That I Breathe......................................................................................................................87
Israel Kamakawiwo'ole - Somewhere Over The Rainbow/What a Wonderful World............................................88
Jack Johnson - Sitting, Waiting, Wishing................................................................................................................88
James - Born of Frustration.....................................................................................................................................90
Janis Joplin - Me and Bobby McGee.......................................................................................................................91
Jason Mraz – 93 Million miles................................................................................................................................93
Jason Mraz – I'm yours............................................................................................................................................96
Jimi Hendrix - Bold As Love...................................................................................................................................99
Jimi Hendrix - Little Wing.....................................................................................................................................100
Jimi Hendrix - The Wind Cries Mary....................................................................................................................101
Korgis, The - Everybody's Got To Learn Sometime.............................................................................................102
Led Zeppelin - Rock and Roll...............................................................................................................................103
Lenny Kravitz - Can't Get You Off my Mind........................................................................................................104
Leonard Cohen - Dance Me To The End of Love.................................................................................................105
Madeleine Peyroux – J'ai deux amors...................................................................................................................106
Madonna – Beautiful Stranger...............................................................................................................................109
Maná - Vivir sin aire..............................................................................................................................................110
Marty Balin - Hearts..............................................................................................................................................111
Marvin Gaye - Sexual Healing..............................................................................................................................112
Metallica - Whiskey In The Jar..............................................................................................................................114
Michael Jackson - Heal the World.........................................................................................................................118
Michael Jackson – Bllie Jean.................................................................................................................................121
Miles Kane – Come Closer....................................................................................................................................122
Moby - We Are All Made Of Stars........................................................................................................................125
Monaco - What Do You Want From Me?..............................................................................................................126
Morrissey - Everyday is Like Sunday...................................................................................................................127
Mr. Big - To be with you.......................................................................................................................................128
Naked Eyes – Always something there to remind you..........................................................................................129
Neil Diamond - Girl You'll Be a Woman Soon......................................................................................................130
Neil Young - My, my, hey, hey..............................................................................................................................131
New Order – Bizarre Love Triangle......................................................................................................................132
New Order - Regret...............................................................................................................................................133
New Order - Round and Round.............................................................................................................................134
Nirvana - About a Girl...........................................................................................................................................135
Nirvana – Come as you are....................................................................................................................................136
Nirvana - In Bloom................................................................................................................................................137
Nirvana - Jesus Doesn't Want Me For A Sunbeam................................................................................................138
Nirvana - Lithium..................................................................................................................................................139
Nirvana - On A Plain.............................................................................................................................................140
Nirvana - Smells Like Teen Spirit.........................................................................................................................141
Paul Carrack - How Long Has This Been Going On.............................................................................................142
Pearl Jam - Black...................................................................................................................................................143
Pearl Jam - Last Kiss.............................................................................................................................................144
Phil Collins - I cannot believe its true...................................................................................................................145
Pink Floyd - Mother..............................................................................................................................................146
Pink Floyd - Wish you here...................................................................................................................................147
Police, The – Walking on the moon.......................................................................................................................148
Pretenders, The – Back on the chain gang.............................................................................................................149
Prince - Kiss...........................................................................................................................................................151
Queen - I Want To Break Free...............................................................................................................................152
Queen - I Was Born To Love You..........................................................................................................................153
Queen - Somebody To Love..................................................................................................................................154
Que Viva La Huasteca - La Llorona......................................................................................................................155
Radio head - Creep................................................................................................................................................156
Ray Charles - I can´t stop loving you....................................................................................................................157
Red Hot Chili Peppers – Aeroplane.......................................................................................................................158
Red Hot Chili Peppers - Around The World..........................................................................................................159
Red Hot Chili Peppers – Breaking the girl............................................................................................................164
Red Hot Chili Peppers – By the way.....................................................................................................................165
Red Hot Chili Peppers – Give it away...................................................................................................................169
Red Hot Chili Peppers - If You Have To Ask........................................................................................................173
Red Hot Chili Peppers - Otherside........................................................................................................................175
Red Hot Chili Peppers - The Zephyr Song............................................................................................................183
Richard Sanderson - Reality..................................................................................................................................194
Robbie Williams - Advertising Space....................................................................................................................195
Roy Orbison - Blue Angel.....................................................................................................................................196
Roy Orbison – Blue Bayou....................................................................................................................................197
Roy Orbison - California Blue...............................................................................................................................198
Roy Orbison - Crying............................................................................................................................................199
Roy Orbison – Dream Baby..................................................................................................................................200
Roy Orbison - I Drove all night.............................................................................................................................201
Roy Orbison - In Dreams.......................................................................................................................................202
Roy Orbison - It´s Over.........................................................................................................................................203
Roy Orbison - She's a mistery to me.....................................................................................................................204
Roy Orbison - Too soon to know...........................................................................................................................205
Roy Orbison - You got it........................................................................................................................................206
Santana - Corazon Espinado..................................................................................................................................207
Seal - Kiss From a Rose........................................................................................................................................208
Smiths, The - Girlfriend In A Coma......................................................................................................................210
Smiths, The - Half of person..................................................................................................................................211
Smiths, The - Heaven Knows I'm a miserable now...............................................................................................212
Smiths, The - How Soon Is Now...........................................................................................................................213
Smiths, The - Please, Please, Please, Let Me Get What I Want............................................................................214
Smiths, The - Reel Around The Fountain..............................................................................................................215
Smiths, The - Some Girls Are Bigger Than Others...............................................................................................216
Smiths, The - Stop Me If You Think You've Heard This One Before...................................................................217
Smiths, The - That Joke Isn't Funny Anymore......................................................................................................218
Smiths, The - There Is A Light That Never Goes Out...........................................................................................219
Smiths, The – This charming man.........................................................................................................................220
Smiths, The - What Difference Does It Make? (Tab)............................................................................................221
Smiths, The – What a difference does it make?.....................................................................................................222
Soft Cell - Torch....................................................................................................................................................223
Soundgarden – Black Hole Sun.............................................................................................................................224
Stevie Wonder – Superwoman...............................................................................................................................225
Strokes, The - Last Night.......................................................................................................................................226
Strokes, The - 12:51...............................................................................................................................................228
Talk talk - It's My Life...........................................................................................................................................229
Take That - Back for Good....................................................................................................................................230
The Mamas and The Papas - Dream a little dream of me.....................................................................................231
Tommy James and The Shondells - Crimson and Clover......................................................................................232
U2 - All I want is you............................................................................................................................................233
U2 - Bad.................................................................................................................................................................234
U2 - Beautiful Day................................................................................................................................................236
U2 - Even Better Than the Real Thing..................................................................................................................238
U2 - I Still Haven't Found What I'm Looking For.................................................................................................241
U2 - One................................................................................................................................................................242
U2 - Stay................................................................................................................................................................243
U2 – Stuck in a moment........................................................................................................................................244
U2 - With or without you.......................................................................................................................................245
The Verve - Lucky Man.........................................................................................................................................246
The Verve - Sonnet................................................................................................................................................247
Wallace Collection, The - Daydream.....................................................................................................................248
Who, The - Pinball Wizard....................................................................................................................................249
Wilson Picket - Mustang Sally..............................................................................................................................250
Abba - Take A Chance On Me chords
Capo IV

G D
If you change your mind, I'm the first in line, Honey I'm still free, take a chance on me
G
If you need me, let me know, gonna be around If you've got no place to go, if you're feeling down
G D
If you're all alone when the pretty birds have flown Honey I'm still free, take a chance on me
G
Gonna do my very best and it ain't no lie If you put me to the test, if you let me try

Am D
Take a chance on me (2X)
Am G
We can go dancing, we can go walking, as long as we're together
Am G
Listen to some music, maybe just talking Get to know you better
Em C Em C D
'Cause you know I've got so much that I wanna do When I dream I'm alone with you, it's magic
Em C Am D Am D
You want me to leave it there, afraid of a love affair But I think you know - that I can't let go

Repeat until...

Am D
Take a chance on me (2X)
Am G
Oh you can take your time baby, I'm in no hurry Know I'm gonna get you
Am G
You don't wanna hurt me, baby don't worry I ain't gonna let you
Em C Em C D
Let me tell you now, my love is strong enough To last when things are rough, it's magic
Em C
You say that I waste my time, but I can't get you off my mind
Am D Am D
No I can't let go - 'cause I love you so

Repeat again
Am D
Take a chance on me (2X)
G D
Ba-ba-ba-ba ba, ba-ba-ba-ba ba Honey I'm still free, take a chance on me
G
Gonna do my very best and it ain't no lie Gotta put me to the test, take a chance on me
A-ha – Take on me

[Intro] Am D G C C/B Am D G C C/B Am D Am D

[Primeira Parte]
Am D G C C/B Am D
We're talking away, I don´t know what I'm to say, I'll say it anyway
G C C/B Am D Em C
Today is another day to find you, Shying away, I'll be coming for your love, ok?

[Refrão]
G D/F# Em C G D/F# Em C G D/F# Em C G ( G D/F# C D )
Take on me, Take me on, I'll be gone In a day or two

[Segunda Parte]
Am D G C G/B Am D G C G/B
So needless to say, I'm odds and ends but I'll be stumbling anyway, slowly learning that life is ok
Am D Em C
Say after me, It's no better to be safe than sorry

[Refrão]

[Solo]
Am D G C G/B Am D
Oh the things that you say, is it life or just to play my worries away
G C G/B Am D Em C
You're all the things I've got to remember, You're shying away, I'll be coming for you anyway

[Refrão] 2X

( G D/F# Em C )
( G D/F# Em C G )
Animals, The - The House of Rising Sun
Am C D F Am C E E

Am C D F
There is a house in New Orleans,
Am C E E
They call the Rising Sun
Am C D F
And It's been the ruin of many a poor boy
Am E Am C D F Am E Am E
And God, I know, I'm one

Am C D F
My mother was a tailor
She sewed my new blue jeans
My father was a gambling man
Down in New Orleans

And the only things a gambler needs


Is a suitcase and a trunk
And the only time he's satisfied
Is when he's all a-drunk

I've got one foot on the platform


The other foot on the train
I'm going back to New Orleans
To wear the ball and chain

So mothers, tell your children


Not to do what I have done
Spend your life in sin and misery
In the house of the Rising Sun
Association, The - Never My Love
C G Bb F C Am
You ask me if there'll come a time When I grow tired of you
C F7+ C
Never my love, never my love

G Bb F C Am
You wonder if this heart of mine Will lose its desire for you
C F7+ C E4/7
Never my love, never my love

E7 Am D
What makes you think love will end
G C F F9 Em
When you know that my whole life depends on you
C G Bb F C Am
para pa pá....

C F7+ C
Never my love, never my love
C G Bb F C Am
You say you fear I'll change my mind I won't require you
C F7+ C
Never my love, never my love
Am D
How can you think love will end
G C F F9 Em
When I've asked you to spend your whole life with me
C F7+ C
Never my love, never my love
Badfinger - Day After Day

G F C G
I remember finding out about you
G F C G
Every day my mind is all around you
D A C Bm Am G
Looking out from my lonely room, day after day
D A
Bring it home, Baby, make it soon
C Bm Am G C G C G
I give my love to you… (solo piano)

G F C G
I remember holding you while you sleep
G F C G
Every day I feel the tears that you weep
D A C Bm Am G
Looking out from my lonely gloom, day after day
D A
Bring it home, Baby, make it soon
C Bm Am G C G C G
I give my love to you… (solo piano)

SOLO: ( G F C G F C G )

D A C Bm Am G
Looking out from my lonely room, day after day
D A
Bring it home, Baby, make it soon
C Bm Am G C G C G
I give my love to you… (solo piano)

Repete 1ª parte com


Looking out from my lonely gloom, day after day
Beatles, The - Because

Cm Fm G7
Because the world is round it turns me on,
G# Cm G# G#7 C# C#7
because the world is round. Ah__.

Cm Fm G7
Because the wind is high it blows my mind,
G# Cm G# G#7 C# C#7
because the wind is high. Ah__.
F G7
Love is old, love is new, love is all, love is you.

Cm Fm G7
Because the sky is blue it makes me cry,
G# Cm G# G#7 C# C#7
because the sky is blue. Ah__.

solo Cm Fm G7

repeat the song twice


Beatles, The - Blackbird

Blackbird singing in the dead of night


Take these broken wings and learn to fly
All your life
You were only waiting for this moment to arise

Black bird singing in the dead of night


Take these sunken eyes and learn to see
all your life
you were only waiting for this moment to be free

Blackbird fly, Blackbird fly


Into the light of the dark black night.

Blackbird fly, Blackbird fly


Into the light of the dark black night.

Blackbird singing in the dead of night


Take these broken wings and learn to fly
All your life
You were only waiting for this moment to arise,oh
You were only waiting for this moment to arise, oh
You were only waiting for this moment to arise
Beatles, The - Day Tripper
E7 A7 E7
Got a good reason, for taking the easy way out Got a good reason, for taking the easy way out
F# A7 G#7 C# B
She was a day tripper, one way ticket yeah It took me só long to find out, and I found out

E7 A7 E7
She's a big teaser, she took me half the way there She's a big teaser, she took me half the way
there
F# A7 G#7 C# B
She's a day tripper, one way ticket, yeah It took me so long to find out, and I found out

E7 A7 E7
Got a good reason, for taking the easy way out Got a good reason, for taking the easy way out
F#
She was a day____ tripper, one way ticket yeah
A7 G#7 C# B
It took me so____ long to find out, and I found out

E7 A7 E7
She's a big teaser, she took me half the way there She's a big teaser, she took me half the way
there
F#
She's a day tripper, one way ticket, yeah
A7 G#7 C# B
It took me so long to find out, and I found out

solo: B7
E7 A7 E7
Tried to please her, but she only played one night stands Tried to please her, but she only played
one night stands
F# A7 G#7 C# B
She was a day tripper, Sunday driver, yeah It took me so long to find out, and I found out
Beatles, The - Norwegian Wood

D D D C G D
I once had a girl or should I say she once had me
D D D C G D
She showed me her room isn't it good Norwegian wood

Dm G
She asked me to stay and she told me to sit anywhere
Dm Em A
But I looked around and I noticed there wasn't a chair

D D D C G D
I sat on a rug biding my time drinking her wine
D D D C G D
We talked until two and then she said it's time for bed

Dm G
She told me she worked in the morning and started to laugh
Dm Em A
I told her I didn't and crawled off to sleep in the bath

D D D C G D
And when I awoke I was alone this bird had flown
D D D C G D
So I lit a fire isn't it good Norwegian wood
Beatles, The - Nowhere Man
C G9 F C Dm Fm C (riff)
He's a real nowhere man sitting in his nowhere land Making all his nowhere plans for nobody

C G9 F C Dm Fm (riff)
Doesn't have a point of view knows not where he's going to Isn't he a bit like you and me

Em F Em F
Nowhere ma, please listen You don't know what you're missing
Em F G9 G7
Nowhere man, the world is at your command
(Solo)
C G9 F C Dm Fm (riff)
He's as blind as he can be just sees what he wants to see Nowhere man can you see me at all?
Em F Em F
Nowhere man, don't worry take your time, don't hurry
Em F G9 G7
Leave it all till somebody else lends you a hand

C G9 F C Dm Fm (riff)
Doesn't have a point of view knows not where he's going to Isn't he a bit like you and me
Em F Em F
Nowhere man, please listen you don't know what you're missing
Em F G9 G7
Nowhere man, the world is at your command

C G9 F C
He's a real nowhere man sitting in his nowhere land

(3X)
Dm Fm C (riff)
Making all his nowhere plans for nobody
Big Country - In A Big Country

E A E A E A E Esus4 E Esus4 (2X)

Verse 1
(E A)
I’ve never seen you look like this without a reason
E C#m F#m A B
Another promise fallen through another season passes by you shout
E A
I never took the smile away from anybody’s face
E C#m F#m A B
And that’s a desperate way to look for someone who is still a child

Chorus
C#m E A B
In a big country dreams stay with you
C#m E C#m E B A F#m E A
Like a lovers voice fires the mountain side stay alive

Verse 2
E A
I thought that pain and truth were things that really mattered
C#m F#m E Esus4 E Esus4
But you cant stay here with every single hope you shattered
E A
I’m not expecting to grow flowers in the desert
E C#m F#m A B
But I can live and breathe and see the sun in winter time.

Chorus (2X)
INSTRUMENTAL
C#m E A B C#m E C#m E B A F#m E A C#m F#m

Verse 3
E A
So take that look out of here it doesn’t fit you
C#m F#m
Because it’s happened doesn’t mean you’ve been discarded
E A
Pull up your head off the floor come up screaming
C#m F#m
Cry out for everything you ever might have wanted
Verse 2 & Chorus
Bob Dylan - Hurricane

Intro: Am F Am F

Am F
Pistol shots ring out in the bar room night
Am F
Enter Patty Valentine from the upper hall
Am F
She sees the bartender in a pool of blood
Am F
Cries out "My God they killed them all!"
C F
Here comes the story of the Hurricane,
C F
The man the authorities came to blame
Dm C
For something that he never done
Dm C
Put in a prison cell but one time
Em Am F C G Am F Am F
He could have been the champion of the world

Am F
Three bodied lying there does Patty see
Am F
And another man named Bello moving around mysteriously
Am F
"I didn't do it" he says, and he throws up his hands
Am F
"I was only robbin' the register, I hope you understand
C F
I saw them leavin'," he says and he stops
C F
One of us had better call the cops
Dm C
And so Patty calls the cops
Dm C
And they arrive on the scene
Em Am
with their red lights flashin'

F C G Am F Am F
In the hot New Jersey night

Am F
Meanwhile somewhere in another part of town
Am F
Rubin Carter and a couple of friends are driving around
Am F
Number one contender for the middleweight crown
Am F
Had no idea what kind of shit was about to go down
C F
When a cop pulled him over to the side of the road
C F
Just like the time before and the time before that
Dm C
In Patterson that just the ways things go
Dm C
If you black you might as well not show up on the streets
Em Am F C G Am F Am F
Less you wanna draw the heat

Am F
Alfred Bello had a partner and he had a rap for the cops
Am F
Him and Arthur Dexter Bradley were just out prowlin' around
Am F
He said "I saw two men runnin out, they looked like middle-weights
Am F
They jumped into a white car with out of state plates"
C F
And Miss Patty Valentine just nodded her head
C F
Cop said "Wait a minute boys, this one's not dead"
Dm C
So they took him to the infirmary
Dm C
And although this man could hardly see
Em Am F C G Am F Am F
They told him that he could identify the guilty men

Am F
Four in the morning and they haul Rubin in
Am F
Take him to the hospital and bring him upstairs
Am F
The wounded man looks up though his one dying eye
Am F
Says "why'd you bring him here for? He ain't the guy!"
C F
Yes, here the story of the Hurricane
C F
The man the authorities came to blame
Dm C
For something that he never done
Dm C
Put in a prison cell but one time he could've been
Em Am F C G Am F Am F
The champion of the world

Am F
Four months later the ghetto's on flame
Am F
Rubin's in South America fightin' for his name
Am F
While Arthur Dexter Bradley's still in the robbery game
Am F
And the cops are puttin' the screw to him looking for somebody to blame
C F
"Remember that murder that happened in a bar?"
C F
"Remember you said you saw the getaway car?"
Dm C
"You think you'd like to play ball with the law?"
Dm C
"Think it might have been that fighter that you saw running that night?"
Em Am F C G Am F Am F
"Don't forget that you are white"

Am F
Arthur Dexter Bradley said "I'm really not sure"
Am F
Cops said "A poor boy like you could really use a break
Am F
We got you for the motel job and were talking to your friend Bello
Am F
Now you don't want to have to go back to jail, be a nice fellow
C F
You'll be doin' society a favor
C F
That son of a bitch is brave and getting braver
Dm C
We want to put his ass in the stir
Dm C
We want to pin this trip murder on him
Em Am F C G Am F Am F
He ain't no Gentleman Jim"

Am F
Rubin could take a man out with just one punch
Am F
He never did like to talk about it all that much
Am F
It's my work he'd say, I do it for pay
Am F
And when it's over I'd just as soon go on my way
C F
Up to some paradise
C F
Where the trout streams flow and the air is nice
Dm C
And ride a horse along a trail
Dm C
But then they took him to the jail house
Em Am F C G Am F Am F
Where they try to make a man into a mouse

Am F
All of Rubin's card were marked in advance
Am F
The trial was a pig-circus, he never had a chance
Am F
The judge made Rubin's witnesses drunkards from the slums
Am F
To the white folks who watched he was a revolutionary bum
C F
but to the black folks he was a crazy nigger
C F
No one doubted that he pulled the trigger
Dm C
And though they could not produce the gun
Dm C
The D.A. said he was the one who did the deed
Em Am F C G Am F Am F
And the all-white jury agreed

Am F
Rubin Carter was falsely tried
Am F
The crime was murder "one", guess who testified?
Am F
Bello and Bradley and the both badly lied
Am F
And the newspapers all went along for the ride
C F
How can the life of such a man
C F
Be in the palm of some fool's hand?
Dm C
To see him obviously framed
Dm C
Couldn't help make him feel ashamed to live in a land
Em Am F C G Am F Am F
Where justice is a game

Am F
Now all the criminal in their coats and their ties
Am F
Are free to drink martinis and watch the sun rise
Am F
While Rubin sits like Buddha in a ten foot cell
Am F
And innocent man in a living hell
C F
That's the story of the Hurricane
C F
But it won't be over till they clear his name
Dm C
And give him back the time he's done
Dm C
Put in a prison cell but one time he could've been
Em Am F C G Am F Am F
The champion of the world
Bob Dylan – If not for you

Intro 6x: E B A

E BA
If not for you
E BA
Babe I couldn't find the door
E BA
Couldn't even see the floor
G#m F#m
I'd be sad and blue
E BA
If not for you

(E B A)

E BA
If not for you
E BA
Babe, I'd lay awake all night
E BA
Wait for the mornin' light
G#m F#m
To shine in through
G#m F#m
But it would not be new
E BA
If not for you

(E B A)

A E
If not for you my sky would fall
B E E7
Rain would gather too
A E
Without your love I'd be nowhere at all
F# B A G#m F#m
I'd be lost if not for you and you know it's true

( B A G#m F#m )

( B A G#m F#m )

( B A G#m F#m E )

(E B A)

A E
If not for you my sky would fall
B E E7
Rain would gather too
A E
Without your love I'd be nowhere at all
F# B A G#m F#m
Oh! What would I do If not for you

( B A G#m F#m )

( B A G#m F#m )

( B A G#m F#m E )

(E B A)

E BA
If not for you
E BA
Winter would have no spring
E BA
Couldn't hear the robin sing
G#m F#m
I just wouldn't have a clue
G#m F#m
Anyway it wouldn't ring true
E BA
If not for you

( E B A ) (4x)
Bob Dylan - Jokerman

A
Standin' n the water casting your bread,
D E A
While the eyes of the idol with the iron head are glowing.
A
Distant ships sailin' into the mist,
D E
You were born with a snake in both of your fists,
A
While a hurricane was blowing.
Bm E A
Freedom, just around the corner for you.
Bm E A
But with truth so far off, what good would it do?

E D
Jokerman dance to the nightingale's tune.
A E/G# F#m E
Bird fly high by the light of the moon.
D E A
Oh, oh, oh Jokerman.

A
So swiftly the sun sets in the sky,
D E A
You rise up and say goodbye to no one.
A
Fools rush in where angels fear to tread,
D E
Both of their futures so full of dread,
A
You don't show one.
Bm E A
Shedding off one more layer of skin.
Bm E A
Keeping one step ahead of the persecutor within.

E D
Jokerman dance to the nightingale's tune.
A E/G# F#m E
Bird fly high by the light of the moon.
D E A
Oh, oh, oh Jokerman.

A
You're a man of the mountains, you can walk on the clouds,
D E A
Manipulator of crowds, you're a dream twister.
A
You go to Sodom and Gomorrah, but what do you care?
D E
Ain't nobody there
A
Would want to marry your sister.
Bm E A
A friend to the martyr, a friend to the woman of shame.
Bm E A
You look into the fiery furnace - see the rich man without any name.

E D
Jokerman dance to the nightingale's tune.
A E/G# F#m E
Bird fly high by the light of the moon.
D E A
Oh, oh, oh Jokerman.

A
Well the book of Leviticus and Deuteronomy,
D E A
The law of the jungle and the sea, are your only teachers.
A
In the smoke of the twilight on a milk-white steed,
D E A
Michelangelo indeed could have carved out your features.
Bm E A
Resting in the fields far from the turbulent space.
Bm E A
Half asleep neath the stars with a small dog licking your face.

E D
Jokerman dance to the nightingale's tune.
A E/G# F#m E
Bird fly high by the light of the moon.
D E A
Oh, oh, oh Jokerman.

A
Well the mafia man stalkin' the sick and the lame,
D E A
Preacher man seeks the same, Who'll get there first is uncertain.
A
Matchsticks and water cannons teargas, padlocks,
D E A
Molotav cocktails and rocks, Behind every curtain.
Bm E A
False-hearted judges dyin' in the webs that they spin.
Bm E A
Only a matter of time til night comes steppin' in.

E D
Jokerman dance to the nightingale's tune.
A E/G# F#m E
Bird fly high by the light of the moon.
D E A
Oh, oh, oh Jokerman.

A
It's a shadowy world - skies are slippery grey,
D E A
A woman just gave birth to a prince today, and dressed him in scarlet.
A
He'll put the priest in his pocket - put the blade to the heat,
D E A
Take the motherless children off the street, And place them at the feet of a harlot.
Bm E A
Oh Jokerman you know what he wants.
Bm E A
Oh Jokerman you don't show any response.

E D
Jokerman dance to the nightingale's tune.
A E/G# F#m E
Bird fly high by the light of the moon.
D E A
Oh, oh, oh Jokerman.
Bob Dylan – Just like a woman

Tom: E (com acordes na forma de C) Capotraste na 4ª casa

(no/capo)

-------0------------------------0-----------0-----|
-----0---0-------2-----0------0---0-------0---0---|
---1-------1---2-----2------1-------1---1-------1-|
-2-----------2-----1------2-----------2-----------|
--------------------------------------------------|
--------------------------------------------------|

(Capo 4th fret)

C F G C
Nobody feels any pain
C F G C
Tonight as I stand inside the rain
F G
Ev'rybody knows
F G
That Baby's got new clothes
F Em Dm C G7
But lately I see her ribbons and her bows
Am C F G7sus4 G7 G7sus2 G7
Have fallen from her curls.

(chorus)

C Em Dm F
She takes just like a woman, yes she does,
C Em Dm F
she makes love just like a woman, yes she does,
C Em Dm F
And she aches just like a woman,
G7sus4 G7 G7sus2 G7 C
but she breaks just like a little girl.

F C F G C
-----1-----0-----1-----3--0-|
---1-----1-----1-----3----1-|
-2-----0-----2-----4------0-|
--------------------------2-|
--------------------------3-|
----------------------------|

Queen Mary, she's my friend.


Yes I believe I'll go see her again.
Noboby has to guess
That baby can't be blessed,
'Till she sees finally that she's like all the rest.
With her fog, her amphetamines, and her pearls
(bridge)
E
It was raining from the first

And I was dying there of thirst


C Csus4 C
So I came in here
E
And your long-time curse hurts

But what's worse


F
Is this pain in here
G7sus4 G7 G7sus2 G7
I can't stay in here
G7sus4 G7 G7sus2 G7
Ain't it clear that

I just can't fit.


Yes I believe it's time for us to quit.
And when we meet again,
Introduced as friends,
Please don't let on that you knew me when,
I was hungry, and it was your world.
Bob Dylan - Lay Lady Lay – Bob Dylan

[A] [C#m] [G [Bm] [A] [C#m] [G] [Bm]

[A]Lay, lady, [C#m]lay, [G]lay across my [Bm]big brass bed[A][C#m][G][Bm]


[A]Lay, lady, [C#m]lay, [G]lay across my [Bm]big brass bed[A][C#m][G][Bm]
[E]Whatever [F#m]colours you have [A]in your mind
[E]I'll show them [F#m]to you [A]and you'll see them shine
[A]Lay, lady, [C#m]lay, [G]lay across my [Bm]big brass bed[A][C#m][G][Bm]

Stay, lady, stay, stay with your man awhile


Until the break of day, let me see you make him smile
His clothes are dirty but his hands are clean
And you're the best thing that he's ever seen
Stay, lady, stay, stay with your man awhile

[C#m]Why wait any longer for the [E]world to [A]begin


[C#m]You can have your cake and eat [Bm]it [A]too
[C#m]Why wait any longer for the [E]one you [A]love
When he's stan[C#m]ding in front of [Bm]you

Lay, lady, lay, lay across my big brass bed


Stay, lady, stay, stay while the night is still ahead
I long to see you in the morning light
I long to reach for you in the night
Stay, lady, stay, stay while the night is still ahead

[A][C#m][G][Bm][C#m][D][A]
Bob Dylan – Like a Rolling Stone

Intro:( A D E )

A Bm
Once upon a time you dressed so fine
C#m D E
You threw the bums a dime in your prime, didn't you?
A Bm
People'd call, say, "Beware doll,
C#m D E
you're bound to fall" You thought they were all kiddin' you

D E
You used to laugh about
D E
Everybody that was hangin' out

D C#m Bm A
Now you don't talk so loud
D C#m Bm A
Now you don't seem so proud

D E
About having to be scrounging for your next meal.

A D E
How does it feel
A D E
How does it feel
A D E
To be on your own
A D E
To be without a home
A D E
Like a complete unknown
A D E
Like a rolling stone

(A D E)

A Bm C#m
Aww, You've gone to the finest school all right, Miss Lonely
D E
But you know you only used to get juiced in it
A Bm C#m
Nobody has ever taught you how to live on the street
D E
And now you're gonna have to get used to it

D E
You said you'd never compromise
D E
With the mystery tramp, but now you realize

D C#m Bm A
He's not selling any alibis
D C#m Bm A
As you stare into the vacuum of his eyes

D E
And say do you want to make a deal?

A D E
How does it feel
A D E
How does it feel
A D E
To be on your own
A D E
With no direction home
A D E
Like a complete unknown
A D E
Like a rolling stone

(A D E)

A Bm C#m
Aww, You never turned around to see the frowns
D E
On the jugglers and the clowns when they all did tricks for you
A Bm
You never understood that it ain't no good
C#m D E
You shouldn't let other people get your kicks for you

D E
You used to ride on the chrome horse with your diplomat
D E
Who carried on his shoulder a Siamese cat

D C#m Bm A
Ain't it hard when you discover that
D C#m Bm A
He really wasn't where it's at
D A E
After he took from you everything he could steal.

A D E
How does it feel
A D E
How does it feel
A D E
To be on your own
A D E
With no direction home
A D E
Like a complete unknown
A D E
Like a rolling stone

(A D E)

A Bm C#m
Aww, Princess on the steeple and all the pretty people
D E
They're all drinkin', thinkin' that they got it made
A Bm C#m
Exchanging all precious gifts
D E
But you'd better take your diamond ring, you'd better pawn it babe

D E
You used to be so amused
D E
At Napoleon in rags and the language that he used

D C#m Bm A
Go to him now, he calls you, you can't refuse
D C#m Bm A
When you got nothing, you got nothing to lose
D A E
You're invisible now, you got no secrets to conceal.

A D E
How does it feel
A D E
How does it feel
A D E
To be on your own
A D E
With no direction home
A D E
Like a complete unknown
A D E
Like a rolling stone

(A D E)
Bob Dylan - Mr. Tambourine Man

Tom: F (com acordes na forma de D) Capotraste na 3ª casa

Intro: D

Refrão
G A D G
Hey Mr Tambourine Man play a song for me
D A
I'm not sleepy and there ain't no place I'm going to
G A D G Refrão
Hey Mr Tambourine Man play a song for me
D G A D
In the jingle jangle morning I'll come following you

G A D G
Though I know that evenings empire has returned into sand
D G
Vanished from my hand
D G A
Left me blindly here to stand but still not sleeping
G A D G
My weariness amazes me I'm branded on my feet
D G
I have no one to meet
D G A
And the ancient empty street's too dead for dreaming

Refrão

G A D G
Take me on a trip upon your magic swirling ship
D G
My senses have been stripped
D G
May hands can't feel to grip
D G
My toes too numb to step
D G A
Wait only for my bootheels to be wandering
G A D G
I'm ready to go anywhere I'm ready for to fade
D G
Into my own parade
D G Bm A
Cast your dancing spell my way I promise to go under it

Refrão

G A D G
Though you might hear laughing spinning swinging madly across the sun
D G
It's not aimed at anyone
D G
It's just escaping on the run
D G A
And but for the sky there are no fences facing
G A D G
And if you hear vague traces of skipping reels of rhyme
D G
To your tambourine in time
D G
It's just a ragged clown behind
D G
I wouldn't pay it any mind
D G A
It's just a shadow you're seeing that he's chasing

Refrão

Solo Gaita: G A D G D G D G D G D G D G A D G D G D G D G A D

G A D G
And take me disappearing through the smoke rings of my mind
D G
Down the foggy ruins of time
D G
far past the frozen leaves
D G
The haunted frightened trees
D G
Out to the windy bench
D G Bm A
Far from the twisted reach of crazy sorrow
G A D G
Yes to dance beneath the diamond sky with one hand waving free
D G
Silhouetted by the sea
D G
circled by the circus sands
D G
With all memory and fate
D G
driven deep beneath the waves
D G A
Let me forget about today until tomorrow

Refrão

Final: G A D G D G
Bob Dylan - Positively 4th Street

F# G#m
You got a lotta nerve
B F#
To say you are my friend
C#
When I was down
B D#m C#
You just stood there grinning

You got a lotta nerve


To say you got a helping hand to lend
You just want to be on
The side that's winning

You say I let you down


You know it's not like that
If you're so hurt
Why then don't you show it

You say you lost your faith


But that's not where it's at
You had no faith to lose
And you know it

I know the reason


That you talk behind my back
I used to be among the crowd
You're in with

Do you take me for such a fool


To think I'd make contact
With the one who tries to hide
What he don't know to begin with

You see me on the street


You always act surprised
You say, "How are you?" "Good luck"
But you don't mean it

When you know as well as me


You'd rather see me paralyzed
Why don't you just come out once
And scream it

No, I do not feel that good


When I see the heartbreaks you embrace
If I was a master thief
Perhaps I'd rob them

And now I know you're dissatisfied


With your position and your place
Don't you understand
It's not my problem

I wish that for just one time


You could stand inside my shoes
And just for that one moment
I could be you

Yes, I wish that for just one time


You could stand inside my shoes
You'd know what a drag it is
To see you
Bobby McFerrin - Don’t worry, be happy

(Intro) ( B C#m E B ) (2x) (Tom: B)

B C#m E B F#
Here's a little song I wrote You might want to sing it note for note Don't Worry, be happy
B C#m E B F#
In every life we have some trouble But when you worry you make it double Don't Worry, be happy

Refrão:
B C#m E
uh, uh (no fundo)/ Don't worry (na frente) uh, uh (no fundo)/ Be happy (na frente) (2X)
B C#m
Uh, uh, uh, uh, don't worry, be happy

B C#m E B F#
Ain't got no place to lay your head, somebody came and took your bed Don't Worry, be happy
B C#m E B F#
The landlord say your rent is late, he may have to litigate Don't Worry, be happy

Refrão

B C#m E B F#
Ain't got not cash, ain't got no style, ain't got no girl to make you smile Don't Worry, be happy
B C#m E B F#
Cause when you worry your face will frown and that will bring everybody down Don't Worry, be happy

Refrão
Bob Seger - Against The Wind
INTRO & BRIDGE: G
VERSE 1:
G Bm
It seems like yesterday, but it was long ago.
C G
Janey was lovely; she was the queen of my nights,
D C
There in the darkness with the radio playing low. And the
G
Secrets that we shared
Bm C G
the mountains that we moved, Caught like wildfire out of control - Till there was
C D Em D G
nothin left to burn and nothin left to prove. And I remember what she said to me.
Em C G Em D C
How she swore that it never would end. I remember how she held me, oh so tight.
C D
Wish I didn't know now what I didn't know then.

CHORUS:
G Bm C G
Against the wind. We were runnin against the wind. We were
C Cmaj9 Am7 C G
young and strong; we were runnin a-gainst the wind.

VERSE2:
And the years rolled slowly past. And I found myself alone.
Surrounded by strangers I thought were my friends.
I found myself further and further from my home. And I
Guess I lost my way. There were oh, so many roads.
I was livin' to run, and runnin' to live,
Never worryin' about payin', or even how much I owed.
Runnin' 8 miles a minute for months at a time.
Breakin' all of the rules that would bend.
I begin to find myself just searchin'... Searchin' for shelter again and again.

CHORUS 2:
Against the wind. A little somethin' against the wind.
I found myself seeking shelter against the wind.

VERSE 3: (Solo for 1st 2 stanzas of verse)


Well those drifter's days are past me now. I've got so much more to think about.
Deadlines and commitments. What to leave in, What to leave out.

CHORUS 3:
Against the wind. I'm still runnin' against the wind.
I'm older now but still runnin' against the wind.

OUTRO: C Cmaj9 Am7 C


Well I'm older now and still runnin' a-gainst the wind.
(alternate G & C to fade)
Against the wind. Against the wind. Against the wind -- still running.
Against the wind -- I'm still running against the wind.
Against the wind -- I'm still running.
Against the wind -- I'm still running against the wind.
Against the wind -- still running.
Against the wind -- running against the wind -- running against the wind
Against the wind -- see the young man run.
Against the wind -- watch the young man run.
Against the wind -- watch the young man running.
Against the wind -- he'll be running against the wind.
Against the wind -- let the cowboys ride.
Against the wind -- Oooh
Against the wind -- let the cowboys ride.
Against the wind -- they'll be riding again the wind.
Against the wind -- against the wind.
Against the wind -- riding against the wind.
Against the wind -- against the wind.
Ride, ride, ride, ride, ride -- against the wind.
Bob Seger - Shame on the Moon

(NOTE: the (F#) indicates that you play that note on the 6h string moving into the next chord)

G (F#) Em
Until youve been beside a man
Em (F#)
You dont know what he wants
G (F#) Em
You dont know if he cries at night
Em
You dont know if he don’t
C G
When nothin comes easy
C G (F#)
Old nightmares are real
Em G
Until you ve been beside a man
Em D G
You dont know how he feels

Once inside a womans heart A man must keep his head


Heaven opens up the door Where angels fear to tread
Some men go crazy Some men go slow
Some men go just where they want Some men never go

Bb G Bb G
Oh blame it on midnight, Ooh shame on the moon

Everywhere its all around, Comfort in a crowd


Strangers faces all around Laughin right out loud
Hey watch where your goin Step light on old toes
Cause until youve been beside a man You dont know who he knows

Oh blame it on midnight, Ooh shame on the moon


Oh blame it on midnight, Ooh shame on the moon
Bob Seger - Still the Same

Intro: C Em G (2x)

C Em G
You always won, ev'ry time you placed a bet.
C Em G
You're still damn good; no one's gotten to you yet.
F G C
Ev'ry time, they were sure they had you caught,
Em Am Dm G
you were quicker than they thought, You'd just turn your back and walk.

C Em G
You always said, the cards would never do you wrong.
C Em G
The trick you said, was never play the game too long.
F G C
A gambler's share; the only risk that you would take,
Em Am Dm G
the only loss you could forsake, the only bluff you couldn't fake.

C E A
And you're still the same. I caught up with you yesterday.
Dm G
Movin' game to game; no one standin' in your way.
C E A
Turnin' on the charm - long enough to get you by.
Dm G
You're still the same. You still aim high.

C Em G (2x) (Instrumental)

F G C
There you stood; ev'ry body watched play.
E Am Dm G
I just turned and walked away. I had nothing left to say.
C Em G C Em G
And you're still the same. _ _ _ _ _ _ _ _ _(2x) Movin' game to game.
C Em G C Em G
Some things never change. And you're still the same.
Carpenters, The - Close to you

Fmaj7 E7sus4 E7 Em7 Am7


Why do birds suddenly appear every time you are near
Fmaj7 Dm7/9 G7/13 Cmaj7
Just like me, they long to be Close to you
Fmaj7 E7sus4 E7 Em7 Am7
Why do stars fall down from the sky every time you walk by?
Fmaj7 Dm7/9 G7/13 Cmaj7
Just like me, they long to be Close to you

F7+ F6 F7+ F6
On the day that you were born the angels got together
Em7 A7sus4 A7
And decided to create a dream come true
F7+
So they sprinkled moon dust in your hair of gold
G F7+ G
and starlight in your eyes of blue

Fmaj7 E7sus4 E7 Em7 Am7


That is why all the boys in town follow you all around
Fmaj7 F6 Cmaj7 C
Just like me, they long to be Close to you

F7+ C7+/9
aah -aah -close to you
Cat Stevens - Morning Has Broken
Tom: G Intro(piano)
D G A F#
E|-2-----------2----------|-3-----------3--2-|-0----------5-------|-------------2--0-|
B|-3--3-----3-----3-----3-|----3--0--3-------|----------5---5-----|-2--------2-------|
G|-2-----2-----------2----|------------------|--------6-------6---|-3-----3----------|
D|-0----------------------|------------------|------7-----------7-|----4-------------|
A|------------------------|------------------|-0------------------|------------------|
E|------------------------|-3----------------|--------------------|-2----------------|

Bm G7 C F C
E|-----------7-------|-1------------1----|-0-----------0----------|-----------------------|-------0-|
B|-7-------7---7-----|-------------------|----------3-----3--1----|-1-----------1---------|-----1---|
G|-7-----7-------7---|-----------0-------|-------0--------------0-|-2--2-----2--2--2------|---0-----|
D|-----9-----------9-|--------0--------0-|----2-------------------|-------3-----------0h2-|---------|
A|-------------------|-----2--------2----|-3-----------3----------|-3-----------3---------|-3-------|
E|-7-----------------|-3-----------------|------------------------|-----------------------|---------|

C Dm G F C
Morning has broken, like the first morning.
Em Am D7 G
Blackbird has spoken, like the first bird.
C F C Am D
Praise for the singing, praise for the morning,
G C F G7 C F G E Am G C G7sus
praise for them springing, fresh from the world.

C Dm G F C
Sweet the rain's new fall, sunlit from heaven,
Em Am D7 G
like the first dew fall, on the first grass.
C F C Am D
Praise for the sweetness, of the wet garden,
G C F G7 C
sprung in completeness, where his feet pass.
F G E Am F# Bm G D A7 D

D Em A G D
Mine is the sun light, mine is the morning,
F#m Bm E7 A
born of the one light, Eden saw play.
D G D Bm E
Praise with elation, praise every morning,
A D G A7 D G A F# Bm G7 C F C
God's recreation, of the new day.

repete 1° verso
Cat Stevens – Oh Very Young

D E F#m D E
Oh very young what will you leave us this time
E7 A D
You're only dancing on this earth for a short while
E
and though your dreams may toss and turn you now
A D A
they will vanish away like your Dad's best jeans demin blue,
D A D
fading up to the sky
A A7/C# D B E
and though you want him to last for ever you know he never will.
E7/G# A (E A E A)
you know he never will, and the patches make the Goodbye harder still.

D E F#m D E
Oh very young what will you leave us this time
A D
There'll never be a better chance to change your mind
E
and if you want this world to see a better day
A D A
will you carry the words of love with you
D A D
will you ride the great white bird into heaven
A A7/C# D B E
and though you want to last for ever you know you never will.
E7/G# A
you know you never will, and the goodbye makes the journey harder still.

(E A A D E D E A D E) A D A D
will you carry the word of love with you
D A A7/C# D B E A/C# Bm E A E A E A
will you ride ...Oh
D E F#m D E
Oh very young what will you leave us this time
E7/G# A D
You're only dancing on this earth for a short while
E A
Oh very young what will you leave us this time
Cat Stevens – Wild World
La...la...la...la...la
Dm Gm C
Now that I've lost everything to you
F Bb
You say you want to start something new
Gm A
And it's breaking my heart you're leaving
Baby I'm grieving
Dm Gm C
And if you wanna leave take good care
F Bb
Hope you have a lot of nice things to wear
Gm A C
A lot of nice things turn bad out there
F C Bb
Oh baby, baby, it's a wild world
C Bb F
It's hard to get by just upon a smile CHORUS
F C Bb
(yeah...) oh baby, it's a wild world
C Bb F Bb C Dm
I'll always remember you like a child girl
You know I've seen a lot of
What the world can do
And it's breaking my heart in two
Coz I never want to see you sad girl
Don't be a bad girl
But if you wanna leave take good care
Hope you make a lot of nice friends out there
Just remember there's
A lot of bad and beware
La...la...la...la...la...baby I love you.
Charles Aznavour - Que c'est triste Venise

Bb
Que c'est triste Venise Au temps des amours mortes
F7
Que c'est triste Venise Quand on s'aime plus
Cm7 F7
On cherche encore des mots Mais l'ennui les emporte
C7 Cm7, F7
On voudrais bien pleurer Mais on ne le peut plus

Bb Fm G7
Que c'est triste Venise Lorsque les barcarolles
Cm7 Ebm6, F7
Ne viennent souligner Que des silences creux
Bb Eb6
Et que le coeur se serre En voyant les gondoles
Cm7 F7 Bb
Abriter le bonheur Des couples amoureux

B
Que c'est triste Venise Au temps des amours mortes
F#7
Que c'est triste Venise Quand on s'aime plus
C#m7 F#7
Les musées, les églises Ouvrent en vain leurs portes
C#7 C#m7,F#7
Inutile beauté Devant nos yeux déçus

B F#m G#7
Que c'est triste Venise Le soir sur la lagune
C#m7 Em6, F#7
Quand on cherche une main Que l'on ne vous tend pas
B E6
Et que l'on ironise Devant le clair de lune
C#m7 F#7 B, G7
Pour tenter d'oublier Ce qu'on ne se dit pas
C
Adieu tout les pigeons Qui nous ont fait escorte
F6
Adieu Pont des Soupirs Adieu rêves perdus
G Cm6 A7
C'est trop triste Venise Au temps des amours mortes
Dm Gm/F C
Que c'est trop triste Venise Quand on ne s'aime plus
Charles Trenet – La Mer

C Am F G7 C Am F G7 C E7/B
La mer Qu'on voit danser Le long des golfes clairs
Am G7 C Am F A7 Dm
A des reflets d'argent La mer
G E7 Am F D7 G G7
Des reflets changeants Sous la plui-e...

C Am F G7 C Am
La mer Au ciel d'été
F G7 C E7/B Am G7 C Am
Confond ses blancs moutons Avec les anges si purs,
F A7 Dm G E7/B Am F Dm7 G7 C
La mer Bergère d'a-zur infi-ni---e

B7 E C#m F#m B7 E C#m F#m B7 E


Voyez Près des étangs Ces grands roseaux mouillés
D7 G Em Am D7 G Em Am D7 G G7 Em G7
Voy-ez Ces oiseaux blancs Et ces maisons rouillées

C Am F G7 C Am
La mer Les a bercés
F G C E7/B Am
Le long des golfes clairs
G7 C Am
Et d'une chanson d'amour,

La mer
F Am7 Dm G E7 Am F D7 G7 C
La mer A bercé mon coeur pour la vi- - e
G E7 Am F D7 G7 C
A bercé mon coeur pour la vi--e
Coldplay - The Scientist

C#m A E E9 C#m
Come up to meet you, tell you I'm sorry, you don't know how lovely you are
A E E9 C#m
I had to find you, tell you I need you, tell you I'll set you apart

A E E9 C#m
Tell me your secrets and ask me your questions, oh, lets go back to the start
A E E9 A
Running in circles, coming up tails, heads on a science apart

Chorus
A E E9 A
Nobody said it was easy, it's such a shame for us to part
E E7M B
Nobody said it was easy, no one ever said it would be this hard
E
Oh take me back to the start

( E A E F7M) ( C#m A E E9 )

C#m A E E9
I was just guessing at numbers and figures, pulling your puzzles apart
C#m A E E9 C#m
Questions of science, science and progress, do not speak as loud as my heart
A E E9 C#m
Tell me you love me, come back and haunt me, oh and I rush to the start
A E F/E A
Running in circles, chasing tails, coming back as we are

Chorus

(EA E) ( C#m A E )

C#m A E
oh – ooo-oo-oo-oo-ooo (4X)
Coldplay - Yellow

Tom: B (afinação E A D G B eb)


(Intro) B B11 B (2x) B F#6(11) E7M B
F#6(11) E7M
Look at the stars, look how the shine for you and everything you do, yeah they were all yellow.
B F#6(11) E7M
I came along, I wrote a song for you, and all the things you do, and it was called yellow.
B F#6(11) E7M (B B11 B)*
So then I took my turn, oh, what a thing to' ve done. And it was all yellow.

E7M G#m7 F#6(11) E7M G#m7 F#6(11)


You're skin, oh yeah your skin and bones, Turn in____to something beautiful.
E7M G#m7 F#6(11) E7M
Do you know, you know I love you so... you know I love you so...

(repete a Intro)

B F#6(11) E7M
I swam across, I jumped across for you. Oh, what a thing to do, 'Cause you were all yellow.
B F#6(11) E7M (B B11 B)*
I drew a line, I drew a line for you. Oh, what a thing to do. And it was all yellow.

E7M G#m7 F#6(11) E7M G#m7 F#6(11)


You're skin, oh yeah your skin and bones, turn in____to something beautiful.
E7M G#m7 F#6(11) E7M
Do you know, for you I'd bleed myself dry. For you I bleed myself dry.
( B F#6(11) E7M B )
It's true.
F#6(11) E7M
Look how they shine for you. Look how they shine for you.
B F#6(11)
Look how they shine for... you Look how they shine for you.
E7M
Look how they shine for you. Look how they shine.

B F#m7(11) E7M
Look at the stars Look how the shine for you And everything you do,
Creedence Clearwater Revival - Hey Tonight

D
Hey tonight, gonna be tonight
Don't you know I'm flyin'
G D/F#
Tonight, tonight

D
Hey, come on
Gonna chase tomorrow
G D
Tonight, tonight

Refrão:
A E A E
Gonna get it to the rafters, watch me now
A E A A7
Jody's gonna get religion all night long

D
Hey, come on
Gonna hear the sun
G D
Tonight, tonight

Solo Refrão
Creedence Clearwater Revival - Have You Ever Seen The Rain

A
Someone told me long ago
There's a calm before the storm
E A
I know, it's been coming for some time
When it's over so we say
It'll rain a sunny day
E A
I know, shinin' down like water

D E A E/G# F#m F#m/E


I wanna know, have you ever seen the rain
D E A E/G# F#m F#m/E
I wanna know, have you ever seen the rain
D E A
Comin' down on a sunny day

A
Yesterday and days before
Sun is cold and rain is hard
E A
I know, it's been that way for all my time

A
Till forever on it goes
Through the circle fast and slow
E A
I know, and it can't stop I wonder

D E A E/G# F#m F#m/E


I wanna know, have you ever seen the rain
D E A E/G# F#m F#m/E
I wanna know, have you ever seen the rain
D E A
Comin' down on a sunny day
Creedence Clearwater Revival - Proud Mary

Intro: C A C A C A G F D
D
Left a good job in the city, workin' for the man every night and day
and I never lost one minute of sleepin', worryin' 'bout the way things might have been.
A
Big wheel a-keep on turnin'
Bm
Proud Mary keep on burnin',
D
Roll - in', rollin', rollin' on the river
D
Cleaned a lot of plates in Memphis, pumped a lot of pain down in New Orleans,
But I never saw the good side of the city, till I hitched a ride on a river boat queen.
A Bm
Big wheel a-keep on turnin, Proud Mary keep on burnin',
D
roll - in, rollin, rollin on the river.

repeat intro solo

D
roll - in, rollin, rollin on the river. (Repeat intro)

D
if you come down to the river,
bet you're gonna find some people who live,
you don't have to worry, cause you have no money,
people on the river are happy to give.
A
Big wheel keep on turnin,
Bm
Proud Mary keep on burnin,
D
roll - in, rollin, rollin on the river.
Creedence Clearwater Revival - Who ll Stop The Rain
G Em
E|---------3-------------3---------------3-------------3---------
B|-----0-------------0---------------0-------------0-------------
Intro: 2x G|-------0-------------0---------------0-------------0-----------
D|----------------------------------------------------------(0)--
A|---------------------------------------------------------------
E|-(3)----------(3)---------(2)--(0)------------(0)--------------

G C G
Long as I remember the rain been comin' down
G C G
Clouds of mystery pourin' confusion on the ground

C G C G
Good men through the ages tryin' to find the sun
C D Em G
And I wonder still I wonder who'll stop the rain

G C G
I went down Virginia seeking shelter from the storm
G Bm C G
Caught up in the fable I watched the tower grow

C G C G
Five-year plans and new deals wrapped in golden chains
C D Em G
And I wonder still I wonder who'll stop the rain

(pausa) C G D Am C Em D

G C G
Heard the singers playin', how we cheered for more
G Bm C G
The crowd had rushed together, just tryin to keep warm

C G C G
Still the rain kept pourin' fallin on my ears
C D Em G
And I wonder still I wonder who'll stop the rain
Cure, The - In Between Days

A Dmaj7 A D
Yesterday I got so old I felt like I could die
A D A D
Yesterday I got so old it made me wanna cry

A D
Go on go on just walk away
A D
Go on go on you're choice is made
A D
Go on go on and disappear
A D
Go on go on away from here

Bm9 E
And I know I was wrong when I said it was true
Bm E A
That it could've been me and with her in between without you (*)

Yesterday I got so scared I shivered like a child


Yesterday away from you it froze me deep inside

Come back come back don't walk away


come back come back come back today
come back come back why can't you see
come back come back come back to me

And I know....
Daft Punk – Get Lucky

INTRO: Bm D F#m E (2X)

VERSE:
Bm D F#m E
Like the legend of the phoenix all ends were beginnings
Bm D F#m E
What keeps the planet spinning the force from the beginning

PRE CHORUS:
Bm D F#m E
We've come too far to give up who we are
Bm D F#m E
So let's raise the bar and our cups to the stars

CHORUS 1 :
Bm D
She's up all night 'til the sun, I'm up all night to get some
F#m E
She's up all night for good fun, I'm up all night to get lucky
CHORUS 2:
Bm D
We're up all night 'til the sun, We're up all night to get some
F#m E
We're up all night for good fun, We're up all night to get lucky

Bm D
We're up all night to get lucky, We're up all night to get lucky
F#m E
We're up all night to get lucky, We're up all night to get lucky

BREAK: Bm D F#m E

VERSE:
Bm D F#m E
The present has no rhythm, Your gift keeps on giving
Bm D F#m E
What is this I'm feeling?, If you want to leave I'm with it
PRE CHORUS - CHORUS 1 – CHORUS 2 (2X)

BREAK: Bm D F#m E (4X) - PRE CHORUS - CHORUS 1 - CHORUS 2 (3X)

OUTRO: Bm D F#m E (2X)


Dan Fogelberg - Longer
Intro: C Dm7 Em7 F Eb Bb7 C F G C

C Dm7 Em7 F
Longer than there' ve been fishes in the ocean,
C Dm7 Em7 F
Higher than any bird ever flew
C Dm7 Em7 F
Longer than there' ve been stars up in the heavens
Eb Bb7 C F G C
I' ve been in love with you
Stronger than any mountain cathedral
Truer than any tree ever grew
Deeper then any forest primeval
I am in love with you
Chorus:
Bb F Ab Eb
I' ll bring fires in the winters
Bb F Ab Eb
You' ll send showers in the springs
Bb F Ab Eb
We' ll fly through the falls and summers
G7 Gm7 G7
With love on our wings

Through the years as the fire starts to mellow


Burning lines in the book of our lives
Through the binding cracks and the pages start to yellow
I' ll be in love with you
Instrumental
Bb F Ab Eb Bb F Ab Eb Bb F Ab Eb G7 Gm7 G7
Chorus
Eb Bb7 C F G7 C
I am in love with you
Daniel Powter – Bad Day
D G A G D G A G
Where is the moment when we need it the most you kick up the leaves and the magic is lost
Bm A G D Em
They tell me your blue sky's faded to grey They tell me your passion's gone away
A G A
And I don't need no carrying on

D G A G D G AG
Stand in the line just ahead of the Law You're faking a smile with the coffee you go
Bm A G D Em
You tell me your life's been way off line You're falling to pieces everytime
A
And I don't need no carrying on

D G Em A
Cause you had a bad day you're taking one down you sing a sad song just to turn it around
D G Em A
You say you don't know You tell me don't lie, you work at a smile and you go for a ride
Bm A G D
You had a bad day the camera don't lie you're coming back down and you really don't mind
Em A D
You had a bad day You had a bad day
Bm Bm Bm7 Bm6
You had a bad day It seem what you like and how does it feel for one more time
GA D G / Em DG /AG /x 2
You had a bad Day You had a bad day

Bm A G D Em
Well you need a blue sky holiday the point is they laugh at what you say and I don't need
A
no carrying on Chorus

F#m F Bb
Sometimes the system goes on the blink And the whole thing it turns out wrong
F Bb
You might not make it back and you know that you could be well oh that strong
A Bb D G A G
Well I'm nog wrong So where is the passion when you need it the most oh you and I
D G A
You kick up the leaves and the magic is lost Chorus
David Bowie - China Girl
INTRO: Repeat 3 times...
G Am
E-7755775-77557755335555-5555-
B-7755775-77557755335555-5555-
G-----------------------------
G Am
I could escape this feeling, with my China Girl
G Am
I feel a wreck without my, little China Girl
Em G Am B
I hear her heart beating, loud as thunder Saw the stars crashing
G Am
I'm a mess without my, little China Girl
G Am
Wake up in the morning where's my, little China Girl
Em G Am B
I hear her heart's beating, loud as thunder Saw the stars crashing down

G F Em D
I feel a-tragic like I'm Marlon Brando When I look at my China Girl
G F Em D
I could pretend that nothing really meant too much When I look at my China Girl

BREAK 1: Em D C B
Em D E-----------------------------------------
B-----------------------------------------
I stumble into town just like a sacred cow G-----------------------------------------
C B D-575757557-454545445-242424224-121212112-
A-777777777-555555555-333333333-222222222-
Visions of swastikas in my head plans for everyone E-----------------------------------------
Em D C B
It's in the whites of my eyes
Em D C B
My little China Girl You shouldn't mess with me I'll ruin everything you are
Em D C B
I'll give you television, I'll give you eyes of blue I'll give you a man who wants to rule the world
G F Em D
And when I get excited my little China Girl says: oh baby just you shut your mouth
Em D C B
She says ... shhh
SOLO: Em D C B (2X) And when I get excited... (2X)
David Bowie - Space Oddity

C Em C Em
Ground control to Major Tom Ground control to Major Tom:
Am Am7/G D7
Take your protein pills and put your helmet on
C Em C Em
Ground control to Major Tom: Commencing countdown engine's on
Am Am7/G D7
Check ig- nition and may God's love be with you
C E7 F
This is ground control to Major Tom, you've really made the grade!
Fm C/E F
And the papers want to know whose shirts you wear,
Fm C/E F
now it's time to leave the capsule if you dare
C E7 F
This is Major Tom to ground con-trol, I'm stepping through the door
Fm C/E F Fm C/E F
And I'm floating in the most peculiar way, and the stars look very difeerent today
Fmaj7 Em7 Fmaj7 Em7
For here am I sitting in a tin can, far above the world
Bbmaj7 Am G F
Planet Earth is blue and there's nothing I can do
C F G A A C F G A Fmaj7 Em7 A C D E C E7 F
Though I'm passed one hundred thousand miles, I'm feeling very still
Fm C/E F
And I think my spaceship knows which way to go,
Fm C F
tell my wife I love her very much she knows
G E7 Am Am7/G
Ground control to Major Tom: Your circuit's dead, there's something wong.
D7 C/G
Can you hear me Major Tom? Can you hear me Major Tom?
G Fmaj7 Em7 Fmaj7 Em7
Can you hear me Major Tom? Can yovu … here am I floating round my tin can
Bbmaj7 Am G F
far above the moon... Planet Earth is blue and there's nothing I can do
C F G A A C F G A A

CHORDS: Fmaj7 x 3 3 2 1 0 C/E 0 3 2 0 1 0


Am7/G x 0 3 0 2 1 C/G 3 3 2 0 1 0 Bbmaj7 x 2 3 2 3 1
David Bowie - The Man Who Sold The World

Tom:A Tuning: Eb Ab Db Gb Bb eb

Introdução: F Dm

A Dm
We past upon the stairs, spoken walls of when
A F
Although I wasn´t there he said I was his friend
C
Which came as a surprise
A Dm
I spoke into his eyes, I thought you die alone
C
A long, long time ago

F C# F
Oh no, not me, we never lost control
C F C# A Dm
Your face to face with the man who sold the world

Riff
A Dm
I laughed and shook his hand made my way become
A F
I searched for foreign land for years and years I romed
C A
I gazed a pazly stare we walked a millions hills
Dm C
I must have died alone a long, long time ago

F C# F
Who knows, not me, I never lost control
C F C# A Dm
Your face to face with the man who sold the world
C F C# F
Who knows, not me, we never lost control

Introdução: F Dm

Solo: (A Dm F Dm A Dm F)
David Bowie - Ziggy Stardust
[G]Ziggy played guitar, [Bm/F#]jamming good with Wierd and [C/G]Gilly,
And the spiders from M[D]ars. He played it left h[G]and, but made it to [Em]far,
Became the sp[A]ecial man, then we were Z[C/G]iggy's band.

[G]Ziggy really sang, s[Bm/F#]crewed up eyes and screwed down [C/G]hairdo


Like som cat from J[D]apan, he could lick'em by s[G]miling
He could leave'em to h[Em]ang
Came on so lo[A]aded man, well hung and s[C/G]now-white tan.

#(In chorus use barre-chords, and play at the F-chord alternating F and F/E)#

[Am]So w[G]here were the s[F]piders w[Am]hile the f[G]ly tried to b[F]reak our balls
[Am]Just the b[G]eer light to g[F]uide us,
So we b[D]itched about his fans and should we c[E]rush his sweet hands?

{comment:Intro x 2}

[G]Ziggy played for time, j[Bm/F#]iving us that we were v[C/G]oodoo


The kids was just c[D]rass, he was the n[G]azz
With God given [Em]ass
He took it a[A]ll too far, but boy could he p[C/G]lay guitar.

[Am]Making l[G]ove with his [F]ego Z[Am]iggy s[G]ucked up i[F]nto his mind
[Am]Like a l[G]eper me[F]ssiah
When the k[D]ids had killed the man I had to b[E]reak up the band.
Depeche Mode - Enjoy the silence

Cm D#m
Words like violence Break the silence
G#
Come crashing in into my little world

Cm D#m
Painful to me Pierce right through me
G#
Can't you understand oh my little girl

Fm G#
All I ever wanted All I ever needed
Cm
Is here in my arms
Fm G# Cm B
Words are very unnecessary They can only do harm

Cm D#m
Vows are spoken to be broken

G#
Feelings are intense words are trivial

Cm D#m
Pleasures remain So does the pain
G#
Words are meaningless and forgettable

Fm G#
All I ever wanted All I ever needed
Cm
Is here in my arms
Fm G# Cm B
Words are very unnecessary They can only do harm Riff e repete 2x o Refrão
Depeche Mode - Just Can't Get Enough

Intro G C
G C
When I'm with you baby, I go out of my head, and I just can't get enough, and I just can't get
enough.
G C
All the things you do to me, and everything you said, and I just can't get enough, I just can't get
enough.
D Em C
We slip and slide as we fall in love, And I just can't seem to get enough of...

G C
We walk together, walking down the street, and I just can't get enough, and I just can't get
enough.
G C
Every time I think of you, I know we have to meet, and I just can't get enough, and I just can't get
enough.
D Em C
It's getting harder, it's a burning love, And I just can't seem to get enough of...

Bridge: A D A D Em7 Fdim D7/F#


Chorus:
G C
I just can't get enough, I just can't get enough, I just can't get enough, I just can't get enough,
G7 C
I just can't get enough, I just can't get enough, I just can't get enough, I just can't get enough,

Verse 3:
G C
And when it rains, you're shining down for me, and I just can't get enough, I just can't get enough,
G C
Just like a rainbow, you know you set me free, and I just can't get enough, I just can't get enough,
D Em C
You're like an angel and you give me your love, And I just can't seem to get enough of...
Chorus repeats until fade:
Dire Straits - Money for Nothing
Gm7 Gm7 Bb C Bb
Now look at them yo-yo's that's the way you do it you play the guitar on the M.T.V.
Gm7 F Gm7
That ain't workin' that's the way you do it money for nothin' and chicks for free
Gm7 Gm7 Bb C
Now that ain't workin' that's the way you do it lemme tell ya them guys ain't dumb
Gm7 F C
Maybe get a blister on your little finger Maybe get a blister on your thumb

Eb Bb Eb F
We gotta install microwave ovens Custom kitchen deliveries
Gm7 C D E
We gotta move these refrigerators We gotta move these colour TV's

Gm7 C Gm7 Bb C
See the little faggot with the earring and the makeup Yeah buddy that's his own hair
Gm7 F Gm7
That little faggot got his own jet airplane that little faggot he's a millionaire

Gm7 C Gm7 Bb C
I shouldda learned to play the guitar I shouldda learned to play the drums
Gm7 F C
Look at that mama, she's got it stickin' in the camera man we could have some fun
Gm7 C Gm7 Bb C
And he's up there, what's that? Hawaiian noises? Bangin' on the bongoes like a chimpanzee
Gm7 F Gm7
That ain't workin' that's the way you do it get your money for nothin' and chicks for free
Gm7 C Gm7 Bb C
Now that ain't workin' that's the way you do it You play the guitar on the M.T.V.
Gm7 F Gm7
That ain't workin' that's the way you do it Money for nothin' and your chicks for free
Gm7 C Gm7 Bb C Gm7 F Gm7
Money for nothin' chicks for free Money for nothin' chicks for free
Dire Straits - Sultans of swing
Dm C A# A
you get a shiver in the dark it's raining in the park but meantime
Dm C A# A F C
south of the river you stop and you hold everything a band is blowing Dixie double four
A# Dm A#-C
time you feel alright when you hear that music ring
Dm C A# A Dm C A# A
Now, you step inside but you don't see too many faces coming in out of the rain to
(you) hear the jazz go down
F C A# Dm
too much competition in all the places but not too many horns can make that sound
A#-C A#-C Dm Dm-C-F-A# Dm-C-F-A#
way on downsouth, way on downsouth, London town

Dm C A# A
you check out Guitar George he knows all the chords
Dm C A# A
mind he's (his) strictly rhythm he doesn't want to make it cry or sing
F C A# Dm A#-C
and an old guitar is all he can afford when he gets up under the lights to play his thing
Dm C A# A Dm C A# A
(and) harry doesn't mind if he doesn't make the scene, he('s) got a daytime job he's doing all right
F C A# Dm A#-C
he can play honky tonk like anything saving it up for friday night
A#-C Dm Dm-C-F-A# Dm-C-F-A#
with the sultans, with the sultans of swing

Dm C A# A
and a crowd of young boys they're fooling around in the corner
Dm C A# A
drunk and dressed in their best brown baggies and their platform soles
F C
they don't give a damn about ('bout) any trumpet playing band
A# Dm A#-C
it ain't what they call rock and roll
A#-C Dm Dm-C-F-A# Dm-C-F-A#
and the sultans, and the sultans played creole (Yeah, Creole)
Dm C A# A Dm C A# A (A7)
and then the man he steps right up to the microphone and says at last just as the time bell rings
F C A# Dm A#-C
thank you goodnight now it's time to go home and he makes it fast with one more thing
A#-C Dm Dm-C-F-A# Riff básico e Solo Final
we are the sultans we are the sultans of swing
Donald Fagen - I.G.Y. (International Geophysical Year)

Introdução: Fm Dbmaj7 Eb11


Dm Bb Am Gm
Standing tough, under stars and stripes we can tell the dream is in sight,
Dm Bb Am Gm
You've got to admit it, at this point in time that it's clear the future looks bright

Ab Dbmaj7 Ab Dbmaj7
On that train all graphite and glitter, undersea by rail
Ab Dbmaj7 Dbdim7 Dbm7
Nintey minutes from New York to Paris well by seventy-six we'll be A.O.K.

Refrão(2x)Fm Dbmaj7 Dbmaj7 Eb11


What a beautiful world this will be What a glorious time to be free

Dm Bb Am Gm
Get your ticket to that wheel in space while there's time The fix is in
Dm Bb Am Gm
You'll be a witness to that game of chance in the sky you know we've got to win

Ab Dbmaj7 Ab Dbmaj7
Here at home we'll play in the city, powered by the sun
Ab Dbmaj7 Dbdim7
Perfect weather for a streamlined world there'll be spandex jackets one for
Dm7
everyone

Refrão
Ab Dbmaj7 Ab Dbmaj7
On that train all graphite and glitter, Undersea by rail
Ab Dbmaj7 Dbdim7 Dm7
Nintey minutes from New York to Paris (More leisure for artists everywhere)
Ab Dbmaj7 Ab Dbmaj7
A just machine to make big decisions programmed by fellows with compassion and vision
Ab Dbmaj7 Dbdim7 Dm7
We'll be clean when their work is done we'll be eternally free yes and eternally young
Echo & The Bunnymen - The Game

Intro: F C F C G C G (Tom: C)
Verse 1
C G
A sense of duty was my one intention and an ugly beauty was my own invention
C G
Pride a proud refusal and i refuse to need your approval
C G
Too many seekers too few beacons but through the fog we'll keep on beaming
Verse 2
F C
Through the crying hours of your glitter years, all the living out of your tinsel tears
F C G C G
And the midnight trains i never made 'cos i'd already played...the game
Verse 3
C G
Everybody's got their own good reason why their favorite season is their favorite season
C G
Winter winners and those summers sons aren't good for everyone, aren't good for everyone
C G
Spring has sprung and autumns well done so well done
Verse 4
F C
And it's a better thing that we do now, forgetting everything the whys and hows
F C G C
While you reminisce about the things you miss you won't be ready to kiss...goodbye
C D G 2x
Verse 5
C D G
The earth is a world, the world is a ball, a ball in a game with no rules at all
C D G
And just as i wonder at the beauty of it all you go and drop it and it breaks and falls
Verse 6
F C
I'll never understand why you thought i would need to be reassured and be understood
F C G C
When i always knew that your bad's my good and I was ready, ready...to be loved
G C G
Verse 7
C G C G
Born under mars with jupiter rising fallen from stars that lit my horizon
Verse 6
Verse 2
Verse 4
Echo & The Bunnymen - The Killing Moon

Em
Under blue moon I saw you
C
So soon you'll take me
Em
Up in your arms to late to beg you
C
Or cancel it though I know it must be
Em
The killing time
C
Unwillingly mine

CHORUS:
G Cm G
Fate, up against your will
Cm G
Through the thick and thin
Cm G
He will wait until
Cm G Cm
You give yourself to him

Em /// Em /// C /// C ///

Em
In starlit nights I saw you
C
So cruelly you kissed me
Em
Your lips a magic world
C
The sky all hung with jewels
Em
The killing moon
C
Will come too soon
REPEAT CHORUS & SOLO:
Elton John - Can You Feel The Love Tonight

Intro G D/F# C/E G/D C G/B D/F# G A4 G/B

C G/B C G/B
There's a calm surrender to the rush of day
C G/B Am7 D
When the heat of the rolling world can be turned away
C G/B C G/B
An enchanted moment and it sees me through
C Em F D
It's enough for this restless warrior just to be with you

Refrão
G D/F# Em C G C A/C# D
And can you feel the love tonight ? It is where we are
C G/B Em G/D C Am G/B C A/C# D
It's enough for this wide-eyed wanderer that we got this far
G D/F# Em C G C A/C# D
And can you feel the love tonight ? How it's laid to rest ?
C G/B Em G/D C Am G/B C D G4 G
It's enough to make kings and vagabonds, believe the ve - ry best

Intro

C G/B C G/B
There's a time for everyone if they only learn
C G/B Am7 D
That the twisting kaleidoscope moves us all in turn
C G/B C G/B
There's a rhyme and reason to the wild outdoors
C Em F D
When the heart of this star-crossed voyager beats in time with yours

Refrão

C G/B Em G/D C Am G/B C D G4 G


It's enough to make kings and vagabonds, believe the ve - ry best
Elton John - Daniel

C Dm
Daniel is traveling tonight on a plane.
G E7 Am
I can see the red tail lights heading for Spain oh and,
F G Am
I can see Daniel waving goodbye.
F G7 C
God it looks like Daniel, must be the clouds in my eyes.

C Dm
They say Spain's pretty, though I've never been.
G E7 Am
Daniel says it's the best place he's ever seen.Oh and,
F G Am
he should know, he's been there enough.
F G7 C
God I miss Daniel, oh I miss him so much.

C F C
Oh, Daniel my brother, you are, older than me.
F C
Do you still feel the pain, of the scars that won't heal?
Am F
Your eyes have died, but you see more than I.
G# C A7 Dm7 G7
Daniel, you're a star, in the face of the sky.

C Dm
Daniel is traveling tonight on a plane.
G E7 Am
I can see the red tail lights heading for Spain
F G Am
oh and, I can see Daniel waving goodbye.
F G7 C
God it looks like Daniel, must be the clouds in my eyes.
God it looks like Daniel, must be the clouds in my eyes.
Elton John - Goodbye yellow brick road

Tom: F (Intro) F C/E Dm Dm/C Bb C4/7 C7 F


Gm Gm/Bb C F F/A Bb
When are you gonna come down, when are you going to land,
Eb C F
I should have stayed on the farm, should have listened to my old man.
Gm Gm/Bb C F F/A Bb
You know you can't hold me forever, I didn't sign up with you,
Eb C
I'm not a present for your friends to open,

F Bbm Eb Ab C# Bbm C
this boy's too young to be singing the blu..es, a.....h, a.....h.
F A7 Bb F
So goodbye yellow brick road where the dogs of society howl,
D7 Gm C F C/E
you can't plant me in your penthouse, I'm going back to my plough.
Dm A7 Bb C#
Back to the howling old owl in the woods, hunting the horny black toad.
Eb F C/E Dm Dm/C
Oh I've finally decided my future lies
Bb C Bbm Eb Ab C# Bbm C F
beyond the yellow brick ro...ad, a.....h, a.....h.

Gm Gm/Bb C F F/A Bb
What do you think you'l do then? I bet that`ll shoot down your plane,
Eb C F
it'll take you a couple of vodka and tonics to set you on your feet again.
Gm Gm/Bb C F F/A Bb
Maybe you'll get a replacement, there's plenty like me to be found,
Eb C
mongrels who ain't got a penny,
F Bbm Eb Ab C# Bbm C
sniffing for tidbits like you on the ground, a.....h, a.....h.

(refrain)
Elton John – I guess that’s why the called the blues

Intro: C Em F C Em F (Tom: C)
Verso 1:
G Em F C Csus4 C(3x)
Don't wish it away Don't look at it like it's forever
G Em F C Csus4 C(3x)
Between you and me I could honestly say that things can only get better
C G B7 Em Dm7 C
And while I'm away dust out the demons inside and it won't be long
G Am F G Gsus4 G(2x)Am Am/B C
Before you and me run to the place in our hearts where we hide

Refrão
C G F F C G F
And I guess that's why they call it the blues time on my hands could be time spent with you
C G Am F D7/F#
Laughing like children Living like lovers, rolling like thunder, under the covers
F G C CGF
And I guess that's why they call it the blues

Verso 2:
G Em F C Csus4 C(3x)
Just stare into space picture my face in your hands
G Em F C Csus4 C(3x)
Live for each second without hesitation, and never forget I'm your man

C G B7 Em
Wait on me girl, cry in the night if it helps
Dm7 C G Am F G Gsus4 G (2x) Am Am/B C
But more than ever I simply love you more than I love life itself

Refrão 1 Solo de Gaita (BASE) C F G Em F C Csus4 C(3x) G Bm7 G F C Csus4 C(3x)


Repetir desde “wait on me girl” até Refrão
C G Am Em F G C
Laughing like childrenl, living like lovers, And I guess that's why they call it the blues…
Elton John - Nikita

Tom: C

G Bm C F C G C
Hey Nikita is it cold in your little corner of the world
G D G D G C
You could roll around the globe and never find a warmer soul to know
G7 C Dm F C G Am
Oh I saw you by the wall ten of your tin soldiers in a row
G D G D7 G C
With eyes that looked like ice on fire the human heart a captive in the snow

Refrão:
G7 C Dm C G
Oh Nikita you will never know anything about my home
G7 D G D7 G C
I'll never know how good it feels to hold you Nikita I need you so
G7 C Dm C G C
Oh Nikita is the other side of any given line in time

G D Em D7 G Bm Bm7 C C#dim Dsus D


Couting ten tin soldiers in a row? Oh no Nikita you'll never know

G Bm C F C G C
Do you ever dream of me Do you ever see the letters that I write
G D G D G C
When you look up through the wire Nikita do you count the stars at night?
G7 C Dm F C G
And if there comes a time guns and gates no longer hold you in
G D G D7 G C
And if you're free to make a choice, just look towards the west and find a friend

(Volta pro Refrão) (Back to the Chorus)


G7 C Dm C G
Oh Nikita you will never know anything about my home
G7 D
I'll never know how good it feels to hold you
Em D7 G Bm Bm7 C C#dim Dsus D
Oh no! Nikita you'll never know

(Refrão)

Bm Bm7 C Am D7 G
Nikita counting ten tin soldiers in a row
Bm Bm7 C Am D7 G
Uuuuuhu...Nikita counting ten tin soldiers in a row
Elton John - Rocket Man
Tom: A# (com acordes na forma de G) Capotraste na 3ª casa

Em Asus2 Em Asus2 G/B


She packed my bags last night, pre-flight, Zero hour, nine a.m.
C G/B Am Am/G D
And I'm gonna be hi-i-igh as a kite by then
Em Asus2 Em Asus2 G/B
I miss the earth so much, I miss my wife, it's lonely out in space
C G/B Am Am/G D
On such a ti- i-imeless flight

Refrão 2x:
G C
And I think it's gonna be a long, long time
G
Till touchdown brings me round again to find
C
I'm not the man they think I am at home
G/B A7
Oh no, no, no, I'm a Rocket Man
C G C
Rocket Man, burning out a fuse up here alone

Verso 2:

Em Asus2 Em Asus2 G/B


Mars ain't the kind of place to raise your kids, in fact its cold as hell
C G/B Am Am/G D
And there's no-one there to raise them, if you did
Em Asus2 Em Asus2
And all this science, I don't understand, its just my job 5 days a week
G/B C G/B Am Am/G D
A Rocket ma- a- a- an, Rocket man

(Refrão 2x)

G C G
And I think it's gonna be a long, long time, till touchdown brings me round again to find
C G/B A7
I'm not the man they think I am at home, Oh no, no, no, I'm a Rocket Man
C G C
Rocket Man, burning out a fuse up here alone

Final:
G C
And I think it's gonna be a long, long time (4X)
Elton John – Skyline Pigeon

Tom: G
C G/B F G C
Turn me loose from your hands Let me fly to distant lands
D F C/G G C
Over green fields, trees and mountains, flowers and forest fountains
F G C
Home along the lanes of the skyway
C G/B F G C
For this dark and lonely room, projects a shadow castin in gloom
D F
And my eyes are mirrors of the world outside
C/G G C
Thinking of the way that the wind can turn the tide
F G C
And these shadows turn from purple into grey

Pré-refrão:
F G C
For just a skyline pigeon dreaming of the open, waiting for the day
F G C
He can spread his wings and fly away again

Refrão:
E7 Am B7 Em F G C
Fly away skyline pigeon fly towards the dreams you've left só very far behind

(Refrão)

C G/B
Let me wake up in the morning to the smell of new mown hay
F G C
To laugh and cry, to live and die in the brightness of my day
D F
I want to hear the peeling bells of distant churches sing
C/G G C
But most of all please free me from this aching metal ring
F G C
And open out this cage towards the sun

(Pré-Refrão) (Refrão 2x)


Final: C G/B Am G F G G/B C
Elton John - Your Song
Tom: E Intro: E A/E B/E A/E
E A7M B/D# G#m7
It's a little bit funny this feeling inside
C#m7 C#m/B A#m7(b5) A7M
I'm not one of those who can easily hide
E/B B G#/C C#m E F#m A B
I don't have much money but boy if I did, I'd buy a big house where we both could live

E A7M B/D# G#m7


If I was a sculptor but then again no
C#m7 C#m/B A#m7(b5) A7M
Or a man who makes potions in a travelling show
E/B B G#/C C#m E F#m A E E/G#
I know it's not much but it's the best I can do, my gift is my song, yeah, and this one's for you

Refrão:
B/D# C#m F#m A B/D# C#m F#m A
And you can tell everybody this is your song, It may be quite simple but now that it's done
C#m C#m/B A#m7(b5) F#m/A
I hope you don't mind, I hope you don't mind that I put down in words
E/G# A B
How wonderful life is while you're in the world

Instrumental: E A/E B/E A/E

E A7M B/D# G#m7


I sat on the roof and kicked off the moss
C#m7 C#m/B A#m7(b5) A7M
But a few of the verses, well, they've got me quite cross
E/B B G#/C C#m
But the sun's been quite kind while I wrote this song
E F#m A B B4 B
It's for people like you that keep it turned on

E A7M B/D# G#m7


So excuse me forgetting but these things I do
C#m7 C#m/B A#m7(b5) A7M
You see I've forgotten if they're green or they're blue
E/B B G#/C C#m
Anyway the thing is what I really mean
E F#m A E A/E E E/G#
Yours are the sweetest eyes I've ever seen

Refrão

Outro: E A/E B/E A/E


Elvis Presley – Kis me quick

Tom: G
[Intro] A
A E
Huumm, Kiss me quick, while we still have this feeling
A
Hold me close and never let me go
A A7 D Dm
'Cause tomorrows can be so uncertain, love can fly and leave just hurting
A E A
Kiss me quick because I love you so

A E
Huumm, Kiss me quick and make my heart go crazy
E A
Sigh that sigh and whisper oh so low
A A7
Tell me that tonight will last forever
D Dm
Say that you will leave me never
A E A
Kiss me quick because I love you so

E A E A E
Let the band keep playing while we are swaying, Let's keep on praying that we'll never stop

A E
Huumm, Kiss me quick just can't stand this waiting
E A
'Cause your lips are lips I long to know
A A7
Oh that kiss will open heaven's door
D Dm
And we'll stay there forevermore so
A E A
Kiss me quick because I love you so

E A E A E
Let the band keep playing while we are swaying, Let's keep on praying that we'll never stop

A E
Huumm, Kiss me quick just can't stand this waiting
E A
'Cause your lips are lips I long to know
A A7
Oh that kiss will open heaven's door
D Dm
And we'll stay there forevermore so
A E A
Kiss me quick because I love you só (repetir)
Erasure - Blue Savannah
Tom: G
Intro: D G D C D G (x 2) G A D (x 2)

G A D G A D G A
Blue Savannah Song, Oh Blue Savannah Song, Somewhere 'Cross The Desert
D G A D
Sometime In The Early Hour, In A Restless World, On The Open Highways
G A Bm Bb
My Home Is Where The Heart Is, Sweet To Surrender To You Only
A
I Send My Love To You

G A D (x 2)

G A D G A D G A
Blue Savannah Song, Oh Blue Savannah Song, Racing 'Cross The Desert
D G A D
At A Hundred Miles An Hour, To The Orange Side, Through The Clouds And Thunder
G A Bm Bb
My Home Is Where The Heart Is, Sweet To Surrender To You Only
A
I Send My Love To You

D C G D
I'm On My Way Back and Your Love Will Bring Me Home
G C G D
I'm Travelling Fast And Your Love Will Bring Me Home
C D G
Will I Discover That Your Love Will Bring Me Home? (2X)

G A D (x 2)

G A D
Somewhere 'Cross The Desert, Sometime In The Early Hour
G A D
To The Orange Side, Through The Clouds And Thunder
(2X)
G A Bm Bb
My Home Is Where The Heart Is, Sweet To Surrender To You Only
A
I Send My Love To You
G A Bm Bb A
Oh (Savannah Song) Sweet To Surrender To You Only I Send My Love To You
G A Bm Bb A
Oh (Savannah Song) Sweet To Surrender To You Only To You Only
Erasure - Love To Hate You

Tom: A (com acordes na forma de G)Capotraste na 2ª casa


A E A E A B
Woah, woah, woah, woah, woah, woah
Verse 1
E Am D7 G
I'm crazy, flowing over with ideas, A thousand ways to woo a lover so sincere
C Am7 B E
Love and hate - what a beautiful combination, Sending shivers up and down my spine
D E Am D7 G
For every Casanova that appears, My sense of hesitation disappears
C Am7 B E
Love and hate - what a beautiful combination, Sending shivers up and down my spine
Verse 2
Am7 D G C
And the lovers that you sent for me Didn't come with any satisfaction guarantee
Am7 D
So I return them to the sender And a note attached will read
B E
"How I love to hate you, I love to hate you, I love to hate you, I love to hate you"

Am7 D7 G C Am7 B E

D E Am D7 G
Oh, you really still expect me to believe Every single letter I receive
C Am7 B E
Sorry you, what a shameful situation Sending shivers up and down my spine

D E Am D7 G
Ooh, I like to read a murder mystery I like to know the killer isn't me
C Am7
Love and hate - what a beautiful combination
B E
Sending shivers, make me quiver, feel them sliver up and down my spine

Verse 2 (2x)

Am7 D7 G C Am7 B E
Erasure - Oh L'amour

Tom: D
Chorus
D A G A
Oh l'amour broke my heart now I'm aching for you
D A G A A D A D A D A D
Mon amour, what's a boy in love supposed to do?

A D
Looking for you, you were looking for me
A D
Always reaching for you, you were too blind to see
G A
Oh love of my heart, why leave me alone
Em A
I'm falling apart no good o my own

Chorus

Bm A D
Why throw it away why walk out on me
A D
I just live for the day for the way it should be
G A
There once was a time, had you here by my side
Em A
You said I wasn't your kind only here for the ride

Chorus

Bm A G D A G Bm

A D
No emotional ties you don't remember my name
A D
I lay down and die, I'm only to blame
G A
Oh love of my heart, it's up to you now

Em A Chorus (2X)
You tore me apart I hurt inside-out
Everly Bros - All I have to do is dream
Intro: E (electric guitar w/tremolo)

E C#m A B
Drea-ea-ea-ea-eam, dream, dream, dream (2X)

E C#m A B E C#m A B
When I want you in my arms, when I want you and all your charms
E C#m A B E C#m A B
Whenever I want you, all I have to do is dream, dream, dream, dream, dream

E C#m A B E E C#m A B
When I feel blue in the night, and I need you to hold me tight
E C#m A B E A E E7
Whenever I want you, all I have to do is drea-ea-ea-ea-eam

A G#m F#m B E E7
I can make you mine, taste your lips of wine anytime night or day
A G#m F#m B
Only trouble is, gee whiz I'm dreamin' my life away

E C#m A B E C#m A B
I need you so that I could die, I love you so and that is why
E C#m A B
Whenever I want you, all I have to do is

E C#m A BE A E E7
Drea-ea-ea-ea-eam, dream, dream, dream, Drea-ea-ea-ea-eam

A G#m
I can make you mine, taste yuor lips of wine
F#m B E E7 A G#m F#m B
Anytime night or day, only trouble is, gee whiz I'm dreamin' my life away

E C#m A B E C#m A B
I need you so that I could die, I love you so and that is why
E C#m A B
Whenever I want you, all I have to do is

E C#m A B
Drea-ea-ea-ea-eam, dream, dream, dream (3X)
Extreme - Hole Hearted

Life's ambitions occupy my time


Happiness one step be - hind

Priorities come to the mind


This inner piece I've yet to find

The words are something like this:

Life's ambitions occupy my time


Priorities come to the mind
Happiness one step behind
This inner peace I've yet to find

Rivers flow into the sea


But even the sea's not so full of me
If I'm not blind why can't I see
That circle can't fit where a square should be
There's a hole in my heart that can only be filled by you
And this hole in my heart can't be filled with the things I do
Hole hearted Hole hearted

This heart of stone is where I hide


These feet of clay kept warm inside
Day by day less satisfied
Not fade away before I die

Rivers flow....

There's a hole in my heart that can only be filled by you


Should have known from the start I'd fall short with the things I do
Hole hearted
Flock of Seaguls - I ran
Intro (2 bars of each) Am G Am G F G A (bass & drums) Am G Am G F G A (guitar)
Verse
Am G
I walked along the avenue I never thought Id meet a girl like you Meet a girl like you
Am
With auburn hair and tawny eyes
G
The kind of eyes that hypnotize me through Hypnotize me through

Chorus
F G F G
And I ran, I ran so far away I just ran, I ran all night and day
N.C. A G A G (2 bars of each)
I couldn’t get away

A
A cloud appears above your head
G
A beam of light comes shining down on you Shining down on you
A G
The cloud is moving nearer still, Aurora borealis comes in view Aurora comes in view

Chorus Bridge [C and drums…..4 bars] A G A G F G F G (2 bars of each with solo)

A
Reached out a hand to touch your face
G
You’re slowly disappearing from my view; ‘pearing from my view
A
Reached out a hand to try again
G
I’m floating in a beam of light with you A beam of light with you

Chorus

Bridge
A G A G F G F G (2 bars of each with solo)
George Harrison - Love Comes to Everyone

(intro) C#m7 F#m Bm E C#m7 F#m Bm E A (Tom: A)

C#m7 F#m Bm E C#m7


Go do it, Got to go through that door, There's no easy way out at all
F#m Bm E A
Still it only takes time 'til love comes to everyone.
C#m7 F#m Bm E C#m7
For you who it always seems blue it all comes, it never rains But it pours,
F#m Bm E A
Still it only takes time 'Til love comes to everyone.

A7+ D7+ A E D C#m


There in your heart something that's never changing
A7+ D7+ A E D C#m F#m Bm
Always a part of something that's never aging that's in your heart

C#m7 F#m Bm E C#m7


It's so true it can happen to you all, there, knock and it will open wide,
F#m Bm E A
And it only takes time 'Til love comes to everyone

(intro 2X) C#m7 F#m Bm E C#m7 F#m Bm E A

A7+ D7+ A E D C#m


There in your heart something that's never changing
A7+ D7+ A E D C#m F#m Bm
Always a part of something that's never aging that's in your heart

C#m7 F#m Bm
It's so true it can happen to you all, there,
E C#m7 F#m Bm E A
Knock and it will open wide, and it only takes time 'til love comes to everyone

(intro) C#m7 F#m Bm E C#m7 F#m Bm E A


Uh uh uh uh Love comes to everyone
Guns'n'Roses - Sweet Child O' Mine

A
She's got a smile that it seems to me
G
Reminds me of childhood memories
D A
Where everything was as fresh as the bright blue sky
A
Now and then When I see her face
G
She takes me away to that special place
D A
And if I stare too long I'd probably break down and cry

Refrão:
E5 F#5 G5 A5 E5 F#5 G5 A5
Oh Oh Oh, Sweet child o' mine Oh Oh Oh Oh, Sweet love of mine

Riff 1: A G D A

Segunda Parte:
A G
She's got eyes of the bluest skies as if they thought of rain
D A
I hate to look into those eyes and see an ounce of pain
A
Her hair reminds me of a warm safe place
G
Where as a child I'd hide
D A
And pray for the thunder and the rain to quietly pass me by

Refrão
Herman Hermits - There's A Kind Of Hush

INTRO - A E A E

A C# F#m A7
(*) There's a kind of hush All over the world tonight
D E A
All over the world you can hear the sound of lovers in love
E
You know what I mean
A C# F#m A7
Just the two of us and nobody else in sight
D E A A7
There's nobody else and I'm feeling good Just holding you tight
D Bm7
(**) So listen very carefully
D7+ D6 A
Get closer now and you will see what I mean It isn't a dream

D Bm7
The only sound that you will hear
D7+ D6 E
Is when I whisper in your ear I love you For ever and ever
A C#
There's a kind of hush
F#m A7
All over the world tonight
D E A E
All over the world people just like us are fallin' love

SOLO - A C# F#m A7 D E A A7

Repeat ( ** ) Repeat ( * )
Hollies, The - The Air That I Breathe

G B7
1. If I could make a wish, I think I'd pass,
C Cm G
can't think of anything I need.
\ B7
No cigarettes, no sleep, no light, no sound,
C Cm G
nothing to eat, no books to read.

Bm Cm G
Making love with you has left me peaceful, warm, and tired.
Bm Cm G
What more could I ask, there's nothing left to be desired.

G B7
2. Peace came upon me and it leaves me weak,
C Cm G
so sleep, silent angel, go to sleep.

G
Sometimes - -
D G
all I need is the air that I breathe and to love you.
D G
All I need is the air that I breathe, yes, to love you.
D - Dm - C - G - D
All I need is the air that I breathe.

G B7
3. Peace came upon me and it leaves me weak,
C Cm G
So sleep, silent angel, go to sleep.
Israel Kamakawiwo'ole - Somewhere Over The Rainbow/What a Wonderful World

Tom: C - Intro: C/G G Am F/A C/G G Am Am7 F/A C/G Em/G F/A C/G F/A E7/G# Am F/A
ooh... ooh... ooh... ooh...
C/G Em/G F/A C/G F/A C/G G Am F/A
Somewhere over the rainbow way up high and the dreams that you dream of once in a lullaby
C/G Em/G F/A C/G F/A C/G G Am F/A
Somewhere over the rainbow blue birds fly and the dreams that you dream of, dreams really do come true
Refrão:
C/G G Am F/A
Someday I'll wish upon a star, wake up where the clouds are far behind me
C/G G Am F/A
Where trouble melts like lemon drops high above the chimney tops is where you'll find me
C/G Em/G F/A C/G F/A C/G G Am F/A
Somewhere over the rainbow bluebirds fly and the dreams that you dare to, oh why, oh why can't I?
C/G Em/G F/A C/G F/A C/G E7/G# Am
Well I see trees of green and red roses too, I'll watch then bloom for me and you
F/A G Am F/A
And I think to myself, what a wonderful world
C/G Em/G F/A C/G F/A C/G
Well I see skies of blue and I see clouds of white and the brightness of day
E7/G# Am F/A G C/G F/A C/G
I like the dark and I think to myself, what a wonderful world
G C/G G C/G
The colors of the rainbow so pretty in the sky are also on the faces of people passing by
F/A C/G F/A C/G F/A C/G Dm G
I see friends shaking hands saying, How do you do? they're really saying, I, I love you
C/G Em/G F/A C/G F/A C/G E7/G# Am
I hear babies cry and I watch them grow, they'll learn much more than we'll know
F/A G Am F/A
And I think to myself, what a wonderful world
Refrão C/G Em/G F/A C/G F/A E7/G# Am F/A
ooh... ooh... ooh... ooh eeh aa uh uh...
Jack Johnson - Sitting, Waiting, Wishing

Intro Am Am7 G G7 F F7 C C7
Am Am7 G G7
Well I was sitting, waiting, wishing You believed in superstitions
F F7 C C7
Then maybe you'd see the signs
Am Am7 G G7
But lord knows that this world is cruel And I ain't the lord, no I'm just a fool
F F7 C C7
Learning loving somebody don't make them love you

E E7 E E7 Am Am7 Am Am7
Must I always be waiting, waiting on you?
Refrão
E E7 E E7 Am Am7 Am Am7
Must I always be playing, playing your fool?

Am Am7 G G7
I sang your songs, I danced your dance , I gave your friends all a chance
F F7 C C7
Putting up with them wasn't worth never having you
Am Am7 G G7
Oh maybe you've been through this before But it's my first time, so please ignore
F F7 C C7
These next few lines cause they're directed at you

Refrão

C E F
I keep playing your part But it's not my scene
G F C
Want this plot to twist I've had enough mystery
E F G
Keep building it up But then you're shooting me down But I'm already down
Am Am7 G G7 F F7 C C7
Just wait a minute Just sitting, waiting 2X
Am Am7 G G7
Well if I was in your position I'd put down all my amuntintion
F F7 C C7
I'd wonder why it had taken me so long
Am Am7 G G7
But the Lord knows that I'm not you And if I was I wouldn't be so cruel
F F7 C C7
Cause waitin' on love ain't so easy to do
Refrão Final 2X
James - Born of Frustration
Capo 1st fret. Chords and notes refer to chord shapes for standard tuning.

Intro riff (repeated throughout the song):


D -----0-----0--|------0-------0---0--|-------0----|---------0--------|
Bb ---------7----|-----------7---------|---4-----4--|-----4-----4---4--|
F -7-----7------|-7--7---7-------7----|-5---5------|-5-5---5-----5----|

Wooooowooooowoooowooo, wooooowooooowoooowooo
E Bm D A
All this frustration I can't heed all my desires
E Bm D A
Strange conversation self control has just expired
E Bm D A
All an illusion only in my head you don't exist
E Bm D A
Who are you foolin' don't need a shrink or an exorcist

(repeat E/Bm/D/A chord progression throughout song)


Lalalala, lalalala, lalalala, la

Wooooowooooowoooowooo

Show me the movie of who you are and where you're from
Born of frustration, caught upon the webs you spun
Where's the confusion, a vision of what life is like
Show me the movie that doesn't deal in black and white

Talk talk talkin 'bout who's to blame, but all that counts in how to change
Stop stop talkin 'bout who's to blame, when all that counts in how to change
Lalalala, lalalala, lalalala, la

All this frustration, all this frustration


Who put round eyes on a butterfly's wings
All this frustration, all this frustration
Who gave the leopard spots and taught the birds to sing
Born of frustration, born of frustration

Wooooowooooowoooowooo, wooooowooooowoooowooo
I'm living in the weirdest dream where nothing is the way it seems
Where no one is who they need to be, where nothing seems that real to me
'Bout time we filled our lives, upon the walls of gold no solid ground
The world is spinnin' endlessly, we're clinging to our own beliefs
Born of frustration, Born of frustration
Wooooowooooowoooowooo, Wooooowooooowoooowooo
Janis Joplin - Me and Bobby McGee

G G G G G G D7 D7
Busted flat in Baton Rouge, waitin' for a train when Iwas feelin' near as faded as my jeans
D7 D7 D7 D7 D7 D7 G-C G
Bobby thumbed a diesel down just before it rained and rode us all the way into New Orleans
G G G G G G7 C C
I pulled my harpoon out of my dirty red bandana Iwas playin' soft while Bobby sang the blues
C C G G
Windshield wipers slappin' time, I was holdin' Bobby's hand in mine
D7 D7 D7 D7
We sang every song that driver knew
C C G G D7 D7 G G
Freedom's just another word for nothin' left to lose, nothin', it ain't nothin' honey, if it ain't free
C C G G
And feelin' good was easy, lord, oh, when she sang the blues
D7 D7 D7 D7 D7 D7 G G A A
You know feelin' good was good enough for me good enough for me and my Bobby McGee
A A A A A A E7 E7
From the Kentucky coal mines to the California sun yeah Bobby shared the secrets of my soul
E7 E7 E7 E7
Through all kinds of weather, through everything we done
E7 E7 A A
Yeah Bobby baby, She kept me from the cold
A A A A A A7 D D
One day up near Salinas, lo-ord, I let her slip away she's lookin' for that home and I hope she finds it
D D A A
Well I'd trade all my tomorrows for one single yesterday
E7 E7 E7 E7 D D A A
To be holdin' Bobby's body next to mine freedom's just another word for nothin' left to lose
E7 E7 A A
Nothin', and that's all that Bobby left me

D D A A
Well, feelin' good was easy, lo-o-ord, when he sang the blues
E7 E7 E7 E7
And feelin' good was good enough for me
E7 E7 A A
Good enough for me and my Bobby McGee yeah

(A E7)
La da da, la da daa, la da daa da daa da daa (…)
A A E7 E7
Hey now Bobby now now Bobby McGee yeah
E7 E7 E7 E7
Lo lo LO lolo LO lo laa, lololo LO lolo LO lolo LO lolo LO la laa
E7 E7 A A
Hey now Bobby now now Bobby McGee yeah
A A
Lord, I called her my lover, I called her my girl
A A
I said I called her my lover, did the best I can
A A E7 E7
C'mon, hey now Bobby now, hey now Bobby McGee, yeah
E7 E7 E7 E7
Lo lo lord, a lord, a lord, a lord, a lord, a lord, a lord oh
E7 E7 A A
Hey, hey, hey, Bobby McGee, lord (A E7)
Jason Mraz – 93 Million miles

Tom: Cm (forma dos acordes no tom de Bm) Capotraste na 1ª casa


Intro: D D5 G7M Em D5

D5 G7M
93 million miles from the sun people get ready, get ready, cause here it comes
Em
It's a light a beautiful light, over the horizon into our eyes
D5
Oh my my how beautiful, oh my beautiful mother
G7M Em A A4
She told me, son in life you're gonna go far if you do it right, you'll love where you are

A G7M Em A D5 G7M Em
Just know, wherever you go you can always come home

D5
240 thousand miles from the moon we've come a long way to belong here
G7M Em
To share this view of the night a glorious night over the horizon is another bright sky
D5
Oh my my how beautiful, oh my irrefutable father
G7M Em A A4
He told me, son sometimes it may seem dark but the absence of the light is a necessary part

A G7M Em A D5
Just know, you're never alone you can always come back home
G7M Em A Bm11 A G7M
Home, Home, you can always come ba____________ck

F#m7 G7M F#m7


Every road is a slippery slope but there is always a hand that you can hold on to
G7M G#m7(5-) A7 A#º
Looking deeper through the telescope you can see that your home's inside of you

G7M Em G7M A D5
Just know, that wherever you go no you're never alone you will always get back home
G7M Em D5 G7M Em D5
Home, Home, Home, Ooohhh... Ooohhh... Ooohhh...

D5
93 million miles from the sun people get ready, get ready
G7M Em D5
Cause here it comes it's a light a beautiful light over the horizon into our eyes
Intro:
Parte 1 Parte 2
D D5
E|-----------------------------------------|-----------------------3---2-------------|
B|-----------------------------------------|-------3-------3-------3---3---0---------|
G|-------2-------2-------------------------|-------2-------2-------2---2---0---------|
D|---4-------4-------4---4---2---0---------|---0-------0-------0-----------0---------|
A|-----0---0---0---0---0---0---0-----------|-0---0---0---0---0---0---0---0-----------|
E|-0---0---0---0---0---0---0---0-----------|-0---0---0---0---0---0---0---0-----------|

Parte 3 Parte 4
G7M Em
E|-------------------3---2-----------------|-----------2-0---------------------------|
B|-------------------0---0---0-------------|-----------0---3-2/3-3-------------------|
G|---0-------0-------0---0---0-------------|---0---0---------------0-----------------|
D|---4---4-------4-----------0-------------|---2---2-----------------0---------------|
A|---5-5---5---5---5---5---5---------------|---2-2-2-2-------------------------------|
E|-5-5-5---5---5---5---5---5---------------|-2-2-2---2-------------------------------|

Parte 5 Parte 6
D5 D5
E|-----------------------------------------|-----------------------------------------|
B|---3-------3-----------------------------|-----------------------------------------|
G|---2-------2-----------------------------|---2-------2-------2-----2-0-------------|
D|---0---0-------0---4---2---0-------------|---0---0-------0-------0-0---------------|
A|-0-0-0---0---0---0---0---0---------------|-0-0-0---0---0---0---0---0---------------|
E|-0-0-0---0---0---0---0---0---------------|-0-0-0---0---0---0---0---0---------------|

Parte 1 Parte 2
D5 D5
E|-----------------------------------------|-----------------------------------------|
B|---3-------3-------3-------3-------------|-------3-------3-------3-------3---------|
G|---2-------2-------2-------2-------------|-------2-------2-------2-------2---------|
D|---0---0-------0-------0-----------------|---0-------0-------0-------0-------------|
A|-0-0-0---0---0---0---0---0---------------|-0---0---0---0---0---0---0---0-----------|
E|-0-0-0---0---0---0---0---0---------------|-0---0---0---0---0---0---0---0-----------|

Parte 3 Parte 4
G7M Em
E|-----------------------------------------|-----------------------------------------|
B|-----------------------------------------|-----------------------------------------|
G|---0-------0-------0-------0-------------|---0-------0-------0-------0-------------|
D|---4---4-------4-------4-----------------|---2---2-------2-------2-----------------|
A|---5-5---5---5---5---5---5---------------|---2-2---2---2---2---2---2---------------|
E|-5-5-5---5---5---5---5---5---------------|-2-2-2---2---2---2---2---2---------------|

Preparação refrão: Refrão:


Parte 1
A A4 A G7M
E|-----------------------------------------|-----------------------------------------|
B|---2-------3-------2---------------------|-----------------------------------------|
G|---2-------------------------------------|---0-------0-------0-------0-------------|
D|---2---2-2-----2-2-----2-2-2-------------|---4---4-------4-------4-----------------|
A|-0-0-0---0---0---0---0---0---------------|---5-5---5---5---5---5---5---------------|
E|-----------------------------------------|-5-5-5---5---5---5---5---5---------------|

Variação Introdução:
Parte 2 Parte 1
Em A D5
E|-----------------------------------------|-------------------3---2-----------------|
B|-----------------------------------------|---3-------3-------3---3---0-------------|
G|---0-------0---2-------2-----------------|---2-------2-------2---2---0-------------|
D|---2---2-------2---2---2-----------------|---0---0-------0-----------0-------------|
A|---2-2---2---0-0-0---0-------------------|---0-0---0---0---0---0---0---------------|
E|-2-2-2---2-------------------------------|-0-0-0---0---0---0---0---0---------------|
Parte 2 Parte 3
G7M Em
E|-------------------3---2-----------------|-----------------------------------------|
B|-------------------0---0---0-------------|-----------------------------------------|
G|---0-------0-------0---0---0-------------|---0-------0-------0-------0-------------|
D|---4---4-------4-----------0-------------|---2---2-------2-------2-----------------|
A|---5-5---5---5---5---5---5---------------|---2-2---2---2---2---2---2---------------|
E|-5-5-5---5---5---5---5---5---------------|-2-2-2---2---2---2---2---2---------------|

Segundo Refrão:
Parte 1 Parte 2
G7M Em A
E|-----------------------------------------|-----------------------------------------|
B|-----------------------------------------|-----------------------------------------|
G|---0-------0-------0-------0-------------|---0-------0---2-------2-----------------|
D|---4---4-------4-------4-----------------|---2---2-------2---2---2-----------------|
A|---5-5---5---5---5---5---5---------------|---2-2---2---0-0-0---0-------------------|
E|-5-5-5---5---5---5---5---5---------------|-2-2-2---2-------------------------------|

Parte 3 (2x)
D5
E|-----------------------------------------|
B|---3-------3-------3-------3-------------|
G|---2-------2-------2-------2-------------|
D|---0---0-------0-------0-----------------|
A|-0-0-0---0---0---0---0---0---------------|
E|-0-0-0---0---0---0---0---0---------------|
Jason Mraz – I'm yours
A E
Well, you done, done me and you bet I felt it, I tried to be chill but you're so hot that I melted
F#m D
I fell right through the cracks, And now I'm trying to get back
A
Before the cool done run out I'll be giving it my bestest
E
And nothing's gonna stop me but divine intervention
F#m D
I reckon it's again my turn to win some or learn some

[Refrão]
A E F#m D
I won't hesitate no more, no more, it cannot wait, I'm yours

[Repete Intro] A E F#m D

A E F#m
Well, open up your mind and see like me, open up your plans and damn you're free
D
Look into your heart and you'll find love, love, love
A E F#m
Listen to the music of the moment people dance and sing we are just one big family
D D#5-
And it's our God-forsaken right to be loved, loved, loved, loved, loved

[Refrão]
A E F#m D
So I won't hesitate no more, no more, it cannot wait, I'm sure
A E F#m D
There's no need to complicate our time is short this is our fate, I'm yours

A E/G# F#m E D D#5-


Do do do do do do do do do do do do do do do do do (2X)

A
I've been spending way too long checking my tongue in the mirror
E
And bending over backwards just to try to see it clearer
F#m D
My breath fogged up the glass and so I drew a new face and laughed

A
I guess what I'm saying is there ain't no better reason
E
To rid yourself of vanities and just go with the seasons
F#m D
It's what we aim to do our name is our virtue

[Refrão Final (2X)]


A E F#m D
I won't hesitate no more, no more, it cannot wait, I'm sure
A E F#m D
There's no need to complicate our time is short this is our fate, I'm yours
Tom: B (forma dos acordes no tom de A) Capotraste na 2ª casa

[Intro] A E F#m D A E F#m D

Parte 1
A E F#m D
E|-5/7-5--5/7-4--5/7------------------------|
B|-5/7-5--5/7-5--5/7-7----------------------|
G|-------------------6--6/7-----------------|
D|--------------------------7---------------|
A|------------------------------------------|
E|------------------------------------------|

Parte 2
A E F#m D
E|-5/7-5--5/7-4--5/7------------------------|
B|-5/7-5--5/7-5--5/7-7--7-7-----------------|
G|-------------------6--6-6/7---------------|
D|------------------------------------------|
A|------------------------------------------|
E|------------------------------------------|

[Variação Intro]

Parte 1
A
E|-5/7-5--5--------5--------5---------------|
B|-5/7-5--5-x-x-x--5-x-x-x--5-x-x-----------|
G|--------6--------6--------6---------------|
D|--------7--------7--------7---------------|
A|--------7--------7--------7---------------|
E|--------5--------5--------5---------------|

Parte 2
E
E|-5/7--------------------------------------|
B|-5/7-9--9-x-x-x--9-x-x-x--9-x-x-----------|
G|-----9--9--------9--------9---------------|
D|--------9--------9--------9---------------|
A|-------11-------11-------11---------------|
E|------------------------------------------|

Parte 3
F#m
E|------------------------------------------|
B|-10/12-----10-x-x-x-10-x-x-x-10-x-x-------|
G|--9/11-11--11-------11-------11-----------|
D|-------11--11-------11-------11-----------|
A|------------9--------9--------9-----------|
E|------------------------------------------|

Parte 4
D
E|------------------------------------------|
B|--------------x-x-x----x-x-x----x-x-------|
G|-----------11-------11-------11-----------|
D|-11/12-----12-------12-------12-----------|
A|-------12--12-------12-------12-----------|
E|-----------10-------10-------10-----------|

Parte 4 (com variação)


D
E|------------------------------------------|
B|--------------x-x-x----x-x-x----x-x-------|
G|-----------11-------11-------11-----------|
D|-11-11/12--12-------12-------12-----------|
A|-----------12-------12-------12-----------|
E|-----------10-------10-------10-----------|
Jimi Hendrix - Bold As Love

Tom: C#

G# D# Fm C#
Anger! He smiles towering shiny metallic purple armor.
G# D# Fm C# C
Queen Jealousy envy waits behind him, her firey green gown snares at the grassy ground.
C# G# Bbm F#
Blue are the life-giving waters taken for granted, they quietly understand.
C# G# Bbm F# G
Once happy turquoise armies lay down opposite ready, but wonder why the fight is on.

G# D# Fm F# G# D Fm F#
But they're all bold as love They're all bold as love
G# D Fm F# G# D# Fm F# G
They're all bold as love, just ask the Axis...

G# D# Fm C#
My red is so confident that he flashes portraits of war, and ribbons of euphoria.
G# D# Fm C# C
Orange is young, full of daring, but very unsteady for the first go round.
C# G# Bbm F#
My yellow in this case is not so mellow, in fact I'm trying to say, it's frightened like me.
C# G# Bbm F# G
And all these emotions of mine keep holding from give my life to a rainbow like you,

G# D# Fm F#
But they're all bold as love
G# D Fm F#
They're all bold as love
G# D Fm F# (4x) G# D# Fm F# G# (D)
They're all bold as love, just ask the Axis... He knows everything...(começa o solo)
Jimi Hendrix - Little Wing
Em G
Well, she's walkin' through the clouds
Am Em
with a circus mind that's running wild
Bm Bbm Am
Butterflies and zebras and moonbeams
C G
and uh fairy tales
F(add9)
That's all she ever thinks about
C D
Riding with the wind
Em G
When I'm sad she comes to me
Am Em7
with a thousand smiles she gives to me free
Bm Bbm
It's alright she says It's alright
Am C G F(add9)
Take anything you want from me
C
anything
D
anything
Jimi Hendrix - The Wind Cries Mary

After all the jacks are in their boxes


And the clowns have all gone to bed
You can hear happiness staggering on down the street
Footsteps dressed in red
And the wind whispers mary
A broom is drearily sweeping
Up the broken pieces of yesterdays life
Somewhere a queen is weeping
Somewhere a king has no wife
And the wind, it cries mary
The traffic lights, they turn, uh, blue tomorrow
And shine their emptiness down on my bed
The tiny island sags down stream
cause the life that lived is,
Is dead
And the wind screams mary
Uh-will the wind ever remember
The names it has blow in the past?
And with this crutch, its old age, and its wisdom
It whispers no, this will be the last
And the wind cries mary
Korgis, The - Everybody's Got To Learn Sometime

C#m C#m/Bb F#m/A


Change your heart
C#m C#m/Bb F#m/A
Look around you
C#m C#m/Bb F#m/A
Change your heart
C#m C#m/Bb F#m/A
It will astound you

(refrein)
C#m C+ D#dim7
I need your loving
F#m6 B7
Like the sunshine
G#m
Everybody's got to learn
Amaj7 A C#m D#dim7
Sometime
E
en her halen...
Led Zeppelin - Rock and Roll

It’s been a long time since I rock and rolled,


It’s been a long time since I did the stroll.
Ooh, let me get it back, let me get it back,
Let me get it back, baby, where I come from.
It’s been a long time, been a long time,
Been a long lonely, lonely, lonely, lonely, lonely time.
Yes it has.
It’s been a long time since the book of love,
I can’t count the tears of a life with no love.
Carry me back, carry me back,
Carry me back, baby, where I come from.
It’s been a long time, been a long time,
Been a long lonely, lonely, lonely, lonely, lonely time.
Seems so long since we walked in the moonlight,
Making vows that just can’t work right.
Open your arms, opens your arms,
Open your arms, baby, let my love come running in.
It’s been a long time, been a long time,
Been a long lonely, lonely, lonely, lonely, lonely time.
Lenny Kravitz - Can't Get You Off my Mind

G
Life is just a lonely highway I'm out here on the open road
Am
I'm old enough to see behind me But young enough to feel my soul
G
I don't wanna lose you baby And I don't wanna be alone
Am
Don't wanna live my days without you But for now I've got to be without you

CHORUS:
C D
I've got a pocket full of money
C D
And a pocket full of keys that have no bounds
C G
But when it comes to lovin'
D C G
I just can't get you off my mind, yeah

G Am
Babe can't you see........that this is killing me
G
I don't wanna push you baby And I don't want you to be told
Am
It's just that I can't breathe without you Feel like I'm gonna lose control

CHORUS

INTERLUDE:
C#maj7 F#maj7 C#maj7
Am I a fool to think that there's a little hope? Yeah......
G
Tell me baby
C#maj7 F#maj7 C#maj7 G
What are the rules, the reasons, and the do's and don'ts? Yeah......
Bm F C
Tell me baby, tell me baby What do you feeel inside?

Solo- G, Am (2x) CHORUS C#maj7 6 9 7 9 6 6 F#maj7 9 11 10 11 9 9


Leonard Cohen - Dance Me To The End of Love

Intro: Cm Gm D7 Gm x2

Cm Gm
Dance me to your beauty with a burning violin
Cm Gm
Dance me through the panic till I'm gathered safely in
Cm Gm
Lift me like an olive branch and be my homeward dove

Refrão D7 Gm
Dance me to the end of love (2X)

Cm Gm
Let me see your beauty when the witnesses are gone
Cm Gm
Let me feel you moving like they do in Babylon
Cm Gm
Show me slowly what I only know the limits of Refrão Interlude: F Gm x2

Cm Gm
Dance me to the wedding now, dance me on and on
Cm Gm
Dance me very tenderly and, dance me very long
Cm Gm
We're both of us beneath our love we're both of us above Refrão (2X)

Cm Gm
Dance me to the children, who are asking to be born
Cm Gm
Dance me through the curtains that our kisses have outworn
Cm Gm
Raise a tent of shelter now though every thread is torn Refrão (2X)

Cm Gm
Dance me to your beauty with a burning violin
Cm Gm
Dance me through the panic till I'm gathered safely in
Cm Gm
Touch me with your naked hand or touch me with your glove Refrão (2X)
Madeleine Peyroux – J'ai deux amors

C
On dit qu'au delà des mers Là-bas sous le ciel clair
D7 G7 D7 G7 C F/A C
Il existe une cité Au séjour enchanté
Em Am
Et sous les grands arbres noirs
Em A7
Chaque soir
D7 G7
Vers elle s'en va tout mon espoir

N.C. C Csus4 C
J'ai deux amours
F C Csus4 C
Mon pays et Paris
Am7 D7
Par eux toujours
G CFC
Mon cœur est ravi

C F
Manhattan est belle
C
Mais à quoi bon le nier
D7
Ce qui m'ensorcelle
G
C'est Paris, c'est Paris tout entier

Le voir un jour
C'est mon rêve joli
J'ai deux amours
Mon pays et Paris

Manhattan est belle


Mais à quoi bon le nier
Ce qui m'ensorcelle
C'est Paris, c'est Paris tout entier

Le voir un jour
C'est mon rêve joli
J'ai deux amours
Mon pays et Paris
Madonna – Beautiful Stranger
Intro: C - G - D - F - A A7 - A - A7 – A (Tom: C)

A7 A A7 A
1. Haven't we met, you're some kind of beautiful stranger.
A7 -A A7 A
You could be good for me, I have a taste for danger.
A7 A A7 A
If I'm smart then I'll run away, but I'm not, so I guess I'll stay.
A7 A A7 A
Heaven forbid, I take my chance on a beautiful stranger.
G F A
I looked into your eyes and my world came tumbling down.
G F A
You're the devil in disguise that's why I'm singing this song.
D C G A7 A A7 A
To know you is to love you, you're everywhere I go, and everybody knows.
A7 A A7 A
I head for you with tears, and swallow all my pride.
C G D F A
Da da, da da, da da, da da dam, beautiful stranger.
C G D F A A7 - A
Da da, da da, da da, da da dam, beautiful stranger.
A7 A A7 A
2. If I'm smart then I'll run away, but I'm not so I guess I'll stay,
A7 A A7 A
haven't you heard, I fell in love with a beautiful stranger.
G F A
I looked into your face, my heart was dancing all over the place.
G F A
I'd like to change your point of view if I could just forget about you.
D C G A7 A A7 A
To know you is to love you, you're everywhere I go, and everybody knows.
G F A
I looked into your eyes and my world came tumbling down.
G F A
You're the devil in disguise that's why I'm singing this song to you.
D C G A7 A A7 A
To know you is to love you, you're everywhere I go, and everybody knows.
A7 A A7 A
I head for you with tears, and swallow all my pride.
C G D F A
Da da, da da, da da, da da dam, beautiful stranger. (2X)
Maná - Vivir sin aire

G Bm C D7 G Bm C D7 Em C G D/F#
Como quisiera poder vivir sin aire Como quisiera lanzarte al olvido
G Bm C D7 G Bm C D7 Em C D
Como quisiera poder vivir sin agua Como quisiera guardarte en un cajón
G Bm C D7 G Bm C D7 Em C G D/F#
Me encantaria quererte un poco menos Como quisiera borrarte de un soplido
G Bm C D7 G Bm C D7 Em C D
Como quisiera poder vivir sin ti Me encantaria matar esta canción

Bridge & Chorus


C D Em C
Pero no puedo, siento que muero
G D
Me estoy ahogando sin tu amor

Em C G D/F#
Como quisiera poder vivir sin aire
Em C D
Como quisiera calmar mi aflicción
Em C G D/F#
Como quisiera poder vivir sin agua
Em C G D
Me encantaria robar tu corazón

G Bm C D7 G Bm C D7
Como pudiera un pez nadar sin agua
G Bm C D7 G Bm C D7
Como pudiera un ave volar sin alas
G Bm C D7 G Bm C D7
Como pudiera la flor crecer sin tierra
G Bm C D7 G Bm C D7
Como quisiera poder vivir sin ti

Bridge & Chorus


Marty Balin - Hearts

Fmaj7 Dm
Is everything alright
E Am Dm E Am
I just called to say how lost I feel without you
Miles away, I-really-can't-believe I'm here
and how.. I still care.. about you

Chorus
Fmaj7 Dm E Am Dm Em Am
Hearts can break and never mend together love can fade away
Hearts can cry, when love won't stay forever Hearts can be that way

Fmaj7 Dm
Is everything the same?
E Am Dm E Am
do you ever think of me and how.. we loved.. one another
Will you change your mind?
Will-you-want-me back again
or have you found yourself a new lover

(Chorus)

Is everything o.k.?
I just thought I'd write a song
to tell the world how I miss you, 'Cause
each and everyday
I think of all the words I never said
and all the chances that I had to

(Chorus)
Marvin Gaye - Sexual Healing
Riff 1
A
(Get up, get up, get up, get up - Wake up, wake up, wake up, wake up)
A Bm G D
Oh babe now lets get down tonight
A Bm G D A Bm G D
Ba........by.... I'm hot just like an oven, I need some loving ...
A Bm G D A Bm G D
Ba........by.... I can't hold much longer, It's getting stronger and stronger
A Bm G D
When I get that feeling, I want sexual healing
A Bm G D A Bm G D
Sexual healing, Oh baby makes me feel so fine
A Bm G D A Bm G D
Helps to relieve my mind , Sexual healing, baby, is good for me
A Bm G A D
Sexual healing is something that is good for me

D Bm G Bm A G D
Whenever blue teardrops are falling And my emotional stability is lea_ving me
D Bm
There is something that I can do baby
G Bm A G
I can get on the telephone and call you up, ba_by
D Bm G Bm A G
Honey, I know you be there to hear me 'cause the love you give to me will free me
D Bm
If you don't know the thing you're dealing
G Bm A G
I can tell you darling that it's sexual healing
A Bm G D
Get up, get up, get up, get up; Let's make love tonight
A Bm G D
Wake up, wake up, wake up, wake up; 'Cause you do it right
A Bm G D A Bm G D
Ba........by.... I got sick this morning A sea was storming inside me
A Bm G D A Bm G D
Ba........by.... I think I'm capsizing The waves are rising and rising
A Bm G D A Bm G D
When I get that feeling, I want sexual healing Sexual healing is good for me,
A Bm G D A Bm G D
Makes me feel so fine, it's such a rush Helps to relieve my mind
A Bm G D A Bm G A D
Sexual healing, baby, is good for me sexual healing is something thats good for me
D Bm G Bm A G
And it's good for me, and it's so good to me, my baby. Ohh...
D Bm G Bm A G
Come take control, just grab a hold of my body and mind.. soul..
D Bm
You're my medicine, open up and let me in
G Bm AG ( A Bm G D )
Darling, you're so great, I can't wait for you to operate
A Bm G D
When I get that feeling, I want sexual healing
A Bm G D
When I get that feeling, I need sexual healing...
Metallica - Whiskey In The Jar

Tom: G Afinação: D G C F A D

Introdução: ( G5 F#5 ) E5 G5 ( G5 F#5 ) E5 G5


G5 E5
As I was goin' over the Cook and Kerry mountains
C5 G5
I saw the Captain Farrell and his money he was countin'
G5 E5
I first produced my pistol and then produced my rapier
C5 G5
I said stand and deliver or the devil he may take ya

G5 E5
I took all of his money and it was a pretty penny
C5 G5
I took all of his money and I brought it home to Molly
G5 E5
She swore that she'd love me, no never would she leave me
C5 G5
But devil take that woman, yeah! For you know she tricked me easy

Refrão:
D5 ( D5 C#5 C5 )
Musha rain dum-a-do dum-a-da, whack for my daddy-o
G5
Whack for my daddy-o, there's whiskey in the jar-o

G5 E5
Being drunk and weary I went to Molly's chamber
C5 G5
Taking Molly with me but I never knew the danger
E5
For about six or maybe seven, yeah I walked Captain Farrell
C5 G5
I jumped up with my pistols and I shot him with both barrells

Refrão

G5 Em
Now some men like the fishing and some men like the fowling
C G5
And some men like the hear the hear cannon ball a roaring
Em
Me I like sleeping, specially in my Molly's chamber
C G5 Final: ( G5 )
But here I am in prison, here I am with a ball and chain, yeah Musha rain dum-a-do dum-a-da
Intro: Riff1 Riff1b
D|-----------------------------------------------------------------
A|------------8----------------------------8-----------------------
F|-\7--7h9h11---9-11-7-9/12~~---\7--7h9h11---9-11-7-9/12b14r12~~---
C|-----------------------------------------------------------------

Riff 1 Riff2
D|-----------------------------------------------------------------
A|------------8---------------------------3------------------------
F|-\7--7h9h11---9-11-7-9/12~~-------0h2h4---0-2h4-0-2/4-0----------
C|------------------------------\5---------------------------------
G|-----------------------------------------------------------------

Riff 1 : ( G5 F#5 ) E5 G5 ( G5 F#5 ) E5 G5

Riff 3 Riff 2b
D|---------------------------------------------------------------------------
A|------8-10b12-b12-10b12-b12-10-8~--8h10p8~~-------------3------------------
F|-\7-9---------------------------------------------0h2h4---0-2-0-2/4p2p0----
C|----------------------------------------------\5---------------------------
G|---------------------------------------------------------------------------

(Riff do Refrão)
A|---------------------------------------------------------------------------------
F|-7--7-7-7-7-7-7--7-7-7-7-6-6-5-5--5-5---------5-5-5--------------5-5-5-----------
C|---------------------------------------x-x-x----------x-x-x-x-x--5-5-5---5-5-5---
G|-5--5-5-5-5-5-5--5-5-5-5-4-4-3-3--3-3--x-x-x--3-3-3---x-x-x-x-x--3-3-3---5-5-5---
D|---------------------------------------x-x-x----------x-x-x-x-x----------3-3-3---

Riff 1: ( G5 F#5 ) E5 G5 ( G5 F#5 ) E5 G5 Riff 2

(Riff da Terceira Estrofe)


A|----------------------------------------------------------------------------------------
F|-/7--7--7--7--7h9-7--4~~--/9--9--9--9--9h11--9--5~~-9--12--9\7-7~~--7h9--7~--7h9--7~~---
C|----------------------------------------------------------------------------------------

A|------------------------------------------------------------------------------------
F|-/7--7--7--7--7h9-7--4~~------9--9--9\5--5~~-----9-12--9\7-7~~--7h9p7~~--7h9p7~~----
C|------------------------------------------------------------------------------------

(Riff do Segundo Refrão)


A|---------------------------------------------------
F|-7--7-7-7-7-7-7--7-7-7-7-6-6-5-5--5-5---------5-5-5
C|---------------------------------------x-x-x-------
G|-5--5-5-5-5-5-5--5-5-5-5-4-4-3-3--3-3--x-x-x--3-3-3
D|---------------------------------------x-x-x-------

D|---------------------------------------------------------------------------------
A|------------13-13-13----13-13-13-13-13-13-13-13-13--13-13-13-13--12h13-12~~------
F|---------------------------------------------------------------------------------
C|-x-x-x-x-x--10-10-12----10-10-10-10-10-10-10-10-10--10-10-10-10------------------
G|-x-x-x-x-x-----------------------------------------------------------------------
D|-x-x-x-x-x-----------------------------------------------------------------------

Solo: ( G5 F#5 ) E5 G5 E5 C5 G5 G5 E5 C5 G5 D5 ( D5 C#5 ) C5 G5

(Parte 1)
D|----------------------------------------------------------------------------------
A|------------8------------------12-13-15-13-12h13p12----12----------------12-13-/15
F|-\7--7h9h11---9-11-7-9/12~~-------------------------14----14-12-11-12-14----------
C|----------------------------------------------------------------------------------

D|----------------------------------------------------------------------------------------
A|-----15-17~~-15-17-19b20--b20r19~-17--15--17-15-17~--\12-15-13--12-----------------13p12
F|-/16----------------------------------------------------------------14--12--10--9-------
C|----------------------------------------------------------------------------------------
(Parte 2)
D|-----------------------------------------------------------------------------------
A|--------------------------------------------------12-13-15-13-12h13p12----12-------
F|-14-12--10--9----------------------------------------------------------14----14-12-
C|-----------------------------------------------------------------------------------
G|----------------12--10--9b10r9b10r9b10r9b10r9~~------------------------------------
D|-----------------------------------------------------------------------------------

D|-------------------------------------------------------------------------------------
A|---------12-13-/15-----15-17~~-15-17-19b20--17~~--15--17-15-17~~---\12-15-13--12-----
F|11-12-14-----------/16------------------------------------------------------------14-
C|-------------------------------------------------------------------------------------
(Parte 3)
D|-----------------------------------------------------------------------------------
A|-----------------------------------------------------------------------------------
F|-12--10--9-------------------/7----/9---/12~-12~--12--12---12---~~-------12-14b16--
C|--------------------7h9h10-------------------12~--10--9/10-10h12~~---/14-----------
G|------------7h87-10--------7-----7----7--------------------------------------------
D|-----------------------------------------------------------------------------------

A|-------------------------------------------------------------------------------------
F|-14b16-14b16r14p12-----12-14-12~---12----12--------------7------7h9--7--10--9--/12--9
C|-------------------14-----------------14-----\12-11-10~-----10-----------------------
G|-------------------------------------------------------------------------------------

A|---------------------------------------------------
F|-/14--12--9--12--12--12--12--12--12--12~---12-9h12-
C|---------------------------------------------------

D|-------------------15-17-15h17p15----15~-----------
A|-------------15h17----------------17---------------
F|-12/14--12~----------------------------------------
C|---------------------------------------------------

Riff 3: ( G5 F#5 ) E5 G5 E5 G5

(Guitarra 1)
D|-------------------------------------------------------------------------------
A|------------8-----------------------------8----------------------------8-10b12-
F|-\7--7h9h11---9-11-7-9/12~~----\7--7h9h11---9-11-7-9/12b14p12~~---\7-9---------
C|-------------------------------------------------------------------------------

D|------------------------------------------------------------------------
A|-10b12-10b12-10b12r10--8h10-8~~--------------3--------------------------
F|---------------------------------------0h2h4---0-2-0-2b4r2--2b4r2--0----
C|-----------------------------------\5-----------------------------------
G|------------------------------------------------------------------------

(Guitarra 2)
F|-------------9------------------------------------- |----------------
C|-\9–9h10h12---10-12-9-10/12~~---------------------- 2x |-\9-10-12-12b14-
G|--------------------------------------------------- |----------------

A|----------------------------------------------------------------------
F|---------------------------------------------0------------------------
C|-12b14-12b14-12b14r12~--10h12-9~----0--0h2h4---2-4-0-2b4r2-2b4r2-0----
G|----------------------------------------------------------------------

(Riff da Quarta Estrofe)


D|----------------------------------------------------------------------------------------
A|----------------------------------------------------------------------------------------
F|-7-7-7------7--7--7-7-7--7/9--9-9--9--7/9--9-9-9\7--7\5-5--5-5------5-5-----5-5-----5-5-
C|----------------------------------------------------------------------------------------
G|-5-5-5--3/5-5--5--5-5-5--5/7--7-7--7--5/7--7-7-7\5--5\3-3--3-3--2/3-----2/3-----2/3-----
D|----------------------------------------------------------------------------------------
A|---------------------------------------------------
F|-----7-7-----7-7--7-7-7-7-7-7-7-7------------------
C|---------------------------------------------------
G|-3/5-----3/5------5-5-5-5-5-5-5-5------------------
D|---------------------------------------------------

Riff 4: ( G5 F#5 ) E5 G5 E5 G5
D|-------------------------------------------------------------------
A|------------8-------------------------------8----------------------
F|-\7--7h9h11---9-11-7-9/12~~------\7--7h9h11---9-11-7-9/12b14r12~~--
(Guitarra 1) C|-------------------------------------------------------------------

D|---------------------------------------------------------
A|------------8----------------------------3---------------
F|-\7--7h9h11---9-11-7-9/12~~--------0h2h4---0-2-0-4p2p0---
C|-------------------------------\5------------------------
G|---------------------------------------------------------

A|------------------------------------------------------------------
F|-------------9---------------------------------9------------------
(Guitarra 2) C|-\9--9h10h12---10-12-9-10/12~~-----\9--9h10h12---10-12-9-10/12~~--
G|------------------------------------------------------------------
D|------------------------------------------------------------------

A|------------------------------------------------------------
F|-------------9------------------------------0---------------
C|-\9--9h10h12---10-12-9-10/12~~-----0--0h2h4---2-4-0-4p2p0---
G|------------------------------------------------------------

(Riff do Final)
D|--------------------------------------------------- D|---------------
A|-------0-----------------------3------------------- A|---------------
F|-0h2h4----x--0h2h4p0--x--0h2h4----x--0h2h4-0--x---- (4x) F|-0h2h4-0-------
C|--------------------------------------------------- C|---------------
G|--------------------------------------------------- G|---------------
D|--------------------------------------------------- D|---------------
Michael Jackson - Heal the World

Verso 1:
A Bm7 C#m7 D/E
There's a place in your heart and I know that it is love,
A Bm7 C#m7 D/E
and this place could be much brighter than tomorrow
A Bm7 C#m7 D/E
And if you really try, you'll find there's no need to cry,
A Bm7 C#m7 D/E
in this place you'll feel there's no hurt or sorrow.
Bm7 C#m7 D C#m
There are ways to get there, if you care enough for the living.
Bm7 D/E
Make a little space, make a better place.
A Bm7
Heal the world, make it a better place
D/E A7+
For you and for me and the entire human race.
F#m7 C#m7 D C#m7
There are people dying. If you care enough for the living,
Bm7 D/E A Introdução
Make a better place for you and for me.

Verso 2:
A Bm7 C#m7 D/E
If you want to know why there's a love that cannot lie.
A Bm7 C#m7 D/E
Love is strong, it only cares for joyful giving.
A Bm7 C#m7 D/E
If we try, we shall see, in this bliss we can't feel
A Bm7 C#m7 D/E
fear or dread, we stop existing and start living.
Bm7 C#m7 D C#m7
Then it feels that always love's enough for us growing.
Bm7 D/E
Make a better world, make a better world.

A Bm7
Heal the world, make it a better place
D/E A7+
For you and for me and the entire human race.
F#m7 C#m7 D C#m7
There are people dying. If you care enough for the living,
Bm7 D/E A
Make a better place for you and for me.
G A
And the dream we were conceived in will reveal a joyful face
G A
And the world we once believed in will shine again in grace
F#m7 C#m7
Then why do we keep strangling life
D C#m7
Wound this earth, crucify it's soul
Bm7 Bm D/E
Though it's plain to see, this world is heavenly. Be God's glow!

Verso 3:
A Bm7 C#m7 D/E
We could fly so high, and our spirits never die.
A Bm7 C#m7 D/E
In my heart I feel you are all my brothers.
A Bm7 C#m7 D/E
Create a world with no fear, together we'll cry happy tears,
A Bm7 C#m7 D/E
see the nations turn their swords into plowshares.
Bm7 C#m7 D C#m7
We could really get there, if you cared enough for the living.
Bm7 D/E
Make a little space, to make a better place.
A Bm7
Heal the world, make it a better place
D/E A7+
For you and for me and the entire human race.
F#m7 C#m7 D C#m7
There are people dying. If you care enough for the living,
Bm7 D/E A
Make a better place for you and for me.
B C#m7
Heal the world, make it a better place
F#7 B
For you and for me and the entire human race.
G#m7 D#m7 E D#m7
There are people dying. If you care enough for the living,
C#m7 F#7 B
Make a better place for you and for me.
C# D#m7
Heal the world, make it a better place
G#7 C#
For you and for me and the entire human race.
A#m7 Fm7 F# Fm7
There are people dying. If you care enough for the living,
D#m7 G#7 C#
Make a better place for you and for me.
A#m7 Fm7 F# Fm7
There are people dying. If you care enough for the living,
D#m7 G#7 C#
Make a better place for you and for me.
A#m7 Fm7 F# Fm7
There are people dying. If you care enough for the living,
D#m7 F#7 C#
Make a better place for you and for me.
Michael Jackson – Bllie Jean
(F#m7)She was (G#m/F#)more like a (F#m7)beauty queen from a (G#m/F#)movie scene
(F#m7)I said don`t (G#m/F#)mind but what (F#m7)do you mean,
(G#m/F#)I am the (Bm7)one (bass: b f# a b . f# e f# (2x))
Who will dance on the floor in the (F#m)round? (G#m/F#) (F#m7)
She said (G#m/F#)I am the (Bm7)one
Who will dance on the floor in the (F#m)round? (G#m/F#) (F#m7)
(G#m/F#)
(F#m7)She told me her name was (F#m7)Billie Jean as she caused a scene.
(F#m7)Then ev`ry head turned with (F#m7)eyes that dreamed
Of being the one,
Who will dance on the floor in the round (F#m7) (F#m7)

(D)People always told me, be (F#m)careful what you do.


And don`t (D)go around breaking young girls' hearts(F#m).
And (D)mother always told me, be (F#m)careful who you love,
And be (D)careful what you do, `cause the (C#7)lie becomes the truth, hey

(F#m)Billie (G#m/F#)Jean is (F#m7)not my (G#m/F#)lover,


(F#m)She's just a (G#m/F#)girl who (F#m7)claims that (G#m/F#)I am the (Bm7)one
But the kid is not my (F#m)son (G#m/F#) (F#m7)
She says (G#m/F#)I am the (Bm7)one,
But the kid is not my (F#m)son (G#m/F#) (F#m7) (G#m/F#)

(F#m7)For forty (G#m/F#)days and (F#m7)forty (G#m/F#)nights, law was on her side
(F#m7)But who can (G#m/F#)stand when (F#m7)she`s (G#m/F#)in demand,
Her schemes and (Bm7) plans
`Cause we danced on the floor in the round. (F#m7) (G#m/F#) (F#m7) (G#m/F#)
So take my strong ad(Bm7) vice: Just remember to always think twice

(F#m7) She told my (G#m/F#)baby we danced (F#m7)till three, and (G#m/F#)she looked at me,
(F#m7) Then showed (G#m/F#) a photo. My (F#m7) baby cried. (G#m/F#)
His eyes were like (Bm7)mine.
Can we dance on the floor in the round?
(D)People always told me, be (F#m)careful what you do.
And don`t (D)go around breaking young girls' hearts(F#m).
But you (D)came and stood right by me, just a (F#m)smell of sweet perfume.
This (D)happened much too soon. She (C#7)called me to her room, hey
Miles Kane – Come Closer

[Verse]
F#m
What do I have to do
B A F#m F#m B A D
To get you where I want you
F#m
I guess we'll see what might be
B A F#m
Woa-oa-oa

A
You're a million miles
F#m D F#m
A million miles away
F#m
So come closer, so come closer
xxxx D
Come closer ah ah ah ah ah
F#m
woa oa oa oa oa oa
D
ah ah ah ah ah ah
F#m B A D
oa oa oa oa oa oa
F#m
Your reasons don't make any sense
B A F#m
I may rely on you
F#m
You're draped down him why you staring at me?
B A F#m
Woa oa oa oa oa
intro:

e|----------------------------|
B|----------------------------|
G|----------------------------|
D|-4--4--4--4--4--4--4--4-4-4-|repeat this for a while
A|-4--4--4--4--4--4--4--4-4-4-|
E|-2--2--2--2--2--2--2--2-2-2-|

all palm muted^^^ Verse:

e|---------| |----------------------------|
B|---------| |----------------------------|
G|-x-11-11-| |----------------------------|
D|-x-11-11-| x2 |-4--4--4--4--4--4--4--4-4-4-| x2
A|-x-9--9--| |-4--4--4--4--4--4--4--4-4-4-|
E|---------| |-2--2--2--2--2--2--2--2-2-2-|

palm muted^^^

e|---------------|--------------------------|------------------------------------|
B|---------------|--------------------------|------------------------------------|
G|-8-8-8--6-6-6--|--------------------------|------------------------------------|
D|-9-9-9--7-7-7--|-4-4-4-4-4-4--12-12-12-12-|-4--4-4-4--9--7--7-7-7--12-12-12-12-|
A|-9-9-9--7-7-7--|-4-4-4-4-4-4--12-12-12-12-|-4--4-4-4--9--7--7-7-7--12-12-12-12-|
E|-7-7-7--5-5-5--|-2-2-2-2-2-2--10-10-10-10-|-2--2-2-2--7--5--5-5-5--10-10-10-10-|

then the first part of the verse repeats

"you're a million miles..."

e|-0-0-0-0-0-0-0-0-|-2-2-2-2-2-2-2-2-|
B|-2-2-2-2-2-2-2-2-|-2-2-2-2-3-3-3-3-|
G|-2-2-2-2-2-2-2-2-|-2-2-2-2-2-2-2-2-|
D|-2-2-2-2-2-2-2-2-|-4-4-4-4-0-0-0-0-|
A|-0-0-0-0-0-0-0-0-|-4-4-4-4---------|
E|-----------------|-----------------|
the "come closer" part is pretty much the same as the intro

chorus: post chorus?:


e|-2--2--2-2-2-2--|-2--2--2-2-2-2--|-2--2--2-2-2-2--|------------------------------------|
B|-3--3--3-3-3-3--|-2--2--2-2-2-2--|-3--3--3-3-3-3--|------------------------------------|
G|-2--2--2-2-2-2--|-2--2--2-2-2-2--|-2--2--2-2-2-2--|------------------------------------|
D|-0--0--0-0-0-0--|-4--4--4-4-4-4--|-0--0--0-0-0-0--|-4--4-4-4--9--7--7-7-7--12-12-12-12-| x2
A|----------------|-4--4--4-4-4-4--|----------------|-4--4-4-4--9--7--7-7-7--12-12-12-12-|
E|----------------|----------------|----------------|-2--2-2-2--7--5--5-5-5--10-10-10-10-|

The verse, million miles part, come closer part and the chorus are the same except after

the second chorus it goes straight to the solo.

Solo:

the background chords for the solo are the same as the chords for the verse

e|-------------------------|----------------------|-----------------|
B|-------------------------|----------------------|-----------------|
G|---2-4-6-6-6--4-2--2-----|---2-4-6-6-6--4-2--2--|-4-4-4-4-4-4~~~--|
D|-4----------------4--4-4-|-4----------------4---|-----------------|
A|-------------------------|----------------------|-----------------|
E|-------------------------|----------------------|-----------------|

Slowly bend the 4s more and more

e|------------------------------|-------------------|-------------------|-------------------|
B|------------------------------|----10-12-14-14-14-|-12-10----10-------|----10-12-14-14-14-|
G|-4b--2--4-2-4-6-4-2---------2-|-11----------------|-------11---11-11--|-11----------------|
D|--------------------4-4-4-4---|-------------------|-------------------|-------------------|
A|------------------------------|-------------------|-------------------|-------------------|
E|------------------------------|-------------------|-------------------|-------------------|

e|---------------|-----------------|
B|-12-10----10---|-12-12-12-12-12--|
G|-------11------|-----------------|
D|---------------|-----------------|
A|---------------|-----------------|
E|---------------|-----------------|

^^^this is bent slightly more and more each time

e|-------------------|-------------------------------|
B|-12br-10-12-10-12--|-14-14-12-10-------------------|
G|-------------------|-------------11--11--11-11-11--|
D|-------------------|-------------------------------|
A|-------------------|-------------------------------|
E|-------------------|-------------------------------|

bend the 11s above. repeat the million miles part and the come closer part, then theres
theres the ending:

e|-2--2--2-2-2-2---- \
B|-2--2--2-2-2-2---- \
G|-2--2--2-2-2-2---- \
D|-4--4--4-4-4-4-\-- \
A|-4--4--4-4-4-4---- \
E|--------------- -- \

x5

e|-2--2--2-2-2-2- \ /
B|-3--3--3-3-3-3- \ /
G|-2--2--2-2-2-2- \
D|-0--0--0-0-0-0- \
A|--------------- \
E|--------------- \

End on:

e|-2------------------|
B|-2------------------|
G|-2------------------|
D|-4------------------|
A|-4------------------|
E|-2------------------|

By helping UG you make the world better... and earn IQ


Moby - We Are All Made Of Stars
Tom: G
E
Growing in numbers, growing in speed
Can't fight the future can't fight what I see

Chorus (2X)
D A C G
People they come together, people they fall apart
D A C G
No one can stop us now 'cause we are all made of stars

E
Efforts of lovers Left in my mind
I sing in the reaches, we'll see what we find

Chorus (2X)

A
Slow slow slow, come come, someone come come come
E
Even love is goin' 'round, you can't ignore what is goin' 'round

E
Slowly rebuilding I feel it in me
Growing in numbers, growing in peace

Chorus
[4x]
With Distortion and near frets.
e]--------------------------------------------------------------
b]--------------------------------------------------------------
g]---12-11-12-14-11--11-12-11-12-14-11-11-12-11-12-14-11/16-7-7-
a]--------------------------------------------------------------
a]--------------------------------------------------------------
e]--------------------------------------------------------------------------------------
Monaco - What Do You Want From Me?
Introdução:

D|---------------------------------------
A|---3---3---3-5-7-5-3-5---7-5-3-2-------
E|-5---5---5-----------------------3-5---

| Dm | F | C | G | x2
Sha la la la la la la
Dm Am
There is one thing, that I would die for,
Dm Am
It's when you say, my life is in your hands,
F Am F
Cuz when you're near me, your love is all I need, now I can't imagine...

Refrão - 2x
Dm F C G
What do you want from me?: It's not how it used to be.
Dm F C G
You're taking my life away: ruining e-verything.
Repete com 'Sha la la' no fundo

Dm Am
Give me something, I can rely on.
Dm Am
Far away from, the life that I once knew.
F Am F
'What does it matter?',that's all I have to say, and I can't imagine...

Refrão

Piano + solo de baixo: F Am F Am F G F E D E A x2

Base do solo de guitarra: Am Dm F x2

Keyboard solo: Am C C/E G x2

Refrão x3 e entra o finalzinho


Morrissey - Everyday is Like Sunday

[Verse 1]:
C F
Trudging slowly over wet sand
C F
Back to the bench where your clothes were stolen
G C F
This is the coastal town That they forgot to close down
Am F
Armageddon - come Armageddon come Armageddon come

[Chorus]:
C G F C G F
Every day is like Sunday, every day is silent and grey

[Verse 2]:
C F
Hide on the promenade, etch on a postcard
C F
How I dearly wish I was not here
G C F Am F
In this seaside town That they forgot to bomb Come bomb, Nuclear bomb

[REPEAT CHORUS]
Am C
Trudging back over pebbles and sand

Am G
and a strange dust lands on your hands
F G F G
and on your face, on your face... on your face, on your face
[Chorus]:
C G F
Every day is like Sunday
C G F
Win yourself a cheap trey
C G F
Share some grease tea with me
C G F
Every day is silent and grey
Mr. Big - To be with you
C#m E | Asus2 E
Hold on little girl. Show me what he's done to you.
C#m E | Asus2 E
Stand up little girl. A broken heart can't be that bad.
Asus2 E | Asus2 E
When it's through, it's through. Fate will twist the both of you.
D |B
So come on baby, come on over. Let me be the one to show you.
E A B E
Im the one who wants to be with you.
E A B E
Deep inside I hope you'll feel it too.
E A B C#m
Waited on a line of greens and blues
E A BE
just to be the next to be with you.

Build up your confidence so you can be on top for once.


Wake up! Who cares about little boys that talk to much?
I seen it all go down. Your game of love was all rained out.
So come on baby, come on over. Let me be the one to hold you.
Asus2 C#m
Why be alone when we can be together baby?
G
You can make my life worthwhile. I can make you start to smile.
solo
E A B E
Im the one who wants to be with you…
Naked Eyes – Always something there to remind you

VERSE #1
A E/G# G D F
I walk along the city streets you used to walk along with me
A E/G# G D Bm7
And every step I take reminds me of just how we used to be

CHORUS X3
D A/C#
How can I forget you girl
Bm A D/A A
When there is always something there to remind me

VERSE #2
A E/G# G D F
When shadows fall I pass a small cafe where we would dance at night
A E/G# G D Bm7
And I can't help recalling how it felt to kiss and hold you tight

CHORUS
BRIDGE X2
C#m F#m D E E A
I was born to love you, and I will never be free, you'll always be a part of me

VERSE #3
A E/G# G D F
If you should find you miss the sweet and tender love we used to share
A E/G# G D Bm7
Just go back to the places where we used to go and I'll be there
Neil Diamond - Girl You'll Be a Woman Soon

Am
I love you so much, can't count all the ways
Am
I've died for you girl and all they can say is
G
"He's not your kind."
Am
They never get tired of putting me down
Am
And I'll never know when I come around
G F F
What I'm gonna find - Don't let them make up your mind.
Don't you know.....

Refrão:
Am D G Am
Girl, You'll be a woman soon.
Am D G G
Please, Come take my hand or

Soon, Youll need a man

Am
I've been misunderstood for all of my life
Am
But what they're saying girl it cuts like a knife
G
"The boy's no good"
Am
Well I've finally found what I'm a looking for
Am
But if they get their chance they'll end it for sure
G F
Surely would - Baby I've done all I could..
Now it's up to you....

Refrão
Neil Young - My, my, hey, hey

[Am] [G] [F/A]


[Am] [G] [F/A]
[C] [G6]
[Am] [F]
[Am] [G] [F/A]

[Am]Hey [G]hey, my [F/A]my


[Am]Rock and [G]roll will never [F/A]die
There's [C]more to the [G6]picture
[Am] Than meets the [F]eye
[Am] Hey [G]hey, my [F/A]my

Intro/verse

Out of the blue and into the black


You pay for this and they give you that
Once you're gone, you can't come back
When you're out of the blue
And into the black

Intro/verse

The king is gone but he's not forgotten


Is the story of Johnny Rotten?
It's better to burn out 'cause rust never sleeps
The king is gone but he's not forgotten

Intro/verse

Hey hey, my my
Rock and roll will never die
There's more to the picture
Than meets the eye

[Am] [G] [F/A]


New Order – Bizarre Love Triangle

C D Bm C
Every time I think of you I feel shot right through with a bolt of blue
D
It's no problem of mine but it's a problem I find
Bm C
Living a life that I can't leave behind
D Bm C
There's no sense in telling me the wisdom of a fool won't set you free
D
But that's the way that it goes and it's what nobody knows
Bm C
While every day my confusion grows

Refrão:
D Bm C
Every time I see you falling I get down on my knees and pray
D
I'm waiting for that final moment
Bm C
You'll say the words that I can't say

[Picking: G]
C D Bm C
I feel fine and I feel good, I'm feeling like I never should
D
Whenever I get this way, I just don't know what to say
Bm C
Why can't we be ourselves like we were yesterday

C D Bm C
I'm not sure what this could mean, I don't think you're what you seem
D
I do admit to myself that if I hurt someone else
Bm C
Then I'll never see just what we're meant to be

Refrão (2x)
New Order - Regret

Tom: C

Intro: C Am7 F Am7 C F C F Am7 F C F Am7 F C

{Verse}
F Bb
Maybe Ive forgotten the name and the address
F Bb Bb/C
Of everyone Ive ever known Its nothing I regret
Dm Am7 Bb C
Save it for another day Its the school exam and the kids have run away

Chorus
Am7 C
I'd like a place I could call my own have a conversation on the telephone
F C
Wake up every day that would be a start I would not complain of my wounded heart

F Am7 F C F Am7 F C
I was upset you see almost all the time You used to be a stranger now you are mine

{Verse}
F Bb F Bb
I wouldnt even trust you, I've not got much to give
F Bb Bb/C
Were dealing in the limits and we dont know who with
Dm Am
You may think that Im out of hand
Bb C Am Bb C
That Im naive, Ill understand on this occasion, its not true look at me, Im not you

Chorus

F Am7 F C F Am7 F C
I was a short fuse, burning all the time, you were a complete stranger now you are mine

Chorus
F C F C
Just wait till tomorrow, I guess thats what they all say, Just before they fall apart
New Order - Round and Round

Dm G
I just can't help thinking what you've done to me
Dm G
You built a wall of love and tore it right down In front of me
Dm G
And you think you know what's going on you keep telling me that I am wrong
Dm G
I don't care about what you do 'Cause if you mess with me I'll get rid of you

Chorus:
Bb C F Dm
The picture you see is no portrait of me

It's too real to be shown to someone I don't know


Bb C F Dm
And it's driving me wild It makes me act like a child

You think I am crazy, but what can I do you waste your time, like my money
It ain't so funny, but it's true (Don't waste my money, baby)
Now you can't tell me what's going on
And that I am weak while you are strong
What is it you need, that makes your heart bleed
Do you really know? 'Cause it doesn't show

(chorus x2)
Nirvana - About a Girl
Intro 8x: Em G

Primeira Parte:
Em G Em G
I need an easy friend
Em G Em G
I do... with an ear to lend
Em G Em G
I do... think you fit this shoe
Em G Em G
I do... won't you have a clue.

Segunda Parte:
Dbm F#
I'll take advantage while
Dbm F#
You hang me out to dry
E A C Em G
But I can't see you every night free

( Em G ) (2x) ( Em G ) (2x)
I do...

Primeira Parte: (com variação na letra)


Em G Em G
I'm standing in your line
Em G Em G
I do... hope you have the time
Em G Em G
I do... pick a number two
Em G Em G
I do... keep a date with you.

Segunda Parte:

( Em G ) (2x) ( Em G )(2x)
I do...

(2X)

Intro 8x: Em G; Primeira Parte; Segunda Parte:

But I can't see you every night

( Em G ) (2x) ( Em G )(2x)
I do...
Nirvana – Come as you are

Intro Dm C

Dm C Dm C Dm
Come as you are, as you were, as I want you to be
C Dm C Dm
As a friend, as a friend, as an old enemy
C Dm C Dm
Take your time, hurry up, The choice is yours, don't be late
C Dm C
Take a rest, as a friend, as an old memoria
Dm F Dm F Dm F
memoria, memoria, memoria

repeat intro again

Dm C Dm C Dm
Come dowsed in mud, soaked in bleach, as I want you to be
C Dm C
As a trend, as a friend, as an old memoria

Dm F Dm F Dm F
memoria, memoria, memoria

G5 Bb G5 Bb
And I swear that I don't have a gun
G5 Bb
No I don't have a gun
G5 Bb
No I don't have a gun

Dm F Dm F Dm F G5
memoria, memoria, memoria
Bb G5 Bb
And I swear that I don't have a gun
G5 Bb
No I don't have a gun (5x)
Nirvana - In Bloom
Tom: A#
Intro:

Riff 1 - 2x: Bb5 G5 F5 G#5

Riff 2 - 2x: Bb5 F#5 D#5 B5 A5

Primeira parte:

Bb F# D# B A Bb F# D# B5 D5
Sell the kids for food Weather changes moods
Bb F# D# B A Bb F# D# B5 D5
Spring is here again Reproductive glands and

Refrão:
Bb5 G5 Bb5 G5
He's the one who likes all our pretty songs and he
Bb5 G5 Bb5 G5
likes to sing along, and he likes to shoot his guns,
C5 D#5
but he don't know what it means
C5 D#5
Don't know what it means and I say...

(Riff 1) Bb5 G5 F5 G#5 (2x)

Segunda parte:
Bb F# D# B A Bb F# D# B5 D5
We can have some more Nature is a whore
Bb F# D# B A Bb F# D# B5 D5
Bruises on the fruit Tender age in bloom

Refrão:

(Refrão)

(Riff 1)
Nirvana - Jesus Doesn't Want Me For A Sunbeam

Tom: G
[Intro] D C G Gsus4 G (2x)
D C G Gsus4
Jesus doesn't want me for a sunbeam
D C G G#sus4 G#
'Cause sunbeams are never made like me
D C G Gsus4 G#
Don't expect me to cry, for all the reasons you had to die
D C G Gsus4
Don't ever ask your love of me

Refrão
D C
Don't expect me to cry
D C
Don't expect me to lie
D C G Gsus4
Don't expect me to die for thee

D C G Gsus4
Jesus doesn't want me for a sunbeam
D5 C G Gsus4
'Cause sunbeams are never made like me
D C G Gsus4 G#
Don't expect me to cry, for all the reasons you had to die
D C G# G#sus4 G#
Don't ever ask your love of me

Refrão

[Solo] D C G Gsus4 G (2x)

Refrão Volta início


Nirvana - Lithium

Tom: E ntrodução: E5 G#5 C#5 A5 C5 D5 B5 D5

Primeira Parte:
E5 G#5 C#5 A5 C5 D5 B5 D5 E5
I'm so happy 'Cause today I've found my friends they’re in my head
G#5 C#5 A5 C5 D5 B5 D5 E5
I'm so ugly But that's okay, 'cause so are you we broke our mirrors
G#5 C#5 A5 C5 D5 B5 D5 E5
Sunday morning Is everyday for all I care and I'm not scared
G#5 C#5 A5 C5 D5 B5
Light my candles In a daze 'cause I've found God

Refrão:
E5 G#5 C#5 A5 C5 D5 B5 D5
(Yeah)

Segunda Parte:
E5 G#5 C#5 A5 C5 D5 B5 D5 E5
I'm so lonely But that's okay I shaved my head and I'm not sad
G#5 C#5 A5 C5 D5 B5 D5 E5
And just maybe I'm to blame for all I've heard but I'm not sure
G#5 C#5 A5 C5 D5 B5 D5 E5
I'm so excited, I can't wait to meet you there, but I don’t care
G#5 C#5 A5 C5 D5 B5 D5
I'm so horny, but that's okay, my will is good

Refrão:

Ponte (2x):
A5 C5 A5 C5 A5
I like it, I'm not gonna crack
C5 A5 C5 A5
I miss you, I'm not gonna crack
C5 A5 C5 A5
I love you, I'm not gonna crack
C5 A5 C5 A5
I killed you, I'm not gonna crack

Primeira Parte; Refrão; Ponte (2x):


Nirvana - On A Plain

RIFF 1 D5 D/G F5 E
G|-7--7-7--------------------------|
D|-7--7-7-7--7-7-3--3--------------|
A|-5--5-5-5--5-5-3--3--------------|
D|--------5--5-5-3--3-0-2-3-2-0----|

D5 D/G F5 E D5 D/G F5 E D5
I'll start this off without any words I got so high that I scratched ‘till I bled

Ponte
C5 B5 A5 D5 D/G F5 E D5
love myself better than you I know it's wrong so what should I do?

D/G F5 E D5 D/G F5 E D5
The finest day that I ever had was when I learned to cry on command

Ponte

Refrão
D5 D/G E5* D5 D/G E5* D5 D/G E5*
I'm on a plain, I can't complain, I'm on a plain

D5 D/G F5 E D5 D/G F5 E D5
My mother died every night It's safe to say don't quote me on that
Ponte
D/G F5 E D5 D/G F5 E D5
The black sheep got blackmailed again forgot to put on the zip code
Ponte; Refrão
(Essa parte é dedilhada)
F5 E A5 G5 F5 E
Somewhere I have heard this before in a dream
A5 G5 F5 E A5 G5
my memory has stored as defense I'm neutered and spayed
F5 E A5 G5 (Faça o G5 bem rápido e depois faça esse riff ; D|-5-3-2-| )
What the hell am I trying to say?
D5 D/G F E D5 D/G F5 E D5
It is that time to make it unclear to write off lines that don't make a sense
Ponte
D5 D/G F E D5 D/G F5 E D5
One more special message to go and then I’m done, and I’m can go home
Ponte; Refrão 2x
Nirvana - Smells Like Teen Spirit

Introdução: F5 Bb5 Ab5 Db5 F5 Bb5 Ab5 Db5

Load up on guns Bring your friends


It's fun to lose And to pretend
She's over-bored And self-assured
Oh, no, I know A dirty word
Hello, hello, hello, how low 4X

Refrão:
F5 Bb5 Ab5
With the lights out It's less dangerous
Db5 F5 Bb5 Ab5
Here we are now Entertain us
Db5 F5 Bb5 Ab5
I feel stupid and contagious
Db5 F5 Bb5 Ab5
Here we are now, entertain us
Db5 F5 Bb5 Ab5
A mulatto, an albino
Db5 F5 Bb5 Ab5 Db5
A mosquito, my libido, Yeah, yey

Passagem: F5 E5 F5 Gb5 F5 E5 F5 Bb5 Ab5

I'm worse At what I do best


And for this gift I feel blessed
Our little group has always been
And always will Until the end
Hello, hello, hello, how low 4X

Refrão
Passagem: F5 E5 F5 Gb5 F5 E5 F5 Bb5 Ab5
Solo: F5 Bb5 Ab5 Db5

And I forget Just why I taste


Oh yeah, I guess It makes me smile
I found it hard It's hard to find
Well, whatever Nevermind
Hello, hello, hello, how low 4X

Refrão
Final:
Db5 F5 Bb5 Ab5
A denial A denial 5X
Paul Carrack - How Long Has This Been Going On

[intro:]
2x [Bb] 4X [ Ab/Bb Bb] Bm
[chorus:]
[Cm]How long [Gm7]has this been [Fm7]goin' on [Gm7]
[Cm]How long [Gm7]has this been [Fm7]goin' on

[verse: 1]
Well your [Cm]friends with their fancy per[Bb]suasion
Don't a[Cm]dmit that it's part of a [Bb]scheme
I [Cm]can't help but have my sus[Bb]picions
I [Cm]ain't quite as dumb as I [Bb]seem
No you [Cm]said you was never in[Bb]tended
To [Cm]break up our singing this [Bb]way
There [Cm]ain't any use in pre[Bb]tending
It could [Cm]happen to us any [Bb]day [Bm]

[chorus:]

[solo: guitar] 8 X [ Cm7 F ]

[verse: 2]
Don’t let your [Cm]friends with their fancy per[Bb]suasion
Don't a[Cm]dmit that it's part of a [Bb]scheme
I [Cm]can't help but have my sus[Bb]picions
I [Cm]ain't quite as dumb as I [Bb]seem
No you [Cm]said you was never in[Bb]tended
Woo to [Cm]break up our singing this [Bb]way
There [Cm]ain't any use in pre[Bb]tending
It could [Cm]happen to us any [Bb]day [Bm]

[coda:] 2X
Woho [Cm]How long [Gm7]has this been [Fm7]goin' on [Gm7]
[Cm]How long [Gm7]has this been [Fm7]goin' on [Gm7]
you been treaten me mad you been treaten me bad and it's been going on, going on, going on
I ain't quite as dumb as i seem. I ain't quite the fool you mean
but it's been going on, going on, going on, going on.
Pearl Jam - Black

E A Asus4 A E A Asus4 A
Sheets of empty canvas untouched sheets of clay
E A E
They spread out before me as her body once did

E A Asus4 A E A Asus4 A
All five horizons, revolved around her soul (as the earth to the sun)
E A E
Now the air I tasted and breathed, has taken a turn (Not sure about this line)

C Em C Em
Oooh all I know I taught her was... everything Oooh all I know she gave all... that she wore

D C Em
And my bitter hands Shake beneath the clouds Of what was everything
D C Em
All the pictures have all been washed in black Tatooed everything.

E A Asus4 A E A Asus4 A
I take a walk outside I'm surrounded by some kids at play
E A E
I can feel their laughter So what can I say

C Em
Ooh all my twisted thoughts they spin round my head (I'm spinnin')
C Em D
Oooh I'm spinning how quick the sun can drop away and my bitter hands ????
C Em
A???? on broken glass (can't get this word) of what was everything
D C Em
all my pictures have all been washed in black tatooed everything
D C D
All my love gone bad turned my world to black tatooed all I see
C Em
All that I am all that I'll beeeeee yeaahheah
D C
I know some day you'll have a beautiful life I know you'll be a sun,
Em D C Em
In somebody elses sky, whyhy, whyhy whyhy can't it be, can't it be in mine.
Pearl Jam - Last Kiss

Tom: G

G Em C D
Oh where, oh where can my baby be? the Lord took her away from me.
G Em C D G
She's gone to heaven so I've got to be good, so I can see my baby when I leave this world.

G Em C D
We were out on a date in my daddy's car, we hadn't driven very far.
G Em C D
There in road, straight ahead, a car was stalled and the engine was dead.
G Em C D
I couldn't stop so I swerved to the right, I'll never forget the sound that night.
G Em C D G
The screamin' tires, the bustin' glass, the painful scream that I heard last.

G Em C D
Oh where, oh where can my baby be? The Lord took her away from me.
G Em C D G
She's gone to heaven so I've got to be good, so I can see my baby when I leave this world.

G Em C D
When I woke up the rain was pouring down, there were people standing all around.
G Em C D
Something warm was running through my eyes, And somehow I've found my baby that night.
G Em C D
I raised her head, and when she looked at me and said: "Hold me darling just a little while!"
G Em C D
I held her close, I kissed her our last kiss, I found the love that I knew I would miss.
G Em C D G
Well now she's gone even though I hold her tight I lost my love, my life, that night.

G Em
Oh where, oh where can my baby be?
C D
The Lord took her away from me.
G Em
She's gone to heaven so I've got to be good,
C D G
so I can see my baby when I leave this world.

( G Em C D ) (4x)
Phil Collins - I cannot believe its true

E Amaj7 G#m7 F#m7 E F#m7


When I opened your letter yesterday I could not believe my eyes
(similar)
'Cos I've already given all I have to give And I think it must have slipped your mind
But I remember not so long ago I gave it all,
A B G#m
it's gone And I gave it all to you Now I'm living on borrowed time,
C#m B Bbm7-5 Amaj7 G#m7
but it's mine Oh, d'you hear me? I cannot believe it's true
F#m7 Amaj7 G#m7 F#m7 Amaj7 G#m7 F#m7 E
Are you really doing the things you do No, I cannot believe it's you, really you

Oh these people I'm talking to don't understand They don't seem to realize
They're listening but they're not hearing me They're being too cruel to be kind
Any kind of feeling that I had is gone 'Cos I gave it all, it's gone
And I gave it all to you Now I'm living on borrowed time, but it's mine

Oh, d'you hear me? I cannot believe it's true (...) , really you

D E F#m D E F#m
Over and over I keep on telling myself Over and over I hope I'm gonna make up
D E B
Over and over I know it's really happening And there's nothing that I can say
D E F#m D E B
'Cos nothing can change all the things that you've done to me nothing can make me stay

Oh, 'cos you know I cannot believe it's true (...) , really you

G A/G C D
I know it's a crying shame, it's all the same to you
It seems all so well laid out but I cannot get through

E A E A
Never meant it to show It started happening, that's all you know

Oh, I gave it all to you Now I'm living on borrowed time, but it's mine
Oh, d'you hear me? I cannot believe it's true (...) , really you
Over and over I keep on telling myself (...) Nothing can make me stay
'Cos you know I cannot believe it's true (...) , really you
Pink Floyd - Mother
G D7 C G C G G D7 C G C G
Mother do you think they'll drop the bomb, Mother do you think they'll like the song
C G C G D C G
Mother do you think they'll try to break my balls Ooh ah Mother should I build a wall
G D7 C G C G G D7 C G C G
Mother should I run for president Mother should I trust the government
C G C G D C G C G
Mother will they put me in the firing line Ooh ah, is it just a waste of time ?
G C F C
Hush now baby don't you cry Mama's gonna make all of your nightmares come true
F C F C
Mama's gonna put all of her fears into you Mama's gonna keep you right here under her wing
F C F C G D7 G
She won't let you fly but she might let you sing Mama's gonna keep baby cosy and warm
D C D C D C G
Ooooh Babe Ooooh Babe Ooooh Babe, of course mama's gonna help build the wall
G C G C G C D C G
G C G C G C G G C D7 C G C
Mother do you think she's good enough for me ? Mother do you think she's dangerous for me ?
C G C G D C G
Mother will she tear your little boy apart ? Ooh ah, Mother will she break my heart ?
G C F C
Hush now baby, baby don't you cry Mama's gonna check out all your girlfriends for you
F C F C
Mama won't let anyone dirty get through Mama's gonna wait up untill you come in
F C F C G Am G
Mama will always find out where you've been Mama's gonna keep you healthy and clean
D C D C D C G C G
Ooooh Babe Ooooh Babe Ooooh Babe, you'll always be a baby to me.
N.C. C
Mother, did it need to be so high.
Pink Floyd - Wish you here
C D/F#
So, so you think you can tell
Am/E G D/F#
Heaven from hell, Blue skies from pain. Can you tell a green field
C Am G
From a cold steel rail, A smile from a veil? Do you think you can tell?
C D/F# Am/E
Did they get you to trade, Your heroes for ghosts, Hot ashes for trees,
G D/F# C
Hot air for a cool breeze, Cold comfort for change? Did you exchange
Am G
A walk on part in the war, For a lead role in a cage?

C D/F#
How I wish, how I wish you were here,
Am/E G D/F#
We're just two lost souls swimming in a fish bowl, Year after year,
C Am
Running over the same old ground, What have we found? The same old fears,
G
Wish you were here.
Police, The – Walking on the moon

Intro: G7sus4 (4x)


1ª Parte
Dm7 Bb C
Giant steps are what you take, Walking on the moon
Dm7 Bb C
I hope my legs don't break, Walking on the moon
Dm7 Bb C
We could walk forever, Walking on the moon
Dm7 Bb C
We could live together, Walking on, walking on the moon

G7sus4 (2x)

Dm7 Bb C
Walking back from your house, Walking on the moon
Dm7 Bb C
Walking back from your house, Walking on the moon
Dm7 Bb C
Feet they hardly touch the ground, Walking on the moon
Dm7 Bb C
My feet don't hardly make no sound, Walking on the moon
Bb C Dm7
Walking on, walking on the moon, Walking on the moon

Refrão
Bb F C Gm Bb F C
Some may say I'm wishing my days away, No way
Gm Bb F C
And if it's the price, I pay, Some say
Gm Bb F C
Tomorrow's another day, You stay, I may as well play

G7sus4 (2x)

1ª parte

Refrão

G7sus4

Dm7 Bb C
Keep it up, keep it up, (4X)
Pretenders, The – Back on the chain gang

D A Em7 D A Em7 (rpt over riff)

D A Em7 Gmaj7/B G
I found a picture of you oh
D A Em7 Gmaj7/B G
What hijacked my world that night
D A Em7 Gmaj7/B G
To a place in the past we've been cast out of oh
D A Em7 Gmaj7/B G
Now we're back in the fight

Em A Em7 A
We're back on the train hey
Em A D A D A
Aaaah, back on the chain gang

Circumstance beyond our control oh


The phone, the TV, and the news of the world
Got in the house like a pigeon from hell, oh
Threw sand our eyes and descended like flies

Put us back on the train, yeah


Aaaaah, back on the chain gang

D A Em7 D A Em7 D

BRIDGE:
Dm A7 Dm A7 Dm
The powers that be that force us to live like we do
A7 Dm A7 Dm A7 Dm A7
Bring me to my knees when I see what they've done to you
Dm A7 Dm A7 Dm
Well I'll die as I stand here today, knowing that deep in my heart
A7 Dm
They'll fall to ruin one day
A7 E B A
For making us part-----

E B A Amaj7/B A/B
I found a picture of you, oh
E B A Amaj7/B A/B
Those were the happiest days of my life
E B A Amaj7/B A/B
Like a break in the battle was your part, oh
E B A Amaj7/B A/B
In the wretched life of a lonely heart
A B A B
Now we're back on the train, hey
A A/B E
Aaaah, back on the chain gang

B E B E (rpt and fade)


Em7: 0 2 2 0 3 0 Gmaj7/B: 3 2 4 0 0 2
Amaj7/B: x 0 6 6 5 4 A/B: x 7 7 6 5 5

NOTE: If you find Gmaj/B too hard to finger, try Bm in its place. Not
as accurate, but a hell of a lot easier.
(from Learning to Crawl, 1983)

--------------------------------------------------------------------------------
Back on the Chain Gang" (The Pretenders)

There are about three versions of this already in the archive, but none of
them is quite right. This one's a little better; someone sent it to me last
fall, and I recently cleaned it up because I wanted to play it.

Unfortunately, this might still have mistakes; I can't check because I don't
have the album. I'll have to see if I can get them to play it on the radio...

Funny chords:
Em*: 022003
F#m*: 244225
Dm*: x00231 - x00230 - x00231
AaddF*: x02220 - x02221 - x02220

Intro & Solo:


D A
e -------------------|------------------------|------------------------|
B ----------7--10-7-/|10~------------/10--10--|10~------------/10--10--|
G -------7-----------|------------------------|------------------------|
D (7)-7--------------|------------------------|------------------------|
A -------------------|------------------------|------------------------|
E -------------------|------------------------|------------------------|

e |------------------------|------------------------|-------
B |10-p8---8---8--s7---7---|7-----------------------|-------
G |------------------------|----9---9--7b9--7---6--/|7------
D |------------------------|------------------------|-------
A |------------------------|------------------------|-------
E |------------------------|------------------------|-------

(/=slide, p=pull off, b=bend, ~=vibrato)

For the ending two chords, arpeggiate as follows:


E B
e----------------------------------------------------------------------
B-----------------0----------------------4-----------------------------
G--------------1-----1----------------4-----4--------------------------
D---------2--------------2---------4-----------4-----------------------
A--------2----------------------2--------------------------------------
E--0-------------------------------------------------------------------
Prince - Kiss
Intro: Base: A7 e D7 Solo: A7+9 Bridge:
E-12-- e—-0---I I--2--I e-----I e--15--I--15--I--14--I--12--I--14--I--12--I--14--I
B-12-- B—-2---I I--1--I B--5--I B--13--I--13--I--13--I--13--I--13--I--13--I--13--I
G-11-- G—-0---I I--2--I G--5--I G--12--I--12--I--12--I--12--I--12--I--12--I--12--I
e--15--I--15--I--14--I--12--I--14--I--12--I------I
D-12-- D--2---I I--0--I D--5--I
A-X--- A--0---I I--0--I A--4--I
E-X--- E--0---I I--0--I E-----I

A7
You don't have to be beautiful, to turn me on
I just need your body baby, from dusk till dawn
D7
You don't need experience to turn me out
A7
You just leave it all up to me
I'm gonna show you what it's all about

Refrão :
E7
You don't have to be rich to be my girl
D7
You don't have to be cool to rule my world
E7
Ain't no particular sign I'm more compatible with
D7 E9(sus4) A7
I just want your extra time and your kiss !

You don't have to be dirty baby, if you wanna impress me


You can't be to flirty mama, I know how to undress me
I want to be your fantasy, maybe you could be mine
You just leave it all up to me, we could have a good time

[Refrão]

A7
Women, not girls, rule my world I said they rule my world
Act your age, not your shoe size Maybe we could do the twirl
D7
You don't have to watch Dynasty to have an attitude
A7
You just leave it all up to me My love will be your food
[Refrão]
Queen - I Want To Break Free

(Tom: D) Intro:
E|------------------|----------|
B|--9b--------------|----------|
G|-------11-9-------|----------|
D|-------------11-9-|--------4-|
A|------------------|--12/---2-|
E|------------------|--12/-----|

E
I want to break free, I want to break free,
A
I want to break free from your lies, you're so self satisfied, I don't need you.
E B A E
I've got to break free. God knows, God knows I want to break free.

E A
I've fallen in love, I've fallen in love for the first time, and this time I know it's for real
E B A E
I've fallen in love, yeah. God knows, God knows I've fallen in love.

B A B A
It's strange but it's true, I can't get over the way you love me like you do,
C#m F#4 F#
But I have to be sure, when I walk out that door.
A B C#m B A B C#m B A B E
Oh, how I want to be free, baby, oh how I want to be free, oh, how I want to break free.

Base: E A Em
E|-----------------|-------------------------------------------------------------------|
B|-----------------|------------------------------------------14b----------------------|
G|-------11-13-13b-|-------11-13-13b-------13b--------------------14-------------------|
D|----14-----------|----14-----------14--------14--------------------14--12--11--------|
A|-14--------------|-14-----------------14--------14-12-11/0--------------------12-----|
E|-----------------|---------------------------------------------------------------12--|
Base: Bm A E A
E|------------------------------------|--------|---------------------------|---------------------------------|
B|-14b(14)(14)------------------------|-7b===--|-9b(9)-----9-----9---------|---------------------------------|
G|-------------14----13---------------|--------|-------9-----9-----9-------|---------------------------------|
D|----------------14----14------------|--------|---------9-----9-----9-6-6-|-7-6---------5b(5)-2-0-----------|
A|-------------------------14-12-11/0-|--------|---------------------------|------7-----------------2-0------|
E|------------------------------------|--------|---------------------------|--------7-5-4---------------3-0h-|
(4 segundos)

E
But life still goes on, I can't get used to, living without, living without, living without you
A E B A E
by my side, I don't want to live alone, hey. God knows, got to make it on my own.
B A E
So baby can't you see, I've got to break free. I've got to break free, I want to break free, yeah,
I've got to break free, I want to break free, yeah,
I want, I want, I want, I want to break free....
Queen - I Was Born To Love You

Tom: F

F Am A# Dm A# Dm Gm C ( C A# A G)
I was born to love you with every single beat of my heart
F Am A# Dm A# Dm Gm C F
Yes, I was born to take care of you every single day of my life

F
You are the one for me, I am the man for you
Am
You were made for me, you're my ecstacy
A# Gm
If I was given every opportunity I'd kill for your love

C
So take a chance with me
Let me romance with you
Am
I´m caught in a dream
And my dreams come true
Dm
It`s so hard to believe this is
Happening to me
G7 C7
An amazing feeling coming through

Repetir refrão
Bb F
I wanna love you I love every little thing about you
A# C
I wanna love you, love you, love you
F C Bb
Born to love you Born to love you Yes I was born to love you
Queen - Somebody To Love

(capo 1)
G D/F# Em C C D C D G G D/F# Em C D
Can a ny bo dy find me somebody to love?
G D/F# Em G A D
Each morning I get up I die a little Can barely stand on my feet
G D/F# Em A7 D
Take a look in the mirror and cry Lord what you're doing to me
G A D D A7 D C
I have spent all my years in believing you, But I just can't get no relief, Lord!
D A7 D C
But I just can't get no relief, Lord!
G G G D/F# Em C D G G D/F# Em C D
Somebody, somebody, Can anybody find me somebody to love?
G D/F# Em G A D
I work hard every day of my life I work till I ache my bones
G D/F# Em A7 D
At the end I take home my hard earned pay all on my own
G A D D A7 D C
I get down on my knees and I start to pray Till the tears run down from my eyes Lord
G G G D/F# Em C D G G G7
Somebody – somebody Can anybody find me somebody to love?
C C7 F
He works hard everyday I try and I try and I try, but everybody wants to put me down
Fm A
They say I'm goin' crazy they say I got a lot of water in my brain got no common sense
D Dsus4 D Dsus4 D Dsus4 D Dsus4 D
I got nobody left to believe Yeah yeah yeah yeah
(Solo) -Same chords as verses
D G G G D/F# Em C D G
Oh Lord, Somebody somebody Can anybody find me some body to love?
G D/F# Em C D G
Can you find me, find me, someone to love
G D/F# Em G A D
Got no feel I got no rhythm I just keep losing my beat
G D/F# Em A7 D
I'm ok I'm alright (he's alright) Ain't gonna face no defeat
G A D D A7 D C
I just gotta get out of this prison cell someday I'm gonna be free, Lord!
D A7 D C Break (G)
Someday I'm gonna be free, Lord!

G D/F# Em C D G (Outro)
Can anybody find me somebody to love? G D/F# Em C D (a few times)
Que Viva La Huasteca - La Llorona

Intro: Em A E Em B E Em D C B E Em D C B

Em E Am
No sé si el corazón peca, llorona
Em C B
En aras de un tierno amor
Em D
Por una linda tehuana, llorona
C B
Más hermosa que una flor

Em Am
¡ay!, ¡ay!, ¡ay! llorona
Em B
Llorona tú eres mi xunca,
Em D
Me quitarán de quererte, ¡ay! llorona
C B
Pero de olvidarte, nunca

Solo: Em C Em B (2X) Em D C B (2X)

Em Am
Dos besos llevo en el alma, llorona
Em B
Que no se apartan de mí
Em D
El último de mi madre, ¡ay! llorona
C C/G B
Y el primero que te di

Em Am
¡ay! ¡ay! llorona
Em G B
Llorona de azul celeste
Em D
Aunque la vida me cueste, ¡ay! llorona
C C/E B
No dejaré de quererte.

Solo: Em Am C E C E B Em C Am C E B Em C D C B E D C B(2X)

Em Am C
Si porque te quiero quieres, llorona
Em Em/ C B
Quieres que te quiera más
Em D
Te quiero más que a mi vida, llorona
C B
¿qué más quieres?, ¿quieres más?
Radio head - Creep

Intro: G B C Cm

G B
When you´re here before, Couldn´t look you in the eye,
C Cm
You're just like an angel, Your skin makes me cry
G B
You float like a feather, In a beautiful world.
C Cm
I wish I was special, You´re so fucking special.

G B C
But I'm a creep, I'm a weird. What the hell am I doing here?
Cm
I don't belong here…
G B
I don't care if it hurts, I want to have control,
C Cm
I want a perfect body, I want a perfect soul,
G B
I want you to notice, When I´m not around
C Cm
You're so fucking special, I wish I was special

Refrão

G B
She's running out again,
C
She's running out...
Cm ( G B C Cm )
run run run run runnnnn....
G B
Whatever makes you happy, Whatever you want,
C Cm
You're so fucking special, I wish I was special...
Ray Charles - I can´t stop loving you
C F C
1. I can`t stop loving you, I`ve made up my mind,
G C C7
to live in memory of the lonesome time.
F C
I can`t stop wanting you, it`s useless to say,
G G7 C F C
so I`ll just live my life in dreams of yesterday.

C C7 F
2. Those happy hours that we once knew,
C G G7
though long ago, they still make me blue.
C C7 F
They say that time heals the broken heart,
C G G7 C C7
but time has stood still since we`ve been apart.

3. = 1. 4. = 2. 5. = 1
Red Hot Chili Peppers – Aeroplane

Intro: (C4/7 C7)

C4/7 C7 C4/7 C7
I like pleasures spiked with pain, music is my aeroplane, It'm my aeroplane
C4/7 C7 C4/7 C7
Songbird sweet and sour Jane, and music is my aeroplane, It's my aeroplane
Gm7 C7
Pleasure spiked with pain, that a motherfucker always spiked with pain

Gm7 C7 Gm7 C7
Looking im my own eyes, Hello, I can't find the ldove I want
Gm7 C7 Gm7 C7
Someone better slap me, Before I start to rust, before I start to decompose
Gm7 C7
Looking in my rearview mirror (2X)
Gm7 C7 Gm7 C7
I can't make it disappear, I can't make it disappear Have no fear!

Refrão:
Gm7 C7 Gm7 C7
I like pleasures spiked with pain, music is my aeroplane, It's my aeroplane
Gm7 C7 Gm7 C7
Songbird sweet and sour Jane, and music is my aeroplane, It's my aeroplane
Gm7 C7
Pleasure spiked with pain, that a motherfucker always spiked with pain

Gm7 C7 Gm7 C7
Sitting in my kitchen, hey girl, I'm turning into dust again
Gm7 C7 Gm7 C7
My melancholy baby, the star of mazzy must, push her voice inside of me

Gm7 C7 Gm7 C7
I'm overcoming gravity, I'm overcoming gravity
Gm7 C7 Gm7 C7
It's easy when you're sad to be, It's easy when you're sad Sad like me !

Refrão

Eb7+ F Gm
Just one not could make me float Could make me float away
Eb7+ F Gm7
One not from the song she wrote Could fuck me where I lay
Eb7+ F Gm7
Just one not could make me choke one not that's not a lie
Eb7+ F Gm
Just one note could cut my throat, one could make me....me die !

Refrão Solo: (Gm7 C7) Gm7 C7


It's my aeroplane 9x
Red Hot Chili Peppers - Around The World
[Intro]
E|-12--------12--------12--------12--------12----------|
B|-12--------12--------12--------12--------12----------|
G|-14b16-----14b16-----14b16-----14b16-----14b16-------| (6x)
D|-----------------------------------------------------|
A|-----------------------------------------------------|
E|-----------------------------------------------------|

[Primeira Parte]
E|-----------------------------------------------------|
B|-----------------------------------------------------|
G|-----------------------------------------------------| (10x)
D|---3-5-3-5-3-5------3-5-3-5--------------------------|
A|-5----------------5----------------------------------|
E|-----------------------------------------------------|

All around the world we could make time


Rompin' and a stompin' 'cause I'm in my prime
Born in the North and sworn to entertain ya'
'Cause I'm down for the state of Pennsylvania
I try not to whine but I must warn ya'
'Bout the motha' fuckin' girls from California
Alabama baby said Hallelujah
Good God, girl, I wish I knew ya

[Refrão]
E|-----------------------------------------------------|
B|-----------------------------------------------------|
G|---------------------8------------------------10-8---|
D|-8h10--10-10-8-10-10---10-8h10--10-10-8-10-10--------|
A|-----------------------------------------------------|
E|-----------------------------------------------------|

E|-----------------------------------------------------|
B|-----------------------------------------------------|
G|---------------------8-------------------------------|
D|-8h10--10-10-8-10-10---10--------------8----8--------|
A|--------------------------10---10---10---10----------|
E|-----------------------------------------------------|

E|-----------------------------------------------------|
B|-----------------------------------------------------|
G|---------------------8------------------------10-8---|
D|-8h10--10-10-8-10-10---10-8h10--10-10-8-10-10--------|
A|-----------------------------------------------------|
E|-----------------------------------------------------|

E|-----------------------------------------------------|
B|-----------------------------------------------------|
G|---------------------8-------------------------------|
D|-8h10--10-10-8-10-10---10----------------------------|
A|--------------------------10---10--------------------|
E|-----------------------------------------------------|

Refrão
I know, I know for sure, That life is beautiful around the world,
I know, I know it's you, You say hello, And then I say: I do
[Segunda Parte]
Come back baby 'cause I'd like to say I've been around the world, Back from Bombay
Fox hole love Pie in your face Living in and out Of a big fat suitcase
Bonafide ride Step aside my Johnson
Yes I could in the woods of Wisconsin
Wake up the cake It's a lake she's kissin' me
As they do When they do in Sicily

Refrão

[Interlúdio]
E|-12--------12--------12--------12--------12----------|
B|-12--------12--------12--------12--------12----------|
G|-14b16-----14b16-----14b16-----14b16-----14b16-------| (4x)
D|-----------------------------------------------------|
A|-----------------------------------------------------|
E|-----------------------------------------------------|

E|-12--------12--------12--------12---------12---------|
B|-12--------12--------12--------12---------12---------|
G|-14b16-----14b16-----14b16-----14b16-----b16r14------| (4x)
D|-----------------------------------------------------|
A|-----------------------------------------------------|
E|-----------------------------------------------------|

[Terceira Parte]

Where you want to go, who you want to be


What you want to do just come with me
I saw God and I saw the fountains
You and me girl Sitting in the Swiss mountains
Me, oh, My O Me and Guy O
Freer than a bird 'cause we're rocking Ohio
Around the world I feel dutiful, take a wife 'cause life is beautiful

[Refrão]
E|-----------------------------------------------------|
B|-----------------------------------------------------|
G|---------------------8------------------------10-8---|
D|-8h10--10-10-8-10-10---10-8h10--10-10-8-10-10--------|
A|-----------------------------------------------------|
E|-----------------------------------------------------|

E|-----------------------------------------------------|
B|-----------------------------------------------------|
G|---------------------8-------------------------------|
D|-8h10--10-10-8-10-10---10--------------8----8--------|
A|--------------------------10---10---10---10----------|
E|-----------------------------------------------------|

E|-----------------------------------------------------|
B|-----------------------------------------------------|
G|---------------------8------------------------10-8---|
D|-8h10--10-10-8-10-10---10-8h10--10-10-8-10-10--------|
A|-----------------------------------------------------|
E|-----------------------------------------------------|

E|-----------------------------------------------------|
B|-----------------------------------------------------|
G|---------------------8-------------------------------|
D|-8h10--10-10-8-10-10---10--------------8----10/12----|
A|--------------------------10---10---10---10----------|
E|-----------------------------------------------------|

I know, I know for sure, ding deng dong dong ding deng, dong dong ding deng
I know, I know it´s you ding deng dong dong ding deng, dong dong ding deng
E|-----------------------------------------------------|
B|-----------------------------------------------------|
G|---------------------8------------------------10-8-8-|
D|-8h10--10-10-8-10-10---10-8h10--10-10-8-10-10--------|
A|-----------------------------------------------------|
E|-----------------------------------------------------|

E|-----------------------------------------------------|
B|-----------------------------------------------------|
G|---------------------8-------------------------------|
D|-8h10--10-10-8-10-10---10--------------8----8--------|
A|--------------------------10---10---10---10----------|
E|-----------------------------------------------------|

E|-----------------------------------------------------|
B|-----------------------------------------------------|
G|---------------------8-------------------------------|
D|-8h10--10-10-8-10-10---10-8h10--10-10-8-10-10--8h10--|
A|-----------------------------------------------------|
E|-----------------------------------------------------|

E|-----------------------------------------------------|
B|-----------------------------------------------------|
G|---------------------8-------------------------------|
D|-8h10--10-10-8-10-10---10----------------------------|
A|--------------------------10---10--------------------|
E|-----------------------------------------------------|

Mother Russia do not suffer I know you're bold enough


I've been around the world and I have seen your love
I know I know it's you you say hello and then I say: I do

[Final]
E|-13-13-13-13-13-13-13-13-13-13-13-13-13-13-13-13-----|
B|-15-15-15-15-15-15-15-15-15-15-15-15-15-15-15-15-----|
G|-14-14-14-14-14-14-14-14-14-14-14-14-14-14-14-14-----|
D|-----------------------------------------------------|
A|-----------------------------------------------------|
E|-----------------------------------------------------|

E|-13-13-13-13-13-13-13-13-13-13-13-13-13-13-13-13-----|
B|-15-15-15-15-15-15-15-15-15-15-15-15-15-15-15-15-----|
G|-14-14-14-14-14-14-14-14-14-14-14-14-14-14-14-14-----|
D|-----------------------------------------------------|
A|-----------------------------------------------------|
E|-----------------------------------------------------|

E|-15-15-15-15-15-15-15-15-15-15-15-15-15-15-15-15-----|
B|-17-17-17-17-17-17-17-17-17-17-17-17-17-17-17-17-----|
G|-14-14-14-14-14-14-14-14-14-14-14-14-14-14-14-14-----|
D|-----------------------------------------------------|
A|-----------------------------------------------------|
E|-----------------------------------------------------|

E|-17-17-17-17-17-17-17-17-17-17-17-17-17-17-17-17-----|
B|-18-18-18-18-18-18-18-18-18-18-18-18-18-18-18-18-----|
G|-19-19-19-19-19-19-19-19-19-19-19-19-19-19-19-19-----|
D|-----------------------------------------------------|
A|-----------------------------------------------------|
E|-----------------------------------------------------|

E|-13-13-13-13-13-13-13-13-13-13-13-13-13-13-13-13-----|
B|-15-15-15-15-15-15-15-15-15-15-15-15-15-15-15-15-----|
G|-14-14-14-14-14-14-14-14-14-14-14-14-14-14-14-14-----|
D|-----------------------------------------------------|
A|-----------------------------------------------------|
E|-----------------------------------------------------|

E|-13-13-13-13-13-13-13-13-13-13-13-13-13-13-13-13-----|
B|-15-15-15-15-15-15-15-15-15-15-15-15-15-15-15-15-----|
G|-14-14-14-14-14-14-14-14-14-14-14-14-14-14-14-14-----|
D|-----------------------------------------------------|
A|-----------------------------------------------------|
E|-----------------------------------------------------|

E|-15-15-15-15-15-15-15-15-15-15-15-15-15-15-15-15-----|
B|-17-17-17-17-17-17-17-17-17-17-17-17-17-17-17-17-----|
G|-14-14-14-14-14-14-14-14-14-14-14-14-14-14-14-14-----|
D|-----------------------------------------------------|
A|-----------------------------------------------------|
E|-----------------------------------------------------|

E|-17-17-17-17-17-17-17-17-17-17-20-20-20-20-20-20-----|
B|-18-18-18-18-18-18-18-18-18-18-18-18-18-18-18-18-----|
G|-19-19-19-19-19-19-19-19-19-19-19-19-19-19-19-19-----|
D|-----------------------------------------------------|
A|-----------------------------------------------------|
E|-----------------------------------------------------|

E|-13-13-13-13-13-13-13-13-13-13-13-13-13-13-13-13-----|
B|-15-15-15-15-15-15-15-15-15-15-15-15-15-15-15-15-----|
G|-14-14-14-14-14-14-14-14-14-14-14-14-14-14-14-14-----|
D|-----------------------------------------------------|
A|-----------------------------------------------------|
E|-----------------------------------------------------|

E|-13-13-13-13-13-13-13-13-13-13-13-13-13-13-13-13-----|
B|-15-15-15-15-15-15-15-15-15-15-15-15-15-15-15-15-----|
G|-14-14-14-14-14-14-14-14-14-14-14-14-14-14-14-14-----|
D|-----------------------------------------------------|
A|-----------------------------------------------------|
E|-----------------------------------------------------|

E|-15-15-15-15-15-15-15-15-15-15-15-15-15-15-15-15-----|
B|-17-17-17-17-17-17-17-17-17-17-17-17-17-17-17-17-----|
G|-14-14-14-14-14-14-14-14-14-14-14-14-14-14-14-14-----|
D|-----------------------------------------------------|
A|-----------------------------------------------------|
E|-----------------------------------------------------|

E|-17-17-17-17-17-17-17-17-17-17-17-17-17-17-17-17-----|
B|-18-18-18-18-18-18-18-18-18-18-18-18-18-18-18-18-----|
G|-19-19-19-19-19-19-19-19-19-19-19-19-19-19-19-19-----|
D|-----------------------------------------------------|
A|-----------------------------------------------------|
E|-----------------------------------------------------|
E|-13-13-13-13-13-13-13-13-13-13-13-13-13-13-13-13-----|
B|-15-15-15-15-15-15-15-15-15-15-15-15-15-15-15-15-----|
G|-14-14-14-14-14-14-14-14-14-14-14-14-14-14-14-14-----|
D|-----------------------------------------------------|
A|-----------------------------------------------------|
E|-----------------------------------------------------|

E|-13-13-13-13-13-13-13-13-13-13-13-13-13-13-13-13-----|
B|-15-15-15-15-15-15-15-15-15-15-15-15-15-15-15-15-----|
G|-14-14-14-14-14-14-14-14-14-14-14-14-14-14-14-14-----|
D|-----------------------------------------------------|
A|-----------------------------------------------------|
E|-----------------------------------------------------|

E|-15-15-15-15-15-15-15-15-15-15-15-15-15-15-15-15-----|
B|-17-17-17-17-17-17-17-17-17-17-17-17-17-17-17-17-----|
G|-14-14-14-14-14-14-14-14-14-14-14-14-14-14-14-14-----|
D|-----------------------------------------------------|
A|-----------------------------------------------------|
E|-----------------------------------------------------|

E|-17-17-17-17-17-17-17-17-17-17-17-17-----------------|
B|-18-18-18-18-18-18-18-18-18-18-18-18-----------------|
G|-19-19-19-19-19-19-19-19-19-19-19-19-----------------|
D|-----------------------------------------------------|
A|-----------------------------------------------------|
E|-----------------------------------------------------|
Red Hot Chili Peppers – Breaking the girl

Intro. A C/A D/A A

A C/A D/A A
I am a man cut from the know
C/A D/A A
Rarely do friend´s come and then go
C/A D/A A
She was a girl soft but estranged
C/A D/A A
We were the two our lives rearranged

C G Am C G F
Feeling so good that day, a feeling of love that day

Am G C D
Twisting and turning your feelings are burning
E D C G
You´re breaking the girl
Am G C D F
She meant you no harm
Am G C D
Think you´re so clever but now you must sever
E D C G
You´re breaking the girl
Am G C D F
He loves no one else

A C/A D/A A
Raised by my dad girl of the day
C/A D/A A
He was my man that was the way
C/A D/A A
She was the girl left alone
C/A D/A A
Feeling the need to make me her home

C G Am
I don´t know what when or why
C G F
The twilight of love had arrived
Red Hot Chili Peppers – By the way

Introdução:

(Riff da introdução)
E|----------------------------------------------------|
B|----------------------------------------------------|
G|----------------------------------------------------|
D|-10-10-10-10-10-10-10-10-10-10-10-10-10-10-10-10----|
A|----------------------------------------------------|
E|----------------------------------------------------|

E|----------------------------------------------------|
B|----------------------------------------------------|
G|----------------------------------------------------|
D|----------------------------------------------------|
A|-7-7-7-7-7-7-7-7-7-7-7-7-7-7-7-7--------------------|
E|----------------------------------------------------|

Primeira Parte:

(Riff da Primeira Parte)


E|----------------------------------------------------|
B|----------------------------------------------------|
G|----------------------------------------------------|
D|----------------------------------------------------|
A|-5-8-8-8-8-8-8-8------------------------------------|
E|-----------------8-8-8-8-8-8-8-8--------------------|

E|----------------------------------------------------|
B|----------------------------------------------------|
G|-------------------------9-9-7-7--------------------|
D|----------------------------------------------------|
A|-7-7-7-7-7-7-7-7-7-7-7-7----------------------------|
E|----------------------------------------------------|

E|----------------------------------------------------|
B|----------------------------------------------------|
G|----------------------------------------------------|
D|-10-10-10-10-10-10-10-10----------------------------|
A|-------------------------10-10-10-10-10-10-10-10----|
E|----------------------------------------------------|

E|----------------------------------------------------|
B|----------------------------------------------------|
G|----------------------------------------------------|
D|-----------------7-7-7-7-7-7-5-5--------------------|
A|-7-7-7-7-7-7-7-7-7-7-7-7-7-7-5-5--------------------|
E|----------------------------------------------------|

E|----------------------------------------------------|
B|----------------------------------------------------|
G|------------------9--9--9--9--9--9--9--9------------|
D|-3-3-3-3-3-3-3-3-10-10-10-10-10-10-10-10------------|
A|-3-3-3-3-3-3-3-3------------------------------------|
E|----------------------------------------------------|

E|----------------------------------------------------|
B|----------------------------------------------------|
G|-14-14-14-14-14-14-14-14-14-14-14-14-14-14-14-14----|
D|-14-14-14-14-14-14-14-14-14-14-14-14-14-14-14-14----|
A|----------------------------------------------------|
E|----------------------------------------------------|
Standing in line to see the show tonight and there's a light on heavy glow

By the way I tried to say I'll be there, waiting for

Dani the girl is singing songs to me, beneath the marquee, Overload

(Riff – Abafado)
E|----------------------------------------------------|
B|----------------------------------------------------|
G|----------------------------------------------------|
D|-x-x-x-x-x-x-x-x------------------------------------|
A|-x-x-x-x-x-x-x-x------------------------------------|
E|-x-x-x-x-x-x-x-x------------------------------------|

Segunda Parte:
Dm
Steakknife, Card Shark, Con Job, Boot Cut Skin that flick
Dm
She's such a little DJ get there quick by street, but not the freeway
Dm
Turn that trick to make a little leeway
Dm
Beat that nic but not the way that we play
Dm
Dog Town, Blood Bath, Rib Cage, Soft Tail

Primeiro Refrão:

Ponte:
(Riff - Abafado)

Terceira Parte:
Black Jack, Dope Dick, Pawn Shop, Quick Pick
Dm
Kiss that Dyke I know you want to hold one
Dm
Not on strike, but I'm about to bowl one, bite that mic I know you never stole one
Dm
Girls that like a story so I told one
Dm
Song Bird, Main Line, Cash Back, Hard top

Segundo Refrão:
E|----------------------------------------------------|
B|----------------------------------------------------|
G|----------------------------------------------------|
D|-10-10-10-10-10-10-10-10-10-10-10-10-10-10-10-10----|
A|----------------------------------------------------|
E|----------------------------------------------------|

E|----------------------------------------------------|
B|----------------------------------------------------|
G|----------------------------------------------------|
D|----------------------------------------------------|
A|-7-7-7-7-7-7-7-7-7-7-7-7-7-7-7-7--------------------|
E|----------------------------------------------------|

E|----------------------------------------------------|
B|----------------------------------------------------|
G|----------------------------------------------------|
D|----------------------------------------------------|
A|-5-8-8-8-8-8-8-8------------------------------------|
E|-----------------8-8-8-8-8-8-8-8--------------------|

E|----------------------------------------------------|
B|----------------------------------------------------|
G|-------------------------9-9-7-7--------------------|
D|----------------------------------------------------|
A|-7-7-7-7-7-7-7-7-7-7-7-7----------------------------|
E|----------------------------------------------------|

E|----------------------------------------------------|
B|----------------------------------------------------|
G|----------------------------------------------------|
D|-10-10-10-10-10-10-10-10----------------------------|
A|-------------------------10-10-10-10-10-10-10-10----|
E|----------------------------------------------------|

E|----------------------------------------------------|
B|----------------------------------------------------|
G|----------------------------------------------------|
D|-----------------7-7-7-7-7-7-5-5--------------------|
A|-7-7-7-7-7-7-7-7-7-7-7-7-7-7-5-5--------------------|
E|----------------------------------------------------|

E|----------------------------------------------------|
B|----------------------------------------------------|
G|------------------9--9--9--9--9--9--9--9------------|
D|-3-3-3-3-3-3-3-3-10-10-10-10-10-10-10-10------------|
A|-3-3-3-3-3-3-3-3------------------------------------|
E|----------------------------------------------------|

E|----------------------------------------------------|
B|----------------------------------------------------|
G|-14-14-14-14-14-14-14-14-14-14-14-14-14-14-14-14----|
D|-14-14-14-14-14-14-14-14-14-14-14-14-14-14-14-14----|
A|----------------------------------------------------|
E|----------------------------------------------------|

Primeiro Refrão

Of her soul

By the way I tried to say I'd be there Waiting for

Quarta Parte:
Dm (4x)
Dm
Oh ah, kissed ya then I missed ya
Dm
Oh ah, kissed ya then I missed ya
Dm
Oh ah, kissed ya then I missed ya
Dm (Passagem 3)
Oh ah, kissed ya then I missed ya
Dm
Oh ah, kissed ya then I missed ya
Dm
Oh ah, kissed ya then I missed ya
Dm
Oh ah, kissed ya then I missed ya
Dm
Oh ah

Refrão: Of her soul


F C
By the way I tried to say
Am
I know you
Bb
From before

Final: Refrão terminando com “waiting for”


E|----------------------------------------------------|
B|-------13---13---13---13----------------------------|
G|----------------------------------------------------|
D|-x-x-x----x----x----x----x-x------------------------|
A|-x-x-x----x----x----x----x-x------------------------|
E|-x-x-x----x----x----x----x-x------------------------|

E|----------------------------------------------------|
B|-------13-----13-13---13----------------------------|
G|----------------------------------------------------|
D|-x-x-x----x-x-------x----x-x------------------------|
A|-x-x-x----x-x-------x----x-x------------------------|
E|-x-x-x----x-x-------x----x-x------------------------|

E|----------------------------------------------------|
B|-13-13---13-----------------------------------------|
G|----------------------------------------------------|
D|-------x----x-x-------------------------------------|
A|-------x----x-x-------------------------------------|
E|-------x----x-x-------------------------------------|
Red Hot Chili Peppers – Give it away

Tom: D

Introdução:
E|--------------8-----11--------11--------11----------|
B|--------------8-------------------------------------|
G|-------------10b12-----b12r10----b12r10----b12r10---|
D|-7--7-7-7-7-----------------------------------------|
A|-0--0-0-0-0-----------------------------------------|
E|----------------------------------------------------|

E|-11--------11---------------------------------------|
B|----------------------------------------------------|
G|----b12r10----b12r10--------------------------------|
D|----------------------------------------------------|
A|----------------------------------------------------|
E|----------------------------------------------------|

E|--------------8-------------------------------------|
B|--------------8-------------------------------------|
G|-------------10b12----------------------------------|
D|-7--7-7-7-7---------5-5---5-5---5-5---5-5---5-5-----|
A|-0--0-0-0-0-------------3-----3-----3-----3-----3br-|
E|----------------------------------------------------|

Primeira Parte:
E|----------------------------------------------------|
B|----------------------------------------------------|
G|------7-6-5b--------------7--8--9-------------------|
D|----x--------5-5-x-7----7---------------------------|
A|-0--------------------------------------------------|
E|----------------------------------------------------|

E|----------------------------------------------------|
B|----------------------------------------------------|
G|----7-6-5------------------7--5b6-------------------|
D|----------x-5b-x-5-7--------------5b----------------|
A|-0----------------------0---------------------------|
E|----------------------------------------------------|

(variação)
E|----------------------------------------------------|
B|----------------------------------------------------|
G|------7-6-5h6--------------7--8--9------------------|
D|----x---------5-5-x-7----7--------------------------|
A|-0-----------------------0--------------------------|
E|----------------------------------------------------|

E|----------------------------------------------------|
B|----------------------------------------------------|
G|----7-6-5------------------7--5b6-------------------|
D|----------x-5b-x-5-7----7---------5b----------------|
A|-0----------------------0---------------------------|
E|----------------------------------------------------|

What I've got, you've got to give it to your mamma


What I've got, you've got to give it to your pappa
What I've got, you've got to give it to your daughter you do a little dance
and then you drink a little water
What I've got, you've got to get it put it in you (3X)
Reeling with the feeling don't stop continue

Realize I don't want to be a miser, confide with sly you'll be the wiser
Young blood is the lovin' upriser, how come everybody wanna keep it like the kaiser

Primeiro Refrão:
E|----------------------------------------------------|
B|----------------------------------------------------|
G|----------------------------------------------------|
D|-7-7-7-7-7-7-7-7-7-7-7-7-7-7-7-7...-----------------|
A|-0-0-0-0-0-0-0-0-0-0-0-0-0-0-0-0...-----------------|
E|----------------------------------------------------|

E|-8-8---7-7---7-5------------------------------------|
B|-8-8---7-7---7-5------------------------------------|
G|----------------------------------------------------|
D|-----7-----7-----7-7-7-7-7-7-7-7-7-7...-------------|
A|-----0-----0-----0-0-0-0-0-0-0-0-0-0...-------------|
E|----------------------------------------------------|

E|-8--8--8--8--8--8--8--8-----------------------------|
B|-8--8--8--8--8--8--8--8-----------------------------|
G|-7b-7b-7b-7b-7b-7b-7b-7b----------------------------|
D|----------------------------------------------------|
A|----------------------------------------------------|
E|----------------------------------------------------|

Give it away, give it away, give it away now, Give it away, give it away, give it away now
Give it away, give it away, give it away now, I can't tell if I'm a kingpin or a pauper

Segunda Parte:
Greedy little people in a sea of distress, Keep your more to receive your less
Unimpressed by material excess, Love is free love me say hell yes

I'm a low brow but I rock a little know how, No time for the piggies or the hoosegow
Get smart get down with the pow wow, Never been a better time than right now

Bob Marley poet and a prophet, Bob Marley taught me how to off it
Bob Marley walkin' like he talk it, Goodness me can't you see I'm gonna cough it

Segundo Refrão:
E|-----------------------------------------------------8-8---7-7---7-5-|
B|-----------------------------------------------------8-8---7-7---7-5-|
G|---------------------------------------------------------------------|
D|-7-7-7-7-7-7-7-7-7-7-7-7-7-7-7-7...----------------------7-----7-----|
A|-0-0-0-0-0-0-0-0-0-0-0-0-0-0-0-0...----------------------0-----0-----|
E|---------------------------------------------------------------------|

E|-8.../17...-----------------------------------------|
B|-8.../17...-----------------------------------------|
G|----------------------------------------------------|
D|--------------------------------------------------7-|
A|--------------------------------------------------0-|
E|----------------------------------------------------|
Give it away, give it away, give it away now (6X)
I can't tell if I'm a kingpin or a pauper

Interlúdio: (Solo - Reverse)

(Base)
E|-----------------------------------------------------19-19...\---|
B|-----------------------------------------------------19-19...\---|
G|-9-9-9-9-9-9-9-9-9-9-9-9-9-9-9-9...------------------19-19...\---|
D|-7-7-7-7-7-7-7-7-7-7-7-7-7-7-7-7...------------------------------|
A|-0-0-0-0-0-0-0-0-0-0-0-0-0-0-0-0...------------------------------|
E|-----------------------------------------------------------------|

Terceira Parte:

Lucky me swimmin' in my ability, Dancin' down on life with agility


Come and drink it up from my fertility, Blessed with a bucket of lucky mobility

My mom I love her 'cause she love me, Long gone are the times when she scrub me
Feelin' good my brother gonna hug me, Drink my juice young love chug-a-lug me

There's a river born to be a giver, Keep you warm won't let you shiver
His heart is never gonna wither, Come on everybody time to deliver

Segundo Refrão:

Give it away, give it away, give it away now (3X)


I can't tell if I'm a kingpin or a pauper

Interlúdio 2: (Solo - Reverse)

Quarta Parte: Canto inicial

Terceiro Refrão:
E|--------------8------8------8-----------------------|
B|--------------8------8------8-----------------------|
G|-------------10b12--10b12--10b12--------------------|
D|-7--7-7-7-7-----------------------------------------|
A|-0--0-0-0-0-----------------------------------------|
E|----------------------------------------------------|

E|-------------8.../-20...----------------------------|
B|-------------8.../-20...----------------------------|
G|----------------------------------------------------|
D|-7--7-7-7-7-----------------------------------------|
A|-0--0-0-0-0-----------------------------------------|
E|----------------------------------------------------|

E|--------------8------8------8-----------------------|
B|--------------8------8------8-----------------------|
G|-------------10b12--10b12--10b12--------------------|
D|-7--7-7-7-7-----------------------------------------|
A|-0--0-0-0-0-----------------------------------------|
E|----------------------------------------------------|

E|-------------8.../-20...----------------------------|
B|-------------8.../-20...----------------------------|
G|----------------------------------------------------|
D|-7--7-7-7-7-----------------------------------------|
A|-0--0-0-0-0-----------------------------------------|
E|----------------------------------------------------|

E|----------10--9--8----------------------------------|
B|----------------------------------------------------|
G|----------7---6--5----------------------------------|
D|-7--7-7---------------------------------------------|
A|-0--0-0---------------------------------------------|
E|----------------------------------------------------|

E|----------10--9\8-----------------------------------|
B|----------------------------------------------------|
G|----------7---6\5-----------------------------------|
D|-7--7-7---------------------------------------------|
A|-0--0-0---------------------------------------------|
E|----------------------------------------------------|

E|-/15-15-0-15-0-0-15-15\-----------------------------|
B|-/15-15-0-15-0-0-15-15\-----------------------------|
G|----------------------------------------------------|
D|----------------------------------------------------|
A|----------------------------------------------------|
E|----------------------------------------------------|

(Variações)
E|-20-20-17--20-20-17--20-20-17--20-20-17--20-20-17---|
B|-20-20-17--20-20-17--20-20-17--20-20-17--20-20-17---|
G|----------------------------------------------------|
D|----------------------------------------------------|
A|----------------------------------------------------|
E|----------------------------------------------------|

(Guitarra 2)

E|----------------------------------------------------|
B|----------------------------------------------------|
G|-2--2-2--7--6--5----------5-------------------------|
D|-2--2-2--7--6--5--x-x-x-x-5-------------------------|
A|-0--0-0--5--4--3--x-x-x-x-3-------------------------|
E|------------------x-x-x-x---------------------------|

E|----------------------------------------------------|
B|----------------------------------------------------|
G|-2--2-2--7--6--5--5-5-5-5-7-------------------------|
D|-2--2-2--7--6--5--5-5-5-5-7-------------------------|
A|-0--0-0--5--4--3--3-3-3-3-5-------------------------|
E|----------------------------------------------------|

E|----------------------------------------------------|
B|----------------------------------------------------|
G|-2--2-2--7--6--5------------------------------------|
D|-2--2-2--7--6--5--x-x-x-x---------------------------|
A|-0--0-0--5--4--3--x-x-x-x---------------------------|
E|------------------x-x-x-x-3b------------------------|
Red Hot Chili Peppers - If You Have To Ask

Tom: C

Intro and verse :


E|-x-x-x-x-x-x-x-x-x-x-x-x-x-
B|-6-x-x-6-x-x-6-x-x-6-x-x-6-
G|-5-x-x-5-x-x-5-x-x-5-x-x-5- X4
D|---------------------------
A|---------------------------
E|---------------------------

E|-7-7-
B|-6-6-
G|-5-5-
D|-----
A|-----
E|-----

Chorus :
E|------------------------------------------
B|-------10/13------------------------------
G|--------------8/12------------------------
D|-8-10----------------8-10-----8---8---8---
A|------------------------------------------
E|------------------------------------------

Break :
E|-----------------------
B|-10--9--8--5--6--3--6--
G|-10--9--8--3--7--1--5--
D|-9---8--7--5--5--3--4--
A|-10--9--8--3--6--1--5--
E|-----------------------

Solo (não sei se está certo, mas é mais ou menos assim):


E|---------------------------------------------------------------
B|---------------------------------------------------------------
G|-13p12p10-12-12^--------------13p12p10-----12/14-12------------
D|----------------------------------------12---------------------
A|---------------------------------------------------------------
E|---------------------------------------------------------------

E|---------------------------------------------------------------
B|-13p12p10-------10---10---10---10------------------------------
G|----------12^-----12^--12^--12^--12^---------------------------
D|---------------------------------------------------------------
A|-------------------------------------------11p10p8-------------
E|---------------------------------------------------10-8(/0)----

E|---------------------------------------------------------------
B|-------13-15---------------------------------------13-15-13----
G|--12^---------12^--12--12-14-12-10-12-10-12-12/14-14------------
D|---------------------------------------------------------------
A|---------------------------------------------------------------
E|---------------------------------------------------------------

E|---------------------------------------------------------------
B|---------------------------------------------------------------
G|-14-12^-12-10-12-10-12-12^*-----12p10--10----------------------
D|-------------------------------------12--12-10-----------------
A|-----------------------------------------------12-10--10p12----
E|----------------------------------------------------12---------
*=varias vezes com a corda erguida e volta ela devagar, mas tocando varias vezes ainda

E|-------------------------- ---------------------------
B|-------------------------- -13^-13--------------------
G|--------------------------(4x) --------12p14p12-10-12^----
D|----------10-10-10-12-12-- ---------------------------
A|-12-12-12----------------- ---------------------------
E|-------------------------- ---------------------------

E|---------------------------------
B|---------------------------------
G|--10-----------------------------
D|-----12-11-10--------------------
A|--------------12-11-10-9---------
E|---------------------------------

Outro :

The same as the intro and finish with :

!------------------------
!------------------------
!-5^7--5-----------------
!---------75-3-----------
!---------------5--3^5---
!------------------------
Red Hot Chili Peppers - Otherside
(partes)
Intro: (1) (2) (3) (4)
E|------------|-----------|-----------|-----------|-----------|---------|
B|----------0-|-----------|-----------|-----------|-----------|---------|
G|------2-2---|-2-0-------|-----------|-2-2-4-2-0-|-----------|---------|
D|-2-2-2------|-----2-2-0-|-2-2---2---|-----------|-2-2---2---|--0-0-0--|
A|------------|-----------|-0-0-0-0---|-----------|-3-3-3-3---|---------|
E|------------|-----------|---------3-|-1-1-1-1-1-|---------0-|--3-3-3--|

(variações da intro)
(parte)
(1) (2)
E|-----------||0-0---0-------------|
B|-----------||----------0-0---0---|
G|-----------||--------------------|
D|-0-0---0---||--------------------|
A|-----------||3-3-3-3-------------|
E|-3-3-3-3-3-||--------0-3-3-3-3-3-|

(primeira parte - repetir a intro cantando junto)

How long, how long will I slide? Separate my side


I don't, don't believe it's bad, Slittin' my throat it's all I ever

(segunda parte)
(1) (2)
|-----3-------|
|-------5-----|
↓ X ; |-2/4-----4---|
|-------------|
|-------------|
|-------------|

Am Em Am Em
I heard your voice through a photograph, I thought it up and brought up the past
Am Em G A
Once you know you can never go back, I've got to take it on the otherside
Am Em Am Em
Centuries are what it meant to me, A cemetery where I marry the sea
Am Em G A
Stranger things never change my mind, I've got to take it on the otherside
G A G A
Take it on the otherside, Take it on, Take it on

Refrão:
Am F C G Am F C
How long, how long will I slide? Separate my si...de I don't
G Am F C G
I don't believe it's ba...d Slittin' my throat It's all I ever

Terceira parte:
Am Em Am Em
Pour my life into a paper cup, The ashtray's full and I'm spitting' my guts
Am Em G A
She wants to know am I still a slut, I've got to take it on the otherside
Am Em Am Em
Scarlet starlet and she's in my bed, A candidate for my soul mate bled
Am Em G A
Push the trigger and pull the thread, I've got to take it on the otherside
G A G A
Take it on the otherside, Take it on, Take it on

Refrão:

Quarta parte:
E|--------------------------------------------|
B|--------------------------------------------|
G|-9-9-7/9-9-9-7/9---------9-7/9-12-12-11-9-7-|
D|-------------------2-4-5--------------------|
A|-7-7-5/7-7-7-5/7---0-2-3-7-5/7-10-10-9--7-5-|
E|-----------------3--------------------------|

Turn me on take me for a hard ride, Burn me out leave me on the otherside
I yell and tell it that, It's not my friend
I tear it down I tear it down, And then it's born again

Am F C G

Refrão:
Refrão Final:
Red Hot Chili Peppers - Road Trppin'

[Intro] Em C B

Em C B
Road trippin' with my two favorite allies
Em C B
Fully loaded we got snacks and supplies
Em C B
It's time to leave this town, It's time to steal away
Em C B
Let's go get lost, Anywhere in the U.S.A.
Em C B
Let's go get lost, Let's go get lost

Blue you sit so pretty West of the one


Sparkles light with yellow icing Just a mirror for the sun
Just a mirror for the sun, Just a mirror for the sun

[Am Bm C G/D]

Am Bm C G/D
These Smiling eyes are just a mirror for

So much as come before those battles lost and won


This life is shining more forever in the sun
Now let us check our heads, And let us check the surf
Staying high and dry's, More trouble than it's worth
In the sun, Just a mirror for the sun
Just a mirror for the sun, Just a mirror for the sun

[Am Bm C G/D]

Am Bm C G/D
These Smiling eyes are just a mirror for

[Em A C D] [Em A C F#º] [Em A C D]

[Em A C F#º D#º Cº Aº F#º D#º]

In Big Sur we take some time to linger on


We three hunky dory's got our snakefinger on
Now let us drink the stars, It's time to steal away
Let's go get lost, Right here in the U.S.A

These smiling eyes are just a mirror for, These smiling eyes are just a mirror for
Your smiling eyes are just a mirror for
Em
[Intro e Verso]
E|----3--------3--------3-----------------------------------------|
B|--------0---------0-----------5------4--------4-----------------|
G|----------------------------------0------0----------------------|
D|--2---2----2---2----2---2---------------------------------------|
A|----------------------------3---3----2--2---2---2---------------|
E|----------------------------------------------------------------|

[Refrão]

E|--0-----------0-------------------------------------7-----7-----|
B|--------1------------3----------3-----5--------5------8-----8---|
G|---------------------------0---------------0------------7-----7-|
D|----------------------------------------------------0-----------|
A|--0--0-----0-----0---2---2---2----2---3--3---3---3--------------|
E|----------------------------------------------------------------|

[Solo]

Em7 A7 C D#º
E|----------------------------------------------------------------|
B|-8-------8-------------5-------5--7-------7---------------------|
G|-----7------6-------6------5----------5-------------------------|
D|---9------------5--------5----------7---------------------------|
A|-7-----7------7--------3-----3----6-----6-----------------------|
E|------------5-----5---------------------------------------------|

Em7 A7 C F#º
E|----------------------------------5--------5--------------------|
B|-8-------8-------------5-------5-------4------------------------|
G|-----7------6-------6------5------------------------------------|
D|---9------------5--------5--------4--4---4---4------------------|
A|-7-----7------7--------3-----3----------------------------------|
E|------------5-----5---------------------------------------------|

Em7 A7 C D#º
E|----------------------------------------------------------------|
B|-8-------8-------------5-------5--7-------7---------------------|
G|-----7------6-------6------5----------5-------------------------|
D|---9------------5--------5----------7---------------------------|
A|-7-----7------7--------3-----3----6-----6-----------------------|
E|------------5-----5---------------------------------------------|

Em7 A7 C F#º D#º Cº Aº F#º D#º


E|----------------------------------5--------5-------5-------5---------14---11---8---5---2-|
B|-8-------8-------------5-------5-------4-------4-------4-------4-----13---10---7---4---1-|
G|-----7------6-------6------5-------------------------------------------------------------|
D|---9------------5--------5--------4--4---4---4---4---4---4---4---4---13---10---7---4---1-|
A|-7-----7------7--------3-----3-----------------------------------------------------------|
E|------------5-----5----------------------------------------------------------------------|

E|-----------------------------------------------------------------------------------------|
B|-------------------------------------7--8--8--5--7--10--10--8--8--7--7----7--------------|
G|----6--5--2--------4--6--9--9--5--8-------------------------------------7----------------|
D|-5-----------5--7------------------------------------------------------------------------|
A|-----------------------------------------------------------------------------------------|
E|-----------------------------------------------------------------------------------------|
Red Hot Chili Peppers – Scar Tisue

Intro: F Dm
F Dm
E|-----------------------------------------------------|
B|----10---10---10---10--5--5/6--6----6---6---6\5------|
G|-----------------------------------------------------|
D|-----------------------------------------------------|
A|-8-----8----8----8-----3--3/5-----5---5---5-----3----|
E|-----------------------------------------------------|

F Dm
E|-----------------------------------------------------|
B|----10---10---10---10---8--5/6----8p6-8p6------------|
G|-----------------------------------------------------|
D|-----------------------------------------------------|
A|-8-----8----8----8----x----3/5-----------------------|
E|-----------------------------------------------------|

Primeira Parte:
F Dm
E|-----------------------------------------------------|
B|----10---10---10---10--5--5/6--6----6---6---6\5------|
G|-----------------------------------------------------|
D|-----------------------------------------------------|
A|-8-----8----8----8-----3--3/5-----5---5---5-----3----|
E|-----------------------------------------------------|

F Dm
E|-------------------8---------------------------------|
B|----10---10---10------10-8--8/10--10---10--8--6--5---|
G|-----------------------------------------------------|
D|----------------------------0--------0---------------|
A|-8-----8----8----8-----------------------------------|
E|-----------------------------------------------------|

F Dm F
Scar tissue that I wished you saw, sarcastic Mister Know-it-All
Dm
Close your eyes and I'll kiss you 'cause, with the birds I'll share

Refrão:
F C Dm C F
With the birds I'll share this lo__nely view
C Dm C
With the birds I'll share, this lo__nely view

Segunda Parte:
F Dm
E|-----------------------------------------------------|
B|----10---10---10---10--5--5/6--6----6---6---6\5------|
G|-----------------------------------------------------|
D|-----------------------------------------------------|
A|-8-----8----8----8-----3--3/5-----5---5---5-----3----|
E|-----------------------------------------------------|

F Dm
E|-------------------10--8---------------13--12--10--8-|
B|----10---10---10----------8-8/10--10-----------------|
G|-----------------------------------------------------|
D|----------------------------0--------0---------------|
A|-8-----8----8----8-----------------------------------|
E|-----------------------------------------------------|

F Dm F
Push me up against the wall, young Kentucky Girl in a push-up bra
Dm
Fallin' all over myself, to lick your heart and taste you health 'cause

Refrão:
Primeiro Solo: Dm C Dm
E|-----------------------------------------------------|
B|-13\--10~~\----10\--8~~--8/--10~~----10/-12/-13~~----|
G|-----------------------------------------------------|
D|-----------------------------------------------------|
A|-----------------------------------------------------|
E|-----------------------------------------------------|

Terceira Parte:
F Dm
E|-----------------------------------------------------|
B|----10---10---10---10--5--5/6--6----6---6-8p6-8p6----|
G|-----------------------------------------------------|
D|-----------------------------------------------------|
A|-8-----8----8----8-----3--3/5-----5---5--------------|
E|-----------------------------------------------------|

F Dm
E|-------------------8---------------------------------|
B|----10---10---10------10--8-8/10--10---12--13--12--10|
G|-----------------------------------------------------|
D|----------------------------0--------0---------------|
A|-8-----8----8----8-----------------------------------|
E|-----------------------------------------------------|

F Dm F
Blood loss in a bathroom stall, southern girl with a scarlet drawl
Dm
Wave good-bye to ma and pa 'cause, with the birds I'll share

Refrão:

Quarta Parte:
F Dm
E|-----------------------------------------------------|
B|----10---10---10---10--5--5/6--6----6---6---6\5------|
G|-----------------------------------------------------|
D|-----------------------------------------------------|
A|-8-----8----8----8-----3--3/5-----5---5---5-----3----|
E|-----------------------------------------------------|

F Dm
E|-------------------8------------------12--10--8------|
B|----10---10---10------10-8--8/10-10-------------10---|
G|-----------------------------------------------------|
D|----------------------------0-------0----------------|
A|-8-----8----8----8-----------------------------------|
E|-----------------------------------------------------|

F Dm F
Saw spoken with a broken jaw, step outside but not to brawl in
Dm
Autumn's sweet we call it fall, I'll make it to the moon if I have to crawl and

Refrão:

Segundo Solo: D5 C5 D5
E|-----------------------------------------------------|
B|-13/15~~--15\-13\-10~~---10\-8~~--13~~\-10~~---------|
G|-----------------------------------------------------|
D|-----------------------------------------------------|
A|-----------------------------------------------------|
E|-----------------------------------------------------|

E|-----------------------------------------------------|
B|-13/15~~--17-13\-10~~--10/13\10-8~~--13\-10~~--------|
G|-----------------------------------------------------|
D|-----------------------------------------------------|
A|-----------------------------------------------------|
E|-----------------------------------------------------|

E|-10/--12/--13~~--------------------------------------|
B|-----------------------------------------------------|
G|-----------------------------------------------------|
D|-----------------------------------------------------|
A|-----------------------------------------------------|
E|-----------------------------------------------------|

Quinta Parte:
F Dm
E|-----------------------------------------------------|
B|----10---10---10---10--5--5/6--10---10---10---10\8---|
G|-----------------------------------------------------|
D|-----------------------------------------------------|
A|-8-----8----8----8-----3--3/5-----8----8----8--------|
E|-----------------------------------------------------|

F Dm
E|----------------------8------------------------------|
B|-8/10--10---10---10------10-8--8/10--10---10--8--6--5|
G|-----------------------------------------------------|
D|-------------------------------0--------0------------|
A|----------8----8----8--------------------------------|
E|-----------------------------------------------------|

F Dm F
Scar tissue that I wished you saw, sarcastic mister know it all
Dm
Close your eyes and I'll kiss you 'cause, with the birds I'll share

Refrão:

Terceiro Solo: D5 C5 D5
E|-/17~~--17\-15~~--15/17\-12~~------------------------|
B|--------------------------------17/18\-15~~\---------|
G|-----------------------------------------------------|
D|-----------------------------------------------------|
A|-----------------------------------------------------|
E|-----------------------------------------------------|

E|-----------------------------------------------------|
B|-13/15-15\13-13/15-15~~--15\-13\10--10/13\--8~~------|
G|-----------------------------------------------------|
D|-----------------------------------------------------|
A|-----------------------------------------------------|
E|-----------------------------------------------------|

E|-----------------------------------------------------|
B|-10/13\-10~~-----------------------------------------|
G|--------------7/9\7--/14~~-14~--14~--14~---7/9\7-----|
D|-----------------------------------------------------|
A|-----------------------------------------------------|
E|-----------------------------------------------------|

E|-----------------------------------------------------|
B|-----------------------------------------------------|
G|-7/9\-5~~--5/7--2~~----------------------------------|
D|-----------------------------------------------------|
A|-----------------------------------------------------|
E|-----------------------------------------------------|

E|-----------------------------------------------------|
B|-8/10~~--18\17--17--13~--13/15\13-10~---10/13\8/10~~-|
G|-----------------------------------------------------|
D|-----------------------------------------------------|
A|-----------------------------------------------------|
E|-----------------------------------------------------|
Red Hot Chili Peppers - The Zephyr Song

Introdução: Am7 G7 Em F Am G Em F7M

Am7 G7 Em F Am G Em F7M
E|----------------------------------------------------------------------------------|
B|-----8--------6------------------------------5--------3-----------------5---------|
G|---5--------4----------4--------5----------5--------4----------4--------5---------|
D|-7--------5----------5--------7----------7--------5----------5--------7-----------|
A|-------------------7--------8------------------------------7--------8-------------|
E|----------------------------------------------------------------------------------|

Primeira Parte:
Am G Em F
E|----------------------------------------------------------------------------|
B|-----5----8--6--5------3---6-5-3--------------------------------------------|
G|---5---5-------------4---4-------------4----7--5--4------5-7/9-7-5-4/5------|
D|-7-----------------5-----------------5---5-------------7--------------------|
A|-----------------------------------7-----------------8----------------------|
E|----------------------------------------------------------------------------|

Am G Em F
E|-------------5--0-----------------------------------------------------------|
B|-----5----8------------3---6-5-3---------------5----------------------------|
G|---5---5-------------4---4-------------4----7-----5----4-5---4-5------------|
D|-7-----------------5-----------------5---5----------------------------------|
A|-----------------------------------7-----------------8-----8----------------|
E|----------------------------------------------------------------------------|

Am G
Can I get your hand to write on, just a piece of leg to bite on
Em F
What a nipe to fly my kite on, do you want to flash a light on
Am G Em F
Take a look it's on display for you, coming down, no not today
Am G Em F
E|----------------------------------------------------------------------------|
B|-----5----8--6--5------3---6-5-3--------------------------------------------|
G|---5---5-------------4---4-------------4----7--5--4------5-7/9-7-5----------|
D|-7-----------------5-----------------5---5-------------7--------------------|
A|-----------------------------------7-----------------8----------------------|
E|----------------------------------------------------------------------------|

Am G Em F
E|-------------5--0-----------------------------------------------------------|
B|-----5----8------------3---6-5-3---------------5----------------------------|
G|---5---5-------------4---4-------------4----7-----5----4-5---4-5------------|
D|-7-----------------5-----------------5---5----------------------------------|
A|-----------------------------------7-----------------8-----8----------------|
E|----------------------------------------------------------------------------|

Am G
Did you meet your fortune teller, get it off with no propeller
Em F
Do it up it's on with stellar, what a way to finally smell her
Am G Em F
Pickin’ up but not too strong for you, take a piece and pass it on
Primeiro Refrão:
D G A
Fly away on my Zephyr, I feel it more than ever
D G A Am G Em F
And in this perfect weather, we’ll find a place together, fly on my wind
Am G Em F
E|----------------------------------------------------------------------------|
B|-----5----8--6--5------3---6-5-3--------------------------------------------|
G|---5---5-------------4---4-------------4----7--5--4------5-7/9-7-5-4/5------|
D|-7-----------------5-----------------5---5-------------7--------------------|
A|-----------------------------------7-----------------8----------------------|
E|----------------------------------------------------------------------------|
Segunda Parte:
Am G Em F
E|-----------------------------------------------------------------------------|
B|-----5----8--6--5------3---6-5-3-5-------------------------------------------|
G|---5---5-------------4---4--------------4----7--5--4------5-7/9-7-5-7/9------|
D|-7-----------------5------------------5---5-------------7--------------------|
A|------------------------------------7-----------------8----------------------|
E|-----------------------------------------------------------------------------|

Am G Em F
E|-------------5--0-----------------------------------------------------------|
B|-----5----8------------3---6-5-3---------------5----------------------------|
G|---5---5-------------4---4-------------4----7-----5----4-5---4-5------------|
D|-7-----------------5-----------------5---5----------------------------------|
A|-----------------------------------7-----------------8-----8----------------|
E|----------------------------------------------------------------------------|

Am
Rebel and a liberator
G
Find a way to be a skater
Em
Rev it up to levitate her
F
Super friendly aviator
Am G
Take a look it's on display
Em
For you comin’ down
F
No not today

Segundo Refrão:

D
Fly away on my zephyr
G A
I feel it more than ever
D
And in this perfect weather
G A
We’ll find a place together

D
In the water where

I center my emotion
G A G A
All the world can pass me by
D
Fly away on my zephyr
G A
We’ll find a place together

Solo:
E|-12--10--12-12~---12----10--12-----------------------|
B|--------------------------------12b13r12--10---------|
G|-----------------------------------------------------|
D|-----------------------------------------------------|
A|-----------------------------------------------------|
E|-----------------------------------------------------|

E|-10--8--10-10~---10-x----10--12----------------------|
B|---------------------------------12b13r12--10--------|
G|-----------------------------------------------------|
D|-----------------------------------------------------|
A|-----------------------------------------------------|
E|-----------------------------------------------------|

E|-12--10--12-12~---12----10--12-----------------------|
B|--------------------------------12b13r12--10---------|
G|-----------------------------------------------------|
D|-----------------------------------------------------|
A|-----------------------------------------------------|
E|-----------------------------------------------------|

E|-10--8--10-10~---10-8----10--x-----------------------|
B|---------------------------------12b13r12--10--5-----|
G|-----------------------------------------------------|
D|-----------------------------------------------------|
A|-----------------------------------------------------|
E|-----------------------------------------------------|

Terceira Parte:

Am9
Whoa, whoa, whoa, whoa
G9
Whoa, whoa, whoa, do you
Em
Yeah, yeah, yeah, yeah
F7M
Yeah, yeah, yeah
Am9
Whoa, whoa, whoa, whoa
G9
Whoa, whoa, whoa, won't you?
Em
Yeah, yeah, yeah, yeah
F7M
Yeah, yeah, yeah

Terceiro Refrão:

D
Fly away on my zephyr
G A
I feel it more than ever
D
And in this perfect weather
G A
We’ll find a place together
D
In the water where

I center my emotion
G A G A
All the world can pass me by
D
Fly away on my zephyr
G A
We gonna live forever

Final: D G A (4x)
G A D

(Parte 1)

D
E|-14-------14-------14-------14-------14---|
B|-------15-------15-------15-------15----15|
G|----14-------14-------14-------14---------|
D|------------------------------------------|
A|------------------------------------------|
E|------------------------------------------|
G A
E|-----------15--------15--------------17---|
B|--------15--------15----15--------17------|
G|-14--16--------16----------16--18---------|
D|------------------------------------------|
A|------------------------------------------|
E|------------------------------------------|

E|-------17---------------------------------|
B|----17------------------------------------|
G|-18---------------------------------------|
D|------------------------------------------|
A|------------------------------------------|
E|------------------------------------------|

(Parte 2)
D
E|-------14-------14-------14-------14------|
B|----15-------15-------15-------15-------15|
G|-14-------14-------14-------14-------14---|
D|------------------------------------------|
A|------------------------------------------|
E|------------------------------------------|
G A
E|-14-14--------15-------15--------------17-|
B|-----------15-------15----15--------17----|
G|--------16-------16----------16--18-------|
D|------------------------------------------|
A|------------------------------------------|
E|------------------------------------------|

E|-------17---------------------------------|
B|----17------------------------------------|
G|-18---------------------------------------|
D|------------------------------------------|
A|------------------------------------------|
E|------------------------------------------|

(Parte 3)
D
E|-------14-------14-------15-------14------|
B|----15-------15-------15----15-------15---|
G|-14-------14-------14----------14-------14|
D|------------------------------------------|
A|------------------------------------------|
E|------------------------------------------|
G A
E|-14-14--------15-------15--------------17-|
B|-----------15-------15----15--------17----|
G|--------16-------16----------16--18-------|
D|------------------------------------------|
A|------------------------------------------|
E|------------------------------------------|

E|-------17---------------------------------|
B|----17------------------------------------|
G|-18---------------------------------------|
D|------------------------------------------|
A|------------------------------------------|
E|------------------------------------------|

(Parte 4)
D
E|-------14-------14-------15-------14------|
B|----15-------15-------15----15-------15---|
G|-14-------14-------14----------14-------14|
D|------------------------------------------|
A|------------------------------------------|
E|------------------------------------------|
G A
E|-14-14--------15-------15--------17-------|
B|-----------15-------15----15-----17-------|
G|--------16-------16----------16--18-------|
D|------------------------------------------|
A|------------------------------------------|

(Parte 5)
G A D
E|-15--17--17-------------------------------|
B|-15--17--19-------------------------------|
G|-16--18--19-------------------------------|
D|---------0--------------------------------|
A|------------------------------------------|
E|------------------------------------------|
Red Hot Chili Peppers - Under The Bridge
Tom: A

Introdução:
D F#
E|-----------------------------------------
B|3----------3------------------------------
G|-----2------2---------------------3------
D|---4----4----------------------4------4---
A|5-------------4--2----------4---4--------
E|--------------------5-4--2---------------

D
E|-----------------------------------------
B|------------------------3h5p3-----------------
G|-------------------2----------2-----------
D|4--2-----------4-----4----------4/6-6-------
A|-----5--2--4h5---5--------------5/7-7---------
E|-----------------------------------------

F# D
E|-----------------------------------------
B|-----------------------------------3-------
G|--------3----------------------2-----2----
D|----4-----4--4--2----------4-----4---------
A|--4---4-----------5--2-4h5---5-------------
E|2----------------------------------------

F#
E|-----------------------------------------
B|-----------------------------------------
G|-----------------3-----------------------
D|-------------4-----4---------------------
A|4--2-------4---4-------------------------
E|-----5-4-2-------------------------------

D
E|-----------------------------------------
B|------------------------3h5p3------------
G|------------------2-----------2-------
D|4--2----------4-------4----------4/6-6---------
A|-----5--2--4h5---5---------------5/7-7---------
E|-----------------------------------------

F#
E|-----------------------------------------
B|-----------------------------------------
G|--------3--------------------------------
D|----4-----4------------------------------
A|--4---4------4---------------------------
E|2----------------------------------------

E B
Sometimes I feel
C#m G#m A
Like I don't have a partner
E B
Sometimes I feel
C#m A E B
Like my only friend is the city I live in
C#m G#m A
The city of angels
E B
Lonely as I am
C#m A E7M
Together we cry
E B
I drive on her streets
C#m G#m A
'Cause shes' my companion
E B
I walk through her hills
C#m A
'Cause she knows who I am
E B
She sees my good deeds
C#m G#m A
And she kisses me windy
E B
I never worry
C#m A E7M
Now that is a lie

Refrão:
F#m E B
I don't ever want to feel
F#m
Like I did that day
E B
Take me to the place I love
F#m
Take me all the way

passagem:
E B
E|-----------------------------------------
B|9--10--7--9p7---7--9p7--7--7-------------
G|9--9---8--8-----8--8----8--8-------------
D|9--9---9--9-----9--9----9--9-------------
A|7--7--------------------------------------
E|-----------------------------------------
↓ ↑ ↓ ↑ ↑ ↓ ↓ ↑

C#m G#m A E
E|-------------------5h7p5-----------------
B|------9-----4--5---------5--------9----9-
G|------9-----4--6------------------9----9-
D|9/11----11--6--7------------------9----9-
A|----------------------------9/11----11---
E|-----------------------------------------

B C#m A
E|-----------------------------------------
B|7----------------------------5-----------
G|8----8h9p8---------9--11b13--6-----------
D|9--9-------9--9/11-----------7-----------
A|-----------------------------------------
E|-----------------------------------------

E B
It's hard to believe
C#m G#m A
That there's nobody out there
E B
It's hard to believe
C#m A
That I'm all alone
E B
At least I have her love
C#m G#m A
The city she loves me
E B
Lonely as I am
C#m A E7M
Together we cry

(Refrão)
3ª parte
A9 Am9 G6 F7M(11+) F7M E7 G7M

A9 Am9
Under the bridge downtown
G6 F7M(11+)
Is where I drew some blood
A9 Am9
Under the bridge downtown
G6 F7M(11+)
I could not get enough
A9 Am9
Under the bridge downtown
G6 F7M(11+)
Forget about my love
A9 Am9
Under the bridge downtown
G6 F7M(11+) A9 Am9 G6 F7M(11+)
I gave my life away.

1ª parte:
E B C#m G#m A
E|-----------------------------------5h7p5-
B|9--9--7-----------------9-----4--5------5
G|9--9--8---8h9p8---------9-----4--6-------
D|9--9--9-9-------9-9/11----11--6--7-------
A|7--7-------------------------------------
E|-----------------------------------------

E B C#m A
E|-----------------------------------------
B|------9-----7----------------9-----5-----
G|------9-----8---8h9p8--------9-----6-----
D|------9-----9-9-------9-9/11---11--7-----
A|9/11----11-------------------------------
E|-----------------------------------------

E B C#m
E|-----------------------------------------
B|5--5--5---9--9--7----7h9p7--------9------
G|6--6--6---9--9--8----------8------9------
D|7--7--7---9--9--9-9----------9/11----11--
A|----------7--7---------------------------
E|-----------------------------------------

G#m A
E|-----5h7p5-------------------------------
B|4--5-------5-----------------------------
G|4--6-------------------------------------
D|6--7-------------------------------------
A|-----------------------------------------
E|-----------------------------------------

E B C#m A
E|-----------------------------------------
B|------9-----7----------------9-----5-----
G|------9-----8---8h9p8--------9-----6-----
D|------9-----9-9-------9-9/11---11--7-----
A|9/11----11-------------------------------
E|-----------------------------------------

2ª parte:
E B C#m
E|-----------------------------------------
B|9--9--9--9--7------------------9-----4---
G|9--9--9--9--8----8h9p8---------9-----4---
D|9--9--9--9--9--9-------9--9/11---11--6---
A|7--7--7--7-------------------------------
E|-----------------------------------------
↓ ↑ ↓ ↑ ↓

A E B C#m
E|---5h7p5------------------7h9-7----------
B|5--------5-------9-----7--7---7----------
G|6----------------9-----8-----------------
D|7----------------9-----9---------9-9/11--
A|------------9/11---11--------------------
E|-----------------------------------------

A
E|---------7p5---7p5-----------------------
B|9-----5------5-----5---------------------
G|9-----6----------------------------------
D|--11--7----------------------------------
A|-----------------------------------------
E|-----------------------------------------

E B C#m G#m A
E|-----------------------------------------
B|------9-----7----------------9-----4--5--
G|------9-----8---8h9p8--------9-----4--6--
D|------9-----9-9-------9-9/11---11--6--7--
A|9/11----11-------------------------------
E|-----------------------------------------

E B C#m A
E|5h7p5------------------------------------
B|------5-----9----7----------------9-----5
G|------------9----8---8h9p8--------9-----6
D|------------9----9-9-------9-9/11---11--7
A|-------9/11---11-------------------------
E|-----------------------------------------
Richard Sanderson - Reality

Intro: G Bm Dm E D E Am Cm Bm7 Em7 A7 D7

G Bm Dm E (D E)
Met you by surprise I didn't realise that my life would change forever
Am Cm Bm7 Em7 A7 D7
Saw you standing there I didn't know I'd care there was something special in the air

G B7 Em7 A7
Dreams are my reality the only kind of real fantasy
C D7 Bm7 Em7 Am7 Fmaj D7
Illusions are a common thing I try to live in dreams It seems as if it's meant to be
G B7 Em7 A7
Dreams are my reality a different kind of reality
C D7 Bm7 Em7 Am7 D7 C G
I dream of loving in the night and loving seems alright Although it's only fantasy

G Bm Dm E (D E)
If you do exist Honey don't resist show me a new way of loving
Am Cm Bm7 Em7 A7 D7
Tell me that it's true show me what to do I feel something special about you

G B7 Em7 A7
Dreams are my reality the only kind of reality
C D7 Bm7 Em7 Am7 Fmaj D7
Maybe my foolishness is past and maybe now at last I'll see how the real thing can be
G B7 Em7 A7
Dreams are my reality a wonderous world where I like to be
C D7 Bm7 Em7 Am7 D7 C G
I dream of holding you all night and holding you seems right Perhaps that's my reality

G Bm Dm E (D E)
Met you by surprise I didn't realise that my life would change forever
Am Cm Bm7 Em7 A7 D7
Tell me that it's true feelings that on you I feel something special about you
B7 Em7 A7
Dreams are my reality a wonderous world where I like to be
C D7 Bm7 Em7 Am7 D7 C G
Illusions are a common thing I try to live in dreams Although it's only fantasy
G B7 Em7 A7
Dreams are my reality I like to dreAm of you close to me
C D7 Bm7 Em7 Am7 D7 C G
I dream of loving in the night and loving you seems right Perhaps that's my reality
Robbie Williams - Advertising Space
Intro: C Em C Em C Em
C G
There's no earthly way of knowing what was in you heart when it stopped going
F C G
the whole world shook the storm was blowing through you
C G
Waiting for God to stop this and up to your neck in darkness
F C G
everyone around you was corrupted say something
Bridge:
Am Em Dm
Theres no dignity in death to sell the world your last breath
F
they're still fighting over everything you left oh
Chorus:
C Em Am
I saw you standing at the gates when marlon brando passed away
G F
you had that look upon your face advertising space and
C Em Am
No one learned from your mistakes we let our profits go to waste
G F
all that's left in any case is advertising space oh

C G
Through your eyes the world was burning, please be gentle I'm still learning
F C G C
you seem to say that you kept turning up they poisoned you with compromise
G F C G
at what point did you realize everybody loves your life but you oh oh
Bridge:
Am Em Dm
special agent for the man through watergate and veatnam
F C
No one really gave a dam do ya think the CIA did
Chorus/ Bridge: C Em C Em C Em Am G F/ Chorus
C Em Am GF
I'veseen your daughter man shes cute Iwasscared butI wanted to, boy she looks a lot like you
Roy Orbison - Blue Angel

Am Gm7 C13 F
(Sha... la... la, dooby wah, dum dum dum, yip yip fum) 2X

F Dm Bb C
Oh, Blue Angel don't you cry Just because he said goodbye
Verse 1: F Dm Bb C
Oh, ah-ah-aah No, don't cry

Oh, Blue Angel have no fear, I'll


Brush away lonely teardrops
Verse 2: F Bb F
Hey... hey Whoa whoa... ooh... (Yip yip, fum, wah wah wah wah)

F F# G G# A A [quarter-note triplets]
Bridge 1: (...wah)
Bb Gm F Dm
Well, love's precious flame Just burned in vain
Bb G7 C7
But you're not to blame You thought love was a game, it's oh such a shame
Bb F Gm
But don't you cry, don't sigh I'll tell you why
Bb C F
I'll never say goodbye Blue Angel
Am Gm7 C13 F Bb F
(Sha la la, dooby wah, dum dum dum Yip yip, fum, wah wah wah wah)

F F# G G# A A [quarter-note triplets]
Bridge 2: (...wah)

Bb Gm F Dm Bb
We'll have lovin' so fine magic moments divine if you'll just say you're mine
G7 C7 [N.C.] F Bb F
I'll love you till the end of ti-i-ime Don't you... worry your pretty head
Gm Bb Gm Bb C F
I'll never let you down, I'll always be around, Blue Angel
Coda:
Am Gm7 C13 F Bb [N.C.] Fmaj7
Sha la la, dooby wah, dum dum dum, yip yip, fum Blu-ue a-an-gel, Sha... la.. la)
Roy Orbison – Blue Bayou

F
I feel so bad I've got a worr-ied mind, I'm so lonesome
C7 F |F- C7-F |
All the time, since I left my baby behind on Blue Bayou.
F |./. |C7 |./. |
Saving nickles saving dimes, workin' till the sun don't shine,
./. |./. |F |F- Eb-F
Looking forward to happier times on Blue Bayou.

CHORUS:
|F |./. |Gm |./.
I'm going back someday come what may to Blue Bayou.
|C7 |./. |F |./.
Where you sleep all day and the catfish play on Blue Bayou.
|Fsus2 |F7 |Bb |Gm
All those fishing boats with their sails afloat if i could only see,
|F |C7 |F |F- C7-F |
That fa-miliar sunrise through sleepy eyes how happy I'd be.
F |./. |C7 |./. |
Go to see my baby again, and to be with some of my friends,
./. |./. |F |F- Eb-F
Maybe i'd be happy again on Blue Bayou.

Chorus:
|F |./. |Gm |./.
I'm going back someday gonna stay on Blue Bayou.
|C7 |./. |F |./.
Where the folks are fine and the world is mine on Blue Bayou.
|Fsus2 |F7 |Bb |Gm
Ah that girl of mine by my side, the silver moon and the evening tide.
|F |C7 |F |F- C7-F
Oh some sweet day gonna take away this hurtin’ inside.
|C7 |./. |./. |Gm |C7 |F
I'll never be blue my dreams come true, on Bl-ue Ba - you,
|./. |./. |./. |
On Blue Blue Blue Bayou, on Blue Blue Blue Bayou, …
Roy Orbison - California Blue

VERSE 1: INTRO (strike once): D


D G
Working all day And the sun don't shine
A D
Trying to get by And I'm just killin' time
D G Em A D
I feel the rain Fall the whole night through Far away from you California Blue

CHORUS:
G D
California Blue Dreaming all alone
A7 D
Nothing else to do California Blue
G D A7 D
Everyday I pray I'll be on my way Saving love for you California Blue

BRIDGE:
A7 D
One Sunny Day I'll get back again
G A D A D
Somehow, someway But I don't know when California Blue, California Blue

VERSE 2:
D G
Living my life, With you on my mind
A D
Thinking of things, That I left far behind
D G Em A D
It's been so long, Doing all I can do To get back to you, California Blue

REPEAT CHORUS & BRIDGE: ---> OUTTRO (Repeat 3 times):


Em A D
Still missing you, California Blue

CHORDS:
D xx0232 G 3x0003 A x02220 Em 022100 A7 x02020
Roy Orbison - Crying

D
I was all right for a while, I could smile for a while
D+
But I saw you last night, you held my hand so tight,
G Gm
as you stopped to say hello
D A7
Oh, you wished me well, you couldn't tell, that I'd been . .

D F#m
Crying over you (2X)
G A G A
Then you said so long, left me standing all alone,
D D+ G Gm
Alone and crying, crying, crying, crying
D
It's hard to understand,
A7 D
but the touch of your hand, can start me crying

D
I thought that I, was over you, but it's true, so true
D+
I love you even more, than I did before
G Gm
But darling, what can I do?
D A7
Cause you don't love me, and I'll always be
D F#m
Crying over you (2X)
G A G A
Yes, now you're gone And from this moment on
D D+ G Gm D Bm
I ll be crying, crying, crying, crying I'm crying, crying
G A7 D A7 D G D
Oh-oh-oh-over you
Roy Orbison – Dream Baby

C7
Sweet dream baby, Sweet dream baby
F
Sweet dream baby
C7 F
How long must I dream
C7
Dream baby got me dreamin' sweet dreams the whole day through
Dream baby got me dreamin' sweet dreams night time too
F
I love you and I'm dreaming of you but that won't do
C7 F
Dream baby make me stop my dreamin', you can make my dreams come true
C7
Sweet(sha-da-da-da) dream(sha-da-da-da) baby(sha-da-da-da) (sha-da-da-da)
Sweet(sha-da-da-da) dream(sha-da-da-da) baby(sha-da-da-da) (sha-da-da-da)
F
Sweet(sha-da-da-da) dream(sha-da-da-da) baby(sha-da-da-da) (sha-da-da-da)
C7 F
How (sha-da-da-da) long (sha-da-da-da) must I dream
C7
Dream baby got me dreamin' sweet dreams the whole day through
Dream baby got me dreamin' sweet dreams night time too
F
I love you and I'm dreaming of you but that won't do
C7 F
Dream baby make me stop my dreamin', you can make my dreams come true
C7
Sweet(sha-da-da-da) dream(sha-da-da-da) baby(sha-da-da-da)(sha-da-da-da)
Sweet(sha-da-da-da) dream(sha-da-da-da) baby(sha-da-da-da)(sha-da-da-da)
F
Sweet(sha-da-da-da) dream (sha-da-da-da) baby(sha-da-da-da)(sha-da-da-da)
C7 F
How (sha-da-da-da) long (sha-da-da-da) must I dream 3x

* Alternate: Capo III


C7 = A7 F =D
Roy Orbison - I Drove all night
Intro: C Bb F C Verse 1:
C Bb
I had to escape; the city was sticky and cruel
C Bb Dm
Maybe I should have called you first But I was dying to get to you
F Bb C
I was dreaming while I drove The long straight road ahead, uh-huh, yeah

Bridge 1:
Bb
Could taste your sweet kisses, your arms open wide
C Bb F
This fever for you is just burning me up inside

CHORUS
Am Bb F Dm C
I drove all night to get to you, Is that alright?
Am Bb F Dm
I drove all night, crept in your room
C Bb F
Woke you from your sleep to make love to you Is that alright? I drove all night

Verse 2:
C Bb
What in this world keeps us from falling apart?
C Bb Dm
No matter where I go I hear the beating of your heart
F Bb C
I think about you when the night is cold and dark Uh-huh, yeah

Bridge 2:
Bb C Bb F
No one can move me the way that you do Nothing erases the feeling between me and you
Chorus
Dm Bb C Am Bb C
Is that alright? I drove all night
Interlude: Dm Bb C Am Bb C Bridge 1 Chorus (2x) (fade)
Roy Orbison - In Dreams

C Am Dm G
A candy-colored clown they call the sandman tiptoes to my room every night
C Am F G7 C
Just to sprinkle stardust and to whisper Go to sleep. everything is all right.
C Dm G7 C
I close my eyes, then I drift away into the magic night. I softly say
Dm
A silent prayer like dreamers do.
G7 C
Then I fall asleep to dream my dreams of you.

C G7 F G7 C
In dreams I walk with you, in dreams I talk to you.
D7 C Dm G C Dm G7
In dreams you re mine, all of the time we re together In dreams, in dreams.

C Fm C Fm C
But just before the dawn, I awake and find you gone.
C Dm G7 C
I can t help it, I can t help it, if I cry. I remember that you said goodbye.

C F G7 C F G7
It s too bad that all these things, can only happen in my dreams
C D7 Dm7 G7 C
Only in dreams in beautiful dreams.
* Alternate: Capo III
C =A G7 = E7
Am = F#m Fm = Dm
Dm = Bm D7 = B7
G =E Dm7 = Bm7
F =D
Roy Orbison - It´s Over
C F C CCF CCF CCF CCF
Your baby doesn't love you anymore
F Am
Golden days before they end, Whisper secrets to the wind
C F C
Your baby won't be near you anymore

F Am
Tender nights before they fly, And falling stars that seem to cry
Dm Bb G C C7 F
Your baby doesn't want you anymore It's over

Em F (or Fmaj7) Em F (or Fmaj7)


It breaks your heart in two To know she's been untrue
Em F (or Fmaj7) G F G
But oh, what will you do When she says to you there's someone new
F G C Em G
We're through, we're through, we're through It's over, It's over, It's over

F Am
All the rainbows in the sky, Start to weep and say goodbye
Dm Bb G C C7
You won't be seeing rainbows anymore

F Am
Setting suns before they fall, Beckon to you "that's all, that's all"
Dm Bb G C
But you'll see lonely sunsets after all
G C
It's over, it's over, it's over, It's over

* Alternate:
Capo III
C =A Dm = Bm
F =D Em = C#m
Am = F#m G =E
Bb = G C7 = A7
Roy Orbison - She's a mistery to me

INTRO - | C F | C G Gsus4 | (2X)


C F(sus2) C G Gsus4 C F C G Gsus4
Darkness falls, and she, will take me by the hand take me to some twilight land
C F(sus2) C G Gsus4 C F C G/D C/E
Where all but love is grey, where I can't find my way without her as my guide

F G F G F C
Night falls, I'm cast beneath her spell, daylight comes, our heaven turns to hell
C F(sus2) C G Gsus4 C F C G Gsus4
Am I left to burn, and burn eternally She's a mystery to me
C F(sus2) C G Gsus4 C F C G Gsus4 C
She's a Mystery Girl She's a Mystery Girl
C F(sus2) C G Gsus4 C F C G Gsus4
In the night of love, words tangled in her hair words soon to disappear
C F(sus2) C G Gsus4 C F C G/D C/E
A love so sharp it cut, like switchblade to my heart Words tearing me apart

F G F G F C
She tears again my bleeding heart I want to run, she's pulling me apart
C F(sus2) C G Gsus4 C F C G Gsus4
Fallen angel cries and I just melt away She's a mystery to me

C F(sus2) C G Gsus4 C F C G Gsus4 C


She's a Mystery Girl She's a Mystery Girl (2X)
| C F | C/E G/D Gsus4/D |

C F(sus2) C G Gsus4 C F C G Gsus4


Haunted by her side, it's the darkness in her eyes That so enslaves me
C F(sus2) C G Gsus4 C F C G/D C/E
But if my love is blind, then I don't want to see She's a mystery to me
F G F G F C
Night falls, I'm cast beneath her spell, daylight comes, our heaven turns to hell
C F(sus2) C G Gsus4 C F C G Gsus4
Am I left to burn, and burn eternally She's a mystery to me

C F(sus2) C G Gsus4 | C F | C G Gsus4 |


She's a Mystery Girl (6X)
C F C G Gsus4 C C F(sus2) C G Gsus4 C
She's a Mystery Girl She's a mystery girl
Roy Orbison - Too soon to know
INTRO:
C ./. ./. ./.
------------------------------------------------------------------------1:
C Em Dm ./. G G7 C ./.
It's too soon to know, if I can't for-get her.
./. C7 F Fm
My hea-rt's been broken, in too many pieces
G G7 C G7
And it's too soon to kno-w.
------------------------------------------------------------------------2:

C Em Dm ./. G G7 C ./. ./.


Time pass-es slow, will ever know. If
C7 F Fm G G7 C C7
Can't for-get her and not let it show, but it's too soon to kno-w.

CHORUS:
F G7 C ./.
News travels fast when a love-affair ends.
Am Dm G7 ./.
People keep asking what happened to them.
------------------------------------------------------------------------3:

C Em Dm ./. G G7 C ./.
But it's too soon to know, if I can't for-get her.
./. C7 F Fm G G7
My hea-rt's been broken, in too many pieces and it's too soon
C ./. ./. C7 F Fm
To kno-w. My hea-rt's been broken, in too many pieces
/
G G7 C Fm G7 C
And it's too soon to kno- w.

The above song, not owned by me, represents my interpretation and may differ from the original.

Have fun, Dairybeat


Roy Orbison - You got it
Intro A G D A G D

A G D A GD A G D E G
Everytime I look into your lovely eyes I see a love that money just can't buy
A F#m C#m E A F#m C#m E
One look from you I drift away I pray that you are here to stay.

CHORUS
A C#m F#m A C#m F#m
Anything you want you got it, Anything you need you got it
A F#m A E
Anything at all you got it baby DOWN BASS

A G E A GD
Everytime I hold you I begin to understand
A G D
Everything about you tells me I'm
E G A F#m C#m E
your man I live my life to be with you
A F#m C#m E
No one can do the things you do

CHORUS

A F#m C#m E A F#m C#m E


I'm glad to give my love to you I know you feel the way I do

CHORUS

ENDING:

E A
You got it
Santana - Corazon Espinado

Bm F#7 Bm F#7
Esa mujer me esta matando Me a espinado el corazon

Bm F#7 Bm F#7
Por mas que trato de olvidarla Mi alma no da razon

Bm F#7 Bm F#7
Mi corazon aplastado Herido y abandonado

Bm F#7
Aber aber tu sabes dime mi amor por favor

Bm F#7
Que dolor nos quedo

Chorus:

Bm F#7 Bm F#7
Ah ah ah corazon espinado

Bm F#7 Bm F#7
Ah ah ah como me duele el amor

Como duele como duele el corazon Cuando nostiene entregados


Pero no olvides mujer que algun dia diras
Hay ya yay como me duele el amor

Em Bm Em Bm
Como me duele el olvido Como duele el corazon

D A Em F#
Como me duele estar vivo Sin tenerte aun lado amor
Bm F#7
Corazon espinado
Seal - Kiss From a Rose

(intro 4x) Bb C D

D Bb C D
There used to be a graying tower alone on the sea
D Bb C D
You became the light on the dark side of me
D C G D
Love remains a drug that's the high and not the pill
D Dm Bb C
Did you know that when it snows my eyes become large
Bb C D
And the light that you shine can't be seen

(refrão)
D Bb C D
Baby, I compare you to a kiss from a rose on the gray
D Bb C D
The more I get of you the stranger it feels, yeah
D Bb C Bb C D
Now that your rose is in bloom, a light hits the gloom on the gray

(solo)

D Bb C D
There is so much a man can tell you, so much he can say
D Bb C D
You remain my power, my pleasure, my pain, baby
Bb C D
To me you're like a growin' addiction that I can't deny
Dm Bb C
Won't you tell me is that healthy, babe?
D Dm Bb C
But did you know that when it snows my eyes become large
Bb C D
And the light that you shine can't be seen

(refrão)
(solo 2)

C G F C
I've been kissed by a rose on the gray,
C G F
I've been kissed by a rose
C G F C
I've been kissed by a rose on the gray
C G F D
I've been kissed by a rose on the gray
D Bb C D
There is so much a man can tell you, so much he can say
D Bb C D
You remain my power, my pleasure, my pain,
Bb C D
To me you're like a growin' addiction that I can't deny
Dm Bb C
Won't you tell me is that healthy, babe?

D Dm Bb C
But did you know that when it snows my eyes become large
Bb C D
And the light that you shine can't be seen

(refrão) (2x)
D Bb C D
Baby, I compare you to a kiss from a rose on the gray
D Bb C D
The more I get of you the stranger it feels, yeah
D Bb C Bb C D
Now that your rose is in bloom, a light hits the gloom on the gray

(solo)

Now that your rose is in bloom, a light hits the gloom on the gray
Smiths, The - Girlfriend In A Coma

Intro: G

G D C D G D C D
Girlfriend in a coma, I know, I know, it's serious
G D C D G D C D
Girlfriend in a coma, I know, I know, it's really serious

G D C D G D C D
There were times when I could have murdered her
D G D C D G D
but you know I would hate anything to happen to her
C D
Now I don't want to see her

Em D C D
Do you really think she'll pull through? (2x)
Em D C D
Oooooohhh....

G D C D G D C D
Girlfriend in a coma, I know, I know, it's serious
G D C D G D C D
My, my, my, my, my, my, my baby goodbye
G D C D G D C D
There were times when I could have strangled her
D G D C D G D
but you know I would hate anything to happen to her
C D
Would you please let me see her?

Em D C D
Do you really think she'll pull through? (2x)
Em D C D
Ooooooohhhh....
G D C D G
Let me whisper my last goodbyes I know it's serious.
D G
Smiths, The - Half of person

Bm E RIFF1 Bm E RIFF1
Call me morbid, call me pale. I've spent six years on your trail

Bm A G E Esus4 E
six long years on your trail.

Bm E RIFF 1 Bm E RIFF 1
Call me morbid, call me pale. I've spent six years on your trail

Bm A G E Esus4 E
six full years of my life on your trail.

Gb G(bar) C(bar) G Gb G(bar)


And if you have five seconds to spare, then I'll tell you the story of my life.

D A Gb Bm G
Sixteen clumsy and shy, I went to London and I

D A Gb
I booked myself in at the Y W C A

A E RIFF 1 A E RIFF 1
I said "i like it here, can I stay?", "i like it here, can I stay?",

Bm A G E Esus4 E
Do you have a vacancy for a back scrubber?
Smiths, The - Heaven Knows I'm a miserable now

(Capo 2) [Intro] Emaj7 Em/C Bm7 A ABAB


st
[1 Verse]
Emaj7 C#m F#m F#m/E A B
I was happy in the haze of a drunken hour But heaven knows I'm miserable now
Emaj7 C#m F#m F#m/E A B
I was looking for a job, and then I found a job and heaven knows I'm miserable now

[Chorus]
Emaj7 A B Emaj7 A/C# B
In my life Why do I give valuable time
E E/Eb E/C#m E/B A/C# B/D#
To people who don't care if I live or die ?

[Instrumental] A/C# B E E/Eb E/C# E/B AB

[2nd Verse]
Emaj7 C#m F#m F#m/E A B
Two lovers entwined pass me by and heaven knows I'm miserable now
Emaj7 C#m F#m F#m/E A B
I was looking for a job, and then I found a job and heaven knows I'm miserable now

[Chorus] [Instrumental] A/C# B E E/Eb E/C# E/B AB

[3rd Verse]
Emaj7 C#m F#m F#m/E A B
What she asked of me at the end of the day Caligula would have blushed
Emaj7 C#m F#m F#m/E A B
"Oh, you've been in the house too long" she said And I na - turally fled

[Different Chorus]
Emaj7 A B Emaj7 A/C# B
In my life Why do I smile
E E/Eb E/C#m E/B A/C# B/D#
At people who I'd much rather kick in the eye ?

[Instrumental] A/C# B E E/Eb E/C# E/B AB

[4th Verse]
Emaj7 C#m F#m F#m/E A B
I was happy in the haze of a drunken hour But heaven knows I'm miserable now
Emaj7 C#m F#m F#m/E A B
"Oh, you've been in the house too long" she said And I na - turally fled
[Chorus] [Outro] Emaj7 C#m F#m A B Emaj7 Em/C Bm7 A
Smiths, The - How Soon Is Now

B|-----2-2-2-2-2-2-2 :
G|-3---3-3-3-3-3-4-3 :
D|-4---4-4-4-4-2-2-2 :
A|-4---4-4-4-4-4-4-4 :
e|-0(h)2-2-2-2-2-2-2 :

1st Verse (2x)


F# A B F#
I am the son and the heir of a shyness that is criminally vulgar
A B
I am the son and heir Of nothing in particular

D A C#m E F#
You shut your mouth, how can you say I go about things the wrong way ?
D A C#m E :F#:F#:F#:A / B /:
I am Human and I need to be loved Just like everybody else does

2nd Verse
D A
There's a club if you'd like to go
C#m E F#
You could meet somebody who really loves you
D A
So you go, and you stand on your own and you leave on your own
C#m E :F#:F#:F#:A / B /:
And you go home, and you cry and you want to die

D A
When you say it's gonna happen "now"
C#m E F#
Well, when exactly do you mean?
D A
See I've already waited too long
C#m E F#
And all my hope is gone

D A
You shut your mouth, how can you say
C#m E F#
I go about things the wrong way ?
D A
I am Human and I need to be loved
C#m E :F#:F#:F#:A / B /:
Just like everybody else does
Smiths, The - Please, Please, Please, Let Me Get What I Want

Chords:
Dmaj7 D F#m G Bm A Asus4 Gmaj7
E------2---2----2---3---2----0---0------2---------------------|
B------2---3----2---3---3----2---3------0---------------------|
G------2---2----2---4---4----2---2------0---------------------|
D------0---0----4---5---4----2---2------0---------------------|
A------0---0----4---5---2----0---0------2---------------------|
E------x---x----2---3---2----0---0------3---------------------|

Verse1:
Dmaj7 A D A
Good times for a change.

F#m G A Asus4 A
See the look I've had could make a good man turn bad.

G A D A Gmaj7
So please please please let me let me let me....let me

A Bm Gmaj7 A
get what I want this time.

Verse2:
Dmaj7 A D A
Haven't had a dream in a long time.

F#m G A Asus4 A
See the life I've had could make a good man bad.

G A D A Gmaj7
So for once in my life let me get what I want.

A Bm
Lord knows it would be the first time.

Gmaj7 A D D7
Lord knows it would be the first time.

Instrumental and outro:


G A D A Gmaj7 G A D D7 F#m Bm G Dmaj7 A
Smiths, The - Reel Around The Fountain

1st Part
A E F#m D
It's time the tale were told of how you took a child and you made him old
A E F#m
It's time the tale were told of how you took a child and you made him old,
D A - G#m
You made him old

Gmaj7 F#m Bm Gmaj7 F#m E E


Reel around the fountain slap me on the patio I'll take it now Oh...

1st Chorus
A E F#m A E D
Fifteen minutes with you Well, I wouldn't say no
A E D E E
Oh, people said that you were virtually dead and they were so wrong
A E F#m A E D
Fifteen minutes with you Well, I wouldn't say no
A E D
Oh, people said that you were easily led and they were half-right
Bm7 D Bm7
Oh, they ... oh, they were half-right, oh

1st Part
(2nd Chorus 2X)
A E F#m A E D
Fifteen minutes with you Well, I wouldn't say no
A E F#m A E D
Oh, people see no worth in you Oh, but I do

A E
I dreamt about you last night And I fell out of bed twice
F#m D
You can pin and mount me like a butterfly
A E
But "take me to the haven of your bed" was something that you never said
F#m D
Two lumps, please You're the bee's knees But so am I

Gmaj7 F#m Bm Gmaj7 F#m E E


Meet me at the fountain Shove me on the patio I'll take it slowly Oh...
2nd Chorus 2X
A E D (3x)
I do
Smiths, The - Some Girls Are Bigger Than Others

Tom: G# (com acordes na forma de E) Capotraste na 4ª casa

e|-----0-----------|---0-------------|---------0-------|-------0---------|
B|---------0-------|-------0---------|-----4-----------|---4-------4-----|
G|-----------------|-----------4---4s|-6-------------0-|---------------2s|
D|---6---------6s4-|-----------------|---6---6---6-6---|-4---4---4---4---|
A|-4-----4---4-----|-2---2---2---2---|-----------------|-----------------|
E|-----------------|-----------------|-----------------|-----------------|

e|---------0-------|-------4---------| ---4-------------|----------------- |
B|-----4-------4---|-----------4-----| -------5p4-------|---5-----7------- |
G|-4-------------4-|-----4---------0-|o -----------4---6-|-------------8--- o|
D|---6---6---6-----|---6-----6---6---|o ---------------7-|-------9---9---9- o|
A|-----------------|-----------------| -4---------------|----------------- |
E|-----------------|-----------------| -----------------|----------------- |

(E) C#m B A F#m G#m


From the ice-age to the dole-age there is but one concern I have just discovered

Chorus (2x)
C#m A B
Some girls are bigger than others (2X)
A F#m G#m
Some girl's mothers are bigger than other girl's mothers

C#m A B E

(E) C#m B A F#m G#m


As Anthony said to Cleopatra as he opened a crate of ale Oh, I say

Chorus (2x)
C#m A B
Some girls are bigger than others (2X)
A F#m G#m
Some girl's mothers are bigger than other girl's mothers

C#m A B C#m A B
Send me the pillow ... The one that you dream on ...

C#m A B C#m A B
Send me the pillow ... The one that you dream on ...

A B E
And I'll send you mine

Outro: C#m A B
Smiths, The - Stop Me If You Think You've Heard This One Before
Intro: (C Gm D# F A G) 2x

(C Gm D# F)

Stop me, oh, stop me, stop me if you think that you've heard this one before (2X)

Nothing's changed, I still love you, oh, I still love you

...Only slightly, only slightly less than I used to, my love

Solo: ( G# Cm G# Bb G )

(C Gm D# F)

I was delayed, I was way-laid an emergency stop I smelt the last ten seconds of life

I crashed down on the crossbar and the pain was enough to make a shy, bald, buddhist reflect

And plan a mass murder Who said lied I'd to her ?

Oh, who said I'd lied because I never ? I never ! Who said I'd lied because I never ?

Solo: ( G# Cm G# Bb G )

(C Gm D# F)

I was detained, I was restrained, and broke my spleen, and broke my knee

(and then he really laced into me)

Friday night in Out-patients, who said I'd lied to her ?

Oh, who said I'd lied ? - because I never, I never, who said I'd lied ? - because I never

Oh, so I drank one It became four and when I fell on the floor … I drank more

Solo: ( G# Cm G# Bb G )

(C Gm D# F)

Stop me, oh, stop me, stop me if you think that you've heard this one before (2X)

Nothing's changed I still love you, oh, I still love you

...Only slightly, only slightly less than I used to, my love

final: (C Gm D# F)2x ( C Gm D# F A G ) G
Smiths, The - That Joke Isn't Funny Anymore

Intro: B

E F# G#M
Park the car at the side of the road
F# G#M A B G A
You should know Time's tide will smother you and I will too
B7+ E F# G#M
When you laugh about people who feel só very lonely their only desire is to die
F# G#M A B G A G E
Well, I'm afraid It doesn't make me smile I wish I could laugh

G A D E G
But that joke isn't funny anymore It's too close to home and it's too near the bone
G A D E G B G A
It's too close to home and it's too near the bone more than you'll ever know ...

(B F# A D E
Kick them when they fall down Kick them when they fall down)x 4

GE G A D E G
It was dark as I drove the point home and on cold leather seats
E G A D E G B G A
Well, it suddenly struck me I just might die with a smile on my face after all

SOLO: B F# A D E

B F# A D E
I've seen this happen in other people's lives And now it's happening in mine (repeat)
Smiths, The - There Is A Light That Never Goes Out

Intro: F#m A B

C#m B C#m B A EB C#m B C#m B A EB


Take me out tonight where there's music and there's people who are young and alive
C#m B C#m B A E B C#m B C#m B A E B
Driving in your car, I never never want to go home because I haven't got one, anymore

C#m B C#m B A E B C#m B C#m B AE B


Take me out tonight because I want to see people and I want to see lights
C#m B C#m B A EB
Driving in your car, oh please don't drop me home,
C#m B C#m B AEB
because it's not my home, it's their home, and I'm welcome no more

Chorus
E C#m A B E A F#m B
And if a double-decker bus, crashes into to die by your side, is such a heavenly way to die
E C#m A B E A F#m B
And if a ten ton truck, kills the both of us to die by your side, well the pleasure the privilege is mine

C#m B C#m B A E B C#m B C#m B A E B


Take me out tonight oh take me anywhere, I don't care, I don't care, I don't care
C#m B C#m B A E B
And in the darkened underpass, I thought Oh God, my chance has come at last
C#m B C#m B A E B
but then a strange fear gripped me and I just couldn't ask

C#m B C#m B A E B C#m B C#m B A E B


Take me out tonight oh take me anywhere, I don't care, I don't care, I don't care

C#m B C#m B A E B
Just driving in your car, I never never want to go home
C#m B C#m B A E B F#m A B
because I haven't got one no no no, I haven't got one

Chorus

C#m B C#m B A E B (3X)


There is a light and it never goes out. There is a light and it never goes out

( C#m B C# B A E B )
Smiths, The – This charming man

Bm7 D C#m A

Bm7 D C#m
Punctured bicycle on a hillside desolate
A E Bm7 D C#m A
Will Nature make a man of me yet? When in this charming car
E Bm7 D C#m
This charming man
A E Bm7 D C#m
Why pamper life's complexity when the leather runs smooth on the passenger seat

BRIDGE
A E Bm7 D C#m
I would go out tonight but I haven't got a stitch to wear
A E Bm7 D C#m
This man said it's gruesome that someone so handsome should care

CHORUS
E F#m B7 D
A jumped up pantry boy who never knew his place
B7 F#m D E F#m
He said, return the ring He knows so much about these things
D E F#m
he knows so much about these things

then BRIDGE then CHORUS

then the outro:

D E F#m B7 D B7 F#m F#m


Smiths, The - What Difference Does It Make? (Tab)

Capo up two frets or tune up two semi tones.

[Part 1]

(Main Riff)

F#|---------------------------------------------------------------|
C#|-----------------------------------------------------3---------|
A |---2-------0---2---2-------0---------2-------0---2-----------0-|
E |-------2---------------2-----------------2-----0---0-----2-----|
B |-0---0---0---0---0---0---0---0_h_3-3---3---3-----------0---0---|
F#|---------------------------------------------------------------|

[Part 2]
"So, what difference does it make?"

F#|--------5---------------10----8----8---7-7-7-7----5---5---|
C#|-x_sl_5-----5---x_sl_10----10---10---9-9-9-9-9--5---5---5-|
A |----------4---4----------------------9-9-9-9-9------------|
E |----------------------------------------------------------|
B |----------------------------------------------------------|
F#|----------------------------------------------------------|

F#|--------5---------------10----8----8---7-7-7-7----5---5---|
C#|-x_sl_5-----5---x_sl_10----10---10---9-9-9-9-9--5---5---0-|
A |----------4---4----------------------9-9-9-9-9------------|
E |----------------------------------------------------------|
B |----------------------------------------------------------|
F#|----------------------------------------------------------|

[Part 3]
(barre 4th fret with 1st finger)
- "It makes none, but now you have gone..."

F#|-------------5-4-------------5-4-----------5-4-5-4-|
C#|-------7---5-----------7---5-----------7---5-5-5-5-|
A |---6-----6---------6-----6---------6-----6---------|
E |-4---4-----------4---4-----------4---4-------------|
B |---------------------------------------------------|
F#|---------------------------------------------------|

[End Riff 1]

F#|----------0------------0-|
C#|-5_p_3--1-0--5-5_p_3-1-0-|
A |-5_p_4--2----5-5_p_4-2---|
E |-------------------------|
B |-------------------------|
F#|-------------------------|

[End Riff #2]

F#|------------------------------------12----5_sl_x-|
C#|-13--12--8-10-10-------13--12--8-10-10----5_sl_x-|
A |-12--11--7--9--9-------12--11--7--9--9----5_sl_x-|
E |------------------------------------------7_sl_x-|
B |------------------------------------------7_sl_x-|
F#|-------------------------------------------------|
Smiths, The – What a difference does it make?
Capo 2nd fret

A C D A
All men have secrets and here is mine so let it be known
C D A
We have been through hell and high tide I can surely rely on you
C D A
And yet you start to recoil heavy words are so lightly thrown
C D
But still I”d leap in front of a flying bullet for you

[Chorus]
A D E
so what difference does it make (twice)
F#m D F#m D F#m D A
It makes none but now you have gone and you must be looking very old tonight

A C D A C D A
The devil will find work for idle hands to do I stole and I lied and why because you asked me to
C D A
but now you make me feel so ashamed because I've only got two hands
C D
well I'm still fond of you oh oo oo oo oo

F#m D A
[Chorus] ...and your prejudice won't keep you warm tonight

A C D A C D A
Oh the devil will find work for idle hands to do I stole and then I lied just because you asked me to
C D A
But now you know the truth about me you won't see me anymore
C D
Well I'm still fond of you wo ho oo oo oo
A D E A D E
but no more apologies, no more apologies
F#m D F#m D F#m D A
Oh I'm too tired I'm so very tried and I'm feeling very sick and ill today
C D
but I'm still fond of you who ho oo oo
Soft Cell - Torch

D9 A9 Am A9 Am
I'm lost again and I'm on the run Looking for love in a sad song.
D9
With your avenger eyes and your catlike ways I can hold you.
A9 Am A9 Am
You are a fool for me to be cruel.
D9
I'm leaning on this bar listening to you sing And your sad song
A9 Am A9 Am
rings in my ears and I start to cry.
C C7M C D9
He's searching she's showing
C D9
See him held in a deep deep spell he knows she's glowing.
C D9 C
I can find within my mind a way to go I can look deep into your light and shout
D9 C Bb C Bb
Hold me, hold me, hold me, hold me, hold me.
D9 A9 Am A9 Am
I hear the saxophone and it tears my soul and we're feeling old, feeling so cold
D9 A9 Am A9 Am
She is the torch and she is the theme, she could be a dream but, oh boy, is she real?
D9 A9 Am A9 Am
Try to avoid her eyes, to avoid her words, they will hit you with all that you feel.

Refrão C Bb
See her eyes they are bright tonight. See the stars coming out tonight.
See the moon looking down tonight See how they light your way tonight.
See my eyes they are bright tonight. See my hands reaching out tonight.
Hear my words they are dynamite See how they light your way tonight.
See her eyes they are bright tonight. See her eyes they are bright tonight.
See how they light your way tonight.
Soundgarden – Black Hole Sun
Tom: A

Intro:

E|----------------|-----------|-----------------|------------|----------------|----------|
B|-------3--------|-------3---|-------3---------|------2-----|----------------|----------|
G|-----2----2-----|-----2-----|-----0----0------|------------|-------3--------|-------4--|
D|---2--------2---|---2-------|---0--------0----|-----4------|-----3----3-----|-----2----|
A|-0------------0-|-3---------|-----------------|---4--------|---3--------3---|---5------|
E|----------------|-----------|-3-------------0-|-2--------0-|-1------------1-|-0--------|

A6 Am G6 Bsus4
In my eyes, indisposed in disguise as no one knows
F E E7 A6 A7 Bb
hides the face, lies the snake and the sun in my disgrace

A6 Am G6 Bsus4
Boiling heat, summer stench beneath the black the sky looks dead
F E E7 A6 A7 Bb
call my name through the cream and i´ll hear you, scream again

Refrão
F E7 A A7 Cadd9
Black hole sun, won't you come and wash away the rain
F E7 D E
Black hole sun, won't you come won't you come won't you come

A6 Am G6 Bsus4
Stuttering, cold and damp steal the warm wind tired friend
F E E7 A6 A7 Bb
times are gone for honest men and sometimes far too long to snakes
A6 Am G6 Bsus4
In my shoes a walking sleep and my youth i pray to keep
F E E7 A6 A7 Bb
heaven send hell away no one sings like you anymore

Refrão (2x) SOLO: D5 D5/C# B5 B5/A E (6x)


A6 Am G6 Bsus4
Hang my head, drown my fear Till you all just disappear

Refrão
Stevie Wonder – Superwoman
E G
Mary wants to be a superwoman, but is that really in her head
F#m C#m F#m B
But I just want to live each day to love her for what she is
E G
Mary wants to be another movie star but is that really in her mind
F#m C#m F#m B
And all the things she wants to be She needs to leave behind

E A B E
But, very well, I believe I know you-very well
A B G
Wish that you knew me too-very well
Am Bm7 C D E
And I think I can deal with everything going through your head

E A B E
Very well, and I think I can face-very well
A B G
Wish that you knew me too-very well
Am Bm7 C D E
And I think I can cope with everything going through your head

Mary wants to be a superwoman And try to boss the bull around


But does she really think that she will get by with a dream

My woman want to be a superwoman And I just had to say good-bye


Because I can't spend all my hours start to cry

But, very well, I believe I know you Very well wish that you knew me too
Very well, And I think I can deal with everything going through your head
Very well, think that I know you too Very well, wish you knew me like I know you
Very well, but I think I can deal with everything going through your head
Your filthy head
Very well, dum dum da, dum dum da Very well, wish you knew me too
Very well, And I wish I could think of everything going through your head
Very well, dum dum da, dum da, dum da dum dum da, dum da, very well
And I think I can deal with everything going through your head
Strokes, The - Last Night
Intro:
GUITARRA 1 - parte 1 - C5 Parte 2 - guitarra 1: C5

D|---10---10---10---10--10-10-10-10--10-10-10-10--|2x D|-10-10-10-10---| 16x!!!


A|-----------------------X--X--X--X---X--X--X--X--| A|--X--X--X--X---|
E|-8----8----8----8------8--8--8--8---8--8--8--8--| E|--8--8--8--8---|

guitarra 2: VERSO:
C4 C5 guitarra 1: guitarra 2: 'groove'
e|-------------| -------------| C X-10-10—9--8--X C X--X-(10)--9--8--8
B|-------------| -------------| Dm7 (10)-X-10-10-10—X Dm7 X--X-(12)-10-10-10
G|-------------| -------------| G X-10-12-12-12—X Dm9 X--X-(12)-10-10-12
D|-10-10-10-10-|2x -10-10-10-10-| 2x Em X----14-12-12-X G X--X--X---12-12-10
A|--8--8--8--8-| -10-10-10-10-| F X—-8-10-10-10-X Em7 X--X--X---12-12-12
E|--8--8--8--8-| --8--8--8--8-|

SEGUNDO VERSO:
C Dm
Last night she said Oh, Baby, I feel so down
G Em Dm
Oh, and turned me off When I feel left out
C Dm
So I, I turned around Oh, Baby, I don't care no more
G Em Dm
I know this for sure I'm walking out that door
C
Well, I've been in town for just about fifteen minutes now
Dm G Em Dm
Oh, Baby, I feel so down And I don't know why I keep walking for miles

REFRÃO: (igual a primeira parte da introdução...)

F G F G
But the people they don't understand, No, girlfriends, they can't understand
F G F G
Your grandsons, they won't understand, On top of this I ain't ever gonna understand

SEGUNDO VERSO:
C Dm
Last night she said Oh, Baby, I feel so down
G Em Dm
Oh, and turned me off When I feel left out
C Dm
So I, I turned around Oh, Baby, I'm gonna be alright
G Em Dm
It was a great big lie As I left that night, yeah

(Solo) C F G
e|----------------------------------------------------------------------
B|-18b20--18b19r18p16----16-18b20--18b19r18p16-----16-------16----15----
G|---------------------17-----------------------17-17----------14----12-
D|----------------------------------------------------s/15--------------

e|------------------------------------------------------------------------
B|------13-13-------13-13-------16----15----------13-13-------13-13-------
G|15b17-------15b17----------------14----12-15b17-------15b17-------15----
D|------------------------s/15--------------------------------------------

e|-------------------------------(8)-(8)-(8)-(8)-(8)-(8)-(8)------------------|
B|--------------------------------8---8---8---8---8---8---8---16-----16---16--|
G|---8----8----8----8-----8-----10b12-()--b12-()-b12--()--b12-18b20-(20)-(20)-|
D|-----10---10---10---10----10------------------------------------------------|

REFRÃO: (igual a primeira parte da introdução...)

F G F G
But the people they don't understand, No, girlfriends, they can't understand
F G F G
Your grandsons, they won't understand, On top of this I ain't ever gonna understand

VERSO:
C Dm
Last night she said Oh, Baby, I feel so down
G Em Dm
She had turned me off When I feel left out
C Dm
So I, I turned around Oh, little girl, I don't care no more
G Em Dm Dm
I know this for sure I'm walking out that door, yeah

FINAL:
guitarra 1: C5 Guitarra 2:C4 C5 (2X)
e|---------------| e|-------------| -------------|
B|---------------| B|-------------| -------------| 2x e fecha com C5
G|---------------| G|-------------| -------------|
D|-10-10-10-10---| 8x!!! D|-10-10-10-10-|2x -10-10-10-10-| |-10-10-10-10--10-10-10-10-|
A|--X--X--X--X---| A|--8--8--8--8-| -10-10-10-10-| |--X--X--X--X---X--X--X--X-|
E|--8--8--8--8---| E|--8--8--8--8-| --8--8--8--8-| |--8--8--8--8---8--8--8--8-|
2x
Strokes, The - 12:51

E A F#m B
Talk to me now I'm older Your friend told you 'cause I told her
E A F#m B
Friday nights have been lonely change your plans and then phone me

break:

E C#m B (x4)

E A F#m B
We could go and get 40s Fuck goin' to that party
E A F#m B
Oh really, your folks are away now? Alright, let's go, you convinced me

break: E C#m B (x4)

Am E Am
12:51 is the time my voice Found the words I sought
E Am E
Is it this stage I want? The world is shutting out, for us
Am E
We were tense for sure But we was confident

E A F#m B
Kiss me now that I'm older I won't try to control you
E A F#m B
Friday nights have been lonely Take it slow but don't warn me
E A F#m B
We'd go out and get 40's Then we'd go to some party
E A F#m B
Oh really, your folks are away now? Alright I'm coming...

I'll be right there (fading)

These are the exact chords...enjoy!


Talk talk - It's My Life

(intro) E D A
E D A E D A
Funny how I find myself In love with you
E D A E D A
If I could buy my reasoning I'd pay to lose

F (brigde)
One half won't do Bbm F# Ab C#

F#
I've asked myself
F#/Ab Bbm F# Ab C#9 F#
How much do you Commit yourself?

(chorus)
Bbm Ebm Ab C# Bbm Ebm Ab C#
It's my Life Don't you forget
Bbm Ebm Ab C# Bbm Ebm Ab C#
It's my life It never ends

F#m
Funny how I blind myself, I never knew
If I was sometimes played upon, Afraid to lose

I'd tell myself, What good you do, Convince myself

It's my life, Don't you forget, It's my life, It never ends

Bm F#m
I've asked myself, How much do you, Commit yourself?

It's my life, Don't you forget, Caught in the crowd, It never ends

It's my life, Don't you forget, Caught in the crowd


Take That - Back for Good

Capo on 3rd

Intro: (D G G D A) x 2
[D]I [G]guess, now it's [G]time, [Asus4] [A]for me to give [D]up, [G]I feel it's time[Asus4] [A], Got
a [D]picture of you [G]beside me,
Got your [G]lipstick marks still [Asus4]on [A]your coffee [D]cup, [G]Oh yeah,[G]
[Asus4] [A]Got a [D]fist of your [G]emotion, Got a [G]head of shattered [Asus4] [A]dreams,
Gotta [Bm]leave it, gotta [D]leave it all [G]behind now[D] [A]

Chorus
[D]Whatever I said, [G]whatever I did, I didn't [G]mean it,
I just [Asus4]want you [A]back for [D]good,
([D]want you back, [G]want you back, [G]want you back for [Asus4]good[A]),
[D]Whenever I'm wrong, [G]just tell me the song and I'll [G]sing it,
You'll be [Asus4]right and [A]understood[D], (want you back, [G]want you back)
[G]I want you back for [Asus4]good[A]

[D]Unaware[G] but underline, I [Asus4]figured [A]out the [D]story (no no),


[G]It wasn't good ([Asus4]no no[A]),
But in a [D]corner of my [G]mind (corner of my mind), I [Asus4]celebrated[A] [D]glory,
[G]But that was not [Asus4]to [A]be,
In the [D]twist of separ[G]ation, you excelled at being [Asus4]free[A],
Can't you [Bm]find (can't you find) A little [D]room inside for [G]me [D] [A]

Chorus

[Gmaj7]And we'll be [D]together,


[Gmaj7]this time it's for [Dmaj7]ever,
[Bm]You can't fight it, and [D]forever we will be,
So [Gmaj7] complete in our [G]love,
We will [G]never be uncommon [A]again

Chorus

I [G]guess it's time, that [D]you came [A]back for [D]good.


The Mamas and The Papas - Dream a little dream of me
(W. Schwendt, F. Andre, G. Kahn)

Ao: xx1212
G+: xx1003 or xx5443

[Verse 1]
C B7 Ao G7
Stars shining bright above you
C B7 A7 A7
Night breezes seem to whisper "I love you"
F Fm
Birds singing in a sycamore tree
C G+ G7
Dream a little dream of me.

[Verse 2]
C B7 Ao G7
Say "Nightie-night" and kiss me
C B7 A7 A7
Just hold me tight and tell me you'll miss me
F Fm
While I'm alone and lue as can be
C G+ G7
Dream a little dream of me.

[Bridge]
A A6 E7 A A6 E7
Stars fading but I linger on, dear, still craving your kiss
A A6 E7 A G# G7
I'm longing to linger till dawn, dear, just saying this:

[Verse 3]
C B7 Ao G7
Sweet dreams till sunbeams find you
C B7 A7 A7
Sweet dreams that leave all worries far behind you
F Fm
But in your dreams whatever they be
C G+ G7
Dream a little dream of me.
Tommy James and The Shondells - Crimson and Clover

Verse 1:
B (B F# E) F# B (B F# E)
Ah… Now I .. I don't hardly know her
F# B (B F# E)
But ... I think I could love her
F# B (B F# E) (E F#) passagem E F# rápida
Crimson .. and clover

Verse 2:
B (B F# E) F# B (B F# E)
Ah… when she comes walking over
F# B (B F# E)
Now I've been waitin' to show her
F# B (B F# E) F# B (B F# E) (E … F#) (B A E (5x) (E F# E F#)
Crimson and clover……………over and
over…………………………………………………………….

Verse 3:
B (B F# E)
Yeah….
F# B (B F# E)
My ,my such a sweet thing
F# B (B F# E)
I wanna do everything
F# B (B F# E)
What a beautiful feeling
F# B (B F# E) E F# (B F# E) (B A E (5x) (E F# Instrumental break)
Crimson and clover over and over

B F# E F#
Crimson and clover over and over
Crimson and clover over and over (2x)
C G F G
Crimson and clover over and over
Crimson and clover over and over..(repeat to fade)
U2 - All I want is you
INTRO: A Dadd9 A Dadd9

A Dadd9 A Dadd9
VERSE 1: you say you want diamonds and a ring of gold
A Dadd9 A Dadd9
you say you want your story to remain untold

F#m Dadd9 F#m Dadd9


CHORUS 1: but all the promises we made from the craddle to the grave
A Dadd9 A Dadd9 A Dadd9
when all I want is you

A Dadd9 A Dadd9
VERSE 2: you say you'll give me a highway with no-one on it
A Dadd9 A Dadd9
a treasure just to look upon it all the riches in the night
A Dadd9 A Dadd9
you say you'll give me eyes in a moon of blindness
A Dadd9 A Dadd9
a river in a time of dryness a harbour in the tempest

CHORUS 2 & LINK 1: A Dadd9 A Dadd9

A Dadd9 A Dadd9
VERSE 3: you say you want your love to work out right
A Dadd9
to last with me through the night
A Dadd9 A Dadd9
you say you want diamonds and a ring of gold
A Dadd9 A Dadd9
your story to remain untold your love not to grow cold

CHORUS 3 & LINK 2: A Dadd9 A Dadd9

A Dadd9 A Dadd9
MIDDLE: you - ou, all i want is you - ou, all i want is (2X)

SOLO: A Dadd9 A Dadd9 (x4)


OUTRO: A Cadd9 A Dadd9 (x11) A
U2 - Bad

Intro: A1 A A1 A D1 D D1 D
Verse 1:
A1 A A1 A D1 D D1 D
If you twist and turn away
A1 A A1 A D1 D D1 D
If you tear yourself in two again
A1 A A1 A D1 D D1 D A1 A A1 A
If I could, yes I would If (I could), (I would) let it go
D1 D D1 D A1 A A1 A D1 D D1 D
Surren---der, Dis -- locate

Break: A1 A A1 A D1 D D1 D

Verse 2:
A1 A A1 A D1 A1 A
If I could throw this lifeless life-line to the wind. Leave this heart of clay
A1 A D1 D D1 D A1 A A1 A D1 D
See you walk, walk away, into the night. And through the rain
D1 D A1 A A1 A D1 D D1 D
Into the half - light, and through the flame

Verse 3:
A1 A A1 A D1 D D1 D A1 A
If I could throw myself, set your spirit free. I’d lead your heart away
A1 A D1 D D1 D A1 A A1 A D1 D D1 D
see you break, break away. Into the light, and to the day

Bridge:
A A D D A A D D
Hoo, hoo Hoo, hoo Hoo, hoo Hoo, hoo Hoo, hoo Hoo, hoo
A D A D
To let it go, and so to fade away To let it go, and so fade away
A G E D1 D D1 D
I'm wide awake. I'm wide awake wide awake, a-ha
A1 A A1 A D1 D D1 D
I'm not sleeping, oh, no, no

Verse 4:
A1 A A1 A D1 D D1 D
(If you) should ask then may be They tell you what I would say
A1 A A1 A D1 D D1 D
True colors fly in blue and black, Bruised silken skies and burning flag
A1 A D1 D D1 D A A D D
Colors crash, collide in blood shot eyes Hoo, hoo Hoo, hoo Hoo, hoo

Verse 5:
A1 A A1 A D1 D D1 D A1 A A1 A
(If I could) you know I would (If I could) I would let it go
D1 D D1 D A1 A A1 A D1 D D1 D A1 A
This desparation. Dislocation. Separation. (Condemnation
A1 A D1 D D1 D A1 A A1 A
Revelation) (In Temptation Isolation) Desolation.
D1 D D1 D A1 A A1 A D1 D D1 D A1 A
Let it go, aha and so to fade away. To let it go, aha and so fade away
D1 D D1 D A1 A A1 A Dsus4 D D1 D A1 A A1 A
Oh, no I'm wide awake. I'm wide awake. I'm not sleeping. Oh, no no

define: A1 (Asus4) :x02230 A:x02220 D1 (Dsus2) :xx0230 D:xx0232 Gsus2:320233

A1 A A1 A D1 D D1 D

Strumming pattern: DUDU UDU DUDU UDU DD Uh UD DD Uh UD


U2 - Beautiful Day

Intro: A Bm D G In the live The edge play harmonics(with delay):


A D A e-------------------------------------------------|
B---------7----------------7----------------------|
G-------------7--------7--------7--------7--------|
D-----------------7-----------------7-------------|

A Bm D G D A
The heart is a bloom, shoots up throught the stony ground
A Bm D G D A
But there's no room, no space to rent in this town

Now the egde play this notes with delay(420ms): -Riff 1


e--------------------0---------------------0------|
B---------------0--------0--------------------0---|
G-------6---7-----------------6---7---6-----------|
D-------------------------------------7-----------|
A Bm D G D A
You're out of luck and the reason that you had to care,
A Bm D G D A
the traffic is stuck and you're not moving anywhere.
A Bm D G D A
You thought you'd found a friend to take you out of this place
A Bm D G D A
Someone you could lend a hand in return for grace

-Riff 2
A Bm D G D A
e------5----7----10----3---3--------10----10-----5----5--|
B------5----7----10----3---3--------10----10-----5----5--|
G------6----7----11----4---4--------11----11-----6----6--|
D------7----9----12----5---5--------12----12-----7----7--|
A------7----9----12----5---5--------12----12-----7----7--|
E------5----7----10----3---3--------10----10-----5----5--|

It's a beautiful day, the sky falls and you feel like
It's a beautiful day, It's a beautiful day, Don't let i get away

Riff 1(more heavily):


You're on the road but you've got no destination
You're in the mud, in the maze of her imagination
You love this town even if it doesn't ring true
You've been all over and it's been all over you

Riff 2:
It's a beautiful day Don't let it get away It's a beautiful day Don't let it get away

Now changed the chords -Riff 3: (take a look to the selector of the guitar(down))
e--------------------------------------------------------------------------------------|
B---14----14----14----12---14----15---15---15---15---15---15---15---15----15---14---15-|
G---14----14----14----14---14----14---12---12---12---12---12---14---14----14---14---14-|
D--------------------------------------------------------------------------------------|

e---------------------------------------------------|
B-----14----12---14---12---14---12----14----12---14-|
G-----14----14---14---14---14---14----14----14---14-|
D---------------------------------------------------|

F#m G D A F#m G G A
Touch me, take me to the other place, teach me, I know I'm not a hopeless case

Riff 1( with the old chords A Bm D..)

Em D
See the world in green and blue See China right in front of you
Em G D
See the canyons broken my cloud See the tuna fleets clearing the sea out
Em G D
See the bedouin fires at night, See the olis fields at first light
Em G D
See the bird with a leaf inher mouth After the flood all the colours came out
Riff 2:
It was a beautiful day Beautiful day Don't let it get away

Riff 3:
F#m G D A F#m G D A
Touch me, take me to that other place, Reach me, I know i'm not a hopeless case

And now there is the riff that I prefer:


-Riff 4:
e----------0-----------0--------0--------------------0--------------0--0--0--0--0--0--0--0-|
B----7-----------7---------8---------8--------7--------------7---------5--7--5--7--5--7--5-|
G-6-----6-----7-----7---7----7----7-----7--7------7------7-------7-------------------------|
D------------------------------------------------------------------------------------------|

A Bm D G D A
What you don't have you don't need it now, what you don't know you can feel it someone
A Bm D G D A
What you don't have you don't need it now, you don't need it now, you don't need it now

Was a beautiful day…… Riff 3:


And finish with this:
G-------------------------------------------------------------------|
D----7----9----12----5--------12----7--------7----9----12----5------|
A-------------------------------------------------------------------|
E----5----7----10----3--------10----5--------5----7----10----3------|
U2 - Even Better Than the Real Thing

Intro: A8th (com Whammy)

A Dsus4 D/A A
Give me one more chance, and you'l l be satisfied
D Dsus4 D A
Give me two more chances you won't be denied
Gadd9 Bm7
Well my heart is where it's always been, my head is somewhere in between
D Dsus4 D A
Give me one more chance let me be your lover tonight
(Check it out)

Chorus
A G D A G D A G D
You're the r eal thing, yeah the real thing, You're the real thing
A G D A
Even better than the real thing

A Dsus4 D/A A
Give me one last chance and I'm gonna m ake you sing
D Dsus4 D A
Give me half a chance to ride on the waves that you bring
Gadd9 Bm7
You're honey child to a swarm of bees, gonna blow right through you like a breeze
D Dsus4 D A
Give me one last dance, we'll slide down the surface of things

Chorus

D G D G
We're free to fly the crimson sky, The sun won't melt our w ings tonight
A G D
Oh no w, here she comes
A G D A G D A G D A G D
Take me higher, take me higher Can you take me higher? Will you take me higher?

Chorus
A G D A
Even better than the real thing (2X)

#----------------------------------PLEASE NOTE---------------------------------#
#This file is the author's own work and represents their interpretation of the #
#song. You may only use this file for private study, scholarship, or research. #
#------------------------------------------------------------------------------##

From: Timo Gorges


Date: Wed, 19 Jul 95 11:47:45 +0200

Date: 18-07-95
From: habe0001@stud.uni-sb.de
Subject: Even better than the real thing ( live version ) by U2
Transcripted by Marko Becker

This tab is a live version of "Even better than the real thing" that U2 played during their Zoo-Tv Tour.
I personally own a ZOOM " PLAYER " 2020 and the sound that I created is very similar to Edge's sound.
I think the most important thing of the song is the delay-effect (Zoom Player: 350ms, Feedback 2, Mix 7)

Comments or other suggestions are requested. Now enjoy playing this song.

**INTRO**
D5 - x577xx

At the beginning of the song The Edge plays a D5 chord that he modifies with
his DigiTech "Whammy". So he can create this special sound. If you haven't got a "Whammy" you can create a similar sound with a
small trick.
Play the Ab and the Db string together and repeat this 2 times, then play the Gb string and the other 2 strings alternately.

So, that's it, not very difficult.

** FIGURE 1 **
a b c d
eb-------|----------------------|---------|---------------|
Bb----7p-|-------------------7p-|---------|----------7p---|
Gb-------|-------5--4-----------|-------5-|-4-----0-------|
Db--0----|-5--7--------7--0-----|-5--7----|----7----------|
Ab-------|----------------------|---------|---------------|
Eb-------|----------------------|---------|---------------|

e f
eb-----------------------|---------------|
Bb--------------------7p-|---------------| P = pull string and bend the
Gb--------5--4-----------|--------5--4---| note a half step up and
Db--5--7--------7--0-----|--5--7---------| down
Ab-----------------------|---------------|
Eb-----------------------|---------------|

** FIGURE 2 **
a b c d
eb--8-----|---12----|-----3------|---------------------|
Bb--8-----|---12----|-----3------|-----7p--------------|
Gb--------|---------|------------|--------------5--4---|
Db--------|---------|------------|--0-----5--7---------|
Ab--------|---------|------------|---------------------|
Eb--8-----|---12----|-----3------|---------------------|

** FIGURE 3 **
D5
eb--------------------|--------|
Bb--------------------|--------|
Gb--------------------|--7-----|
Db--14--11--10--9--7--|--7-----|
Ab--12--09---8--7--5--|--5-----|
Eb--------------------|--------|

** Solo (use bottleneck) **


Solo part I
eb-------------------------------------------------------------------->
Bb-------------------------------------------------------------------->
Gb-0--2--7--5--7--11--9--7--5--2--0--2--7--10--12--10--7--10--12--14-->
Db-------------------------------------------------------------------->
Ab-------------------------------------------------------------------->
Eb-------------------------------------------------------------------->

Solo part II
(repeat the last two notes several times)
eb--13--10--15--13--12--10-|-----------------------------------------------|
Bb----------------------10-|-----------------------------------------------|
Gb-------------------------|--7--12--10--9--10--12--10--9--10--9--7--5--7--|
Db-------------------------|-----------------------------------------------|
Ab-------------------------|-----------------------------------------------|
Eb-------------------------|-----------------------------------------------|

VERSE 1:
< FIGURE 1.a >< FIGURE 1.b > < FIGURE 1.c >
Give me one more chance, and you'll be satisfield
< FIGURE 1.d >< FIGURE 1.e > < FIGURE 1.f >
Give me two more chances you won't be denied
< FIGURE 2.a >
Well my heart is where it's always been
< FIGURE 2.b >
My head is somewhere in between
< FIGURE 2.c > < FIGURE 2.d >
Give me one more chance let me be your lover tonight.

REFRAIN:
< 3 X FIGURE 3 >
You're the real thing, yeah the real thing, you're the real thing
< FIGURE 3 >
Even better than the real thing...

VERSE 2:
< 1.a >< 1.b > < 1.c >
Give me one last chance and I'm gonna make you sing
< 1.d >< 1.e > < 1.f >
Give me half a chance to ride on the waves that you bring
< 2.a >
You're the honey child to a swarm of bees
< 2.b >
Gonna blow right through like a breeze
< 2.c > < 2.d >
Give me one last dance, we'll slide it down on the surface of things

REFRAIN:
< 3 X FIGURE 3 >
You're the real thing, yeah the real thing, you're the real thing
< FIGURE 3 with D5 at the end >
Even better than the real thing...
** After the second refrain Edge starts his solo. The first part is played without words. In the second part Bono starts to sing **

< Solo 2nd part >


We're free to fly the crimson sky the sun won't melt our wings tonight
Oh no, oh no here she comes

** The next part of the song is played like the REFRAIN **

Take me higher, take me higher, can you take me higher?, will you take me higher?
You're the real thing, yeah the real thing, you're the real thing
Even better than the real thing
Even better than the real thing
Even better than the real thing...
U2 - I Still Haven't Found What I'm Looking For

Tom: A (com acordes na forma de G) Capotraste na 2ª casa

Intro 2x: G G5(7M)


G G5(7M) G G5(7M)
I have climbed the highest mountains, I have run through the fields
C9 C4+(9)
Only to be with you, Only to be with you

G5(7M) G G5(7M) C9 C4+(9)


I have run I have crawled I have scaled these city walls, these city walls
G
Only to be with you

D C9 G
But I still haven't found What I'm looking for (2x)

G5(7M) G G5(7M)
I have kissed honey lips felt the healing fingertips
C9 C4+(9) G
It burned like fire This burning desire
G5(7M) G G5(7M)
I have spoke with the tongue of angels I have held the hand of a devil
C9 C4+(9) G
It was warm in the night I was cold as a stone

D C9 G
But I still haven't found What I'm looking for (2x)

G5(7M) G
I believe in the Kingdom Come Then all the colors will
G5(7M) C9 C4+(9) G
Bleed into one Bleed into one But yes I'm still running.

G5(7M)
You broke the bonds You loosed the chains
G G5(7M) C9 C4+(9) G
You carried the cross Of my shame And my shame You know I believe it

D C9 G
But I still haven't found What I'm looking for (2x)
U2 - One
Tom: C - Intro: Am Dsus2 Fmaj7 G

Am Dsus2 F G
Is it getting better or do you feel the same
Am Dsus2 F G
Will it make it easier on you, Now.. you got someone to blame. you say...

C Am F C
One love, one life When it's one need in the night
Am F C (Riff) Am Dsus2 F G
One love we get to share it It leaves you baby if you don't care for it

Am Dsus2 F G
Did I disappoint you Or leave a bad taste in your mouth
Am Dsus2 F G
You act like you never had love And you want me to go without. Well is it...
C Am F G
too late tonight To drag the past out into the light
Am F G Dm/C Am F G
We're one, but we're not the same We get to carry each other, carry each other, One

Am Dsus2 F G
Have you come here for forgiveness? Have you come to raise the dead?
Am Dsus2 F G
Have you come here to play Jesus? To the lepers in your head?
C Am F G
Did I ask too much, more than a lot You gave me nothing, now it's all I got
Am F G
We're one, but we're not the same We hurt each other then we do it again, You say

C Am C G
Love is a temple, Love a higher law (2X) You ask me to enter, but then you make me crawl
F C
And I keeping holding on to what you got When all you got is hurt

C Am F C
One love, one blood One life, you got to do what you should
Am F C
One life with each other Sisters, brothers
C Am F C ( Am D F C )
One life, but we're not the same. We get to... carry each other, carry each other, One
U2 - Stay

D E G D
Green light, Seven Eleven, you stop in for a pack of cigarettes
E G D
You don't smoke, don't even want to hey now, check your change
E G D
Dressed up like a car crash the wheels are turning but you're upside down
Em D
You say when he hits you, you don't mind
Em D E G D
Because when he hurts you, you feel alive is that what it is?

D E G D
Red lights, grey morning, you stumble out of a hole in the ground
E G D
A vampire or a victim, it depends on who's around
E G D
You used to stay in to watch the adverts you could lip synch to the talk shows

Em Bm G
And if you look, you look through me, and when you talk it's not to me
A
And when I touch you, you don't feel a thing
Em D
If I could stay... then the night would give you up
Em D Em G D
Stay, and the day would keep its trust, Stay, and the night would be enough

Faraway, so close Up with the static and the radio


With satellite television You can go anywhere: Miami, New Orleans, London, Belfast and Berlin

And if you listen I can't call, and if you jump, you just might fall
And if you shout I'll only hear you

Em D
If I could stay... then the night would give you up
Em D Em Bm
Stay, and the day would keep its trust, Stay with the demons you drowned
G B Em G D
Stay with the spirit I found, stay and the night would be enough

Three o'clock in the morning, it's quiet and there's no one around
Just the bang and the clatter, as an angel runs to ground
Just the bang and the clatter, as an angel hits the ground
U2 – Stuck in a moment

Intro: D D9/F# G D9/F# A5(9) Bm G D (Tom: E (com acordes na forma de D) Capotraste na 2ª casa)

D D9/F# G D9/F# A5(9) Bm G D


I'm not afraid ofanything in this world , there's nothing u can throw at me that I haven't already heard
D9/F# G D9/F# A5(9) Bm G D
I'm just trying to find a decent melody a song that I can sing in my own company
Bm G E G
I never thought you were a fool , but darling, look at you
Bm G Bm A5(9)
You gotta stand up straight, carry your own weight, these tears are going nowhere, baby
D D9/F# G D9/F# A5(9) Bm G D
You've got to get yourself together, you've got stuck in a moment and now you can't get out of it
D D9/F# G D9/F# A#º Bm G D
Don't say that later will be better now you're stuck in a moment and you can't get out of it
D9/F# G D9/F# A5(9) Bm
I will not forsake, the colours that you bring but the nights you filled with fireworks
G D
They left you with nothing
D9/F# G D9/F#
I am still enchanted by the light you brought to me
A5(9) Bm G D
I still listen through your ears, and through your eyes I can see
Bm G E G
And you are such a fool to worry like you do
Bm G Bm A5(9)
I know it's tough, and you can never get enough of what you don't really need now... my oh my
D D9/F# G D9/F# A5(9) Bm G D
You've got to get yourself together You've got stuck in a moment and now you can't get out of it
D9/F# G D9/F# A#º Bm G D
Oh love look at you now you've got yourself stuck in a moment and now you can't get out of it
Em G D
I was unconscious, half asleep the water is warm till you discover how deep...
Em G C9 A5(9)
I wasn't jumping... for me it was a fall it's a long way down to nothing at all
D D9/F# G D9/F# A5(9) Bm G D
You've got to get yourself together you've got stuck in a moment and now you can't get out of it
D D9/F# G D9/F# A#º Bm G D
Don't say that later will be better now you're stuck in a moment and you can't get out of it
D9/F# G D A5(9) Bm G D
And if the night runs over And if the day won't last
D9/F# G D9/F# A#º Bm G D D
And if our way should falter Along the stony pass (2x) It's just a moment this time will pass
U2 - With or without you
D A Bm G D
See the stone set in your eyes, See the thorn twist in your side I wait for you

Sleight of hand and twist of fate, on a bed of nails she makes me wait
And I wait....without you

REFRAIN - With or without you, With or without you

Through the storm we reach the shore You give it all but I want more And I wait for you

REFRAIN - With or without you, With or without you ah ha


I can't live... with or without you

And you give yourself away, And you give yourself away, And you give
And you give, And you give yourself away

My hands are tied, My body bruised she got me with


Nothing left to win and nothing left to loose

And you give yourself away, (...)

REFRAIN

With or without you

With or without you ah ha

I can't live... with or without you

+ REFRAIN
The Verve - Lucky Man

(Intro 8x) G D D9 A9 (Tom: D)


G D D9 A9 A9 G G D D9 A9
Happiness more or less it's just a change me something in my levity ooh my my.
G D D9 A9 A9 G G D D9 A9
happiness coming and going I watch you look at me watch my fever growing, I know just where I a-m
Em G
well, how many corners do I have to turn how many times do I have to learn
D D9 A9
all the love I have is in my mind.

(Chorus)
G D D9 A9 G D D9 A9
But I'm a lucky m-a-a-n with fire in my h-a-a-nds

G D D9 A9 G D D9 A9
happiness something in my own place I'm stood here naked smiling I feel no disgrace with who I a-m
G D D9 A9 A9 G G D D9 A9
happiness coming and going I watch you look at me watch my fever growing, I know just who I a-m
Em G9
well, how many corners do I have to turn how many times do I have to learn
D D9 A9
all the love I have is in my mind.
G D D9 A9 G D D9 A9
I hope you underst-a-a-nd (2X) o-o-o-o-o-h-h-h-h no no no no no no no no
G D D9 A9
Gotta love that never d-i-e-s
G D D9 A9 A9 G
Happiness more or less it's just a change me something in my levity
G D D9 A9 A9 G
happiness coming and going I watch you look at me watch my fever growing, I know
G D D9 A9 G D D9 A9
o-o-h, my my (4x) Gotta love that never d-i-e-s (3x)
A9 G G D D9 A9
it's just a change me something in my levity (3x) o-o-h, my my (2x)
A9 G G D D9 A9
it's just a change me something in my levity o-o-h, my my (2x)
The Verve - Sonnet
Verse 1
C
my friend and me,
Em Am F
looking thru her red box of memories

C Em Am F
Faded, I'm sure, but love seems to stick in her things you know

Chorus (2X)
F G Em F
yes, there's love if you want it, don't sound like a sonnet, my love
Em F
my love.

REPEAT INTRO

Verse 2
C Em Am F
why can't you see that nature has it's way of warning me?
C Em Am F
eyes open wide, looking at the heavens with a tear in my eye

Chorus

REPEAT INTRO

G F F
Sinking faster than a boat without a hull, my love
G F G F G F
dreaming about the day when I can see you here by my side, by my side

Verse 3
F G Em F
Here we go again and my head it is gone , my love
F G Em F G F
I stop to say hello because I think you should know by now, by now (x7)
Wallace Collection, The - Daydream

Intro: Am Am/G D9/F# F G Am Am/G E4 E

Am Am/G D9/F#
Daydream , I fell asleep amid the flowers,
F G Am Am/G D9/F# F G
For a couple of hours, on a beauti - ful day,
(1ª parte) Am Am/G D9/F#
Daydream , I dreamed of you amid the flowers,
(2ª parte) Am Am/G D9/F#
Daydream , come share a dream amid the flowers,
F G Am Am/G D9/F# F
For a couple of hours, such a beauti - ful day!

Refrão:
G Dm Em C
I dreamed of the places I've been with you,
F Dm E4 E
How we sat with the stream flowing by--------,
G Dm Em C
And then when I kissed you, and held you so near,
F Dm E4 E
Tell me why, tell me why you're so shy--------!

Repete 1ª parte com modificação


Refrão

Am Am/G D9/F#
Daydream , I sing with you amid the flowers,
F G Am Am/G D9/F# F
For a couple of hours, singing all of the day!

C Em/B Am Am/G C ( C6 ) Dm ( D4 ) Dm
Na, na - na! Na, na - na! Na, na! Na, na - na! Na, na, na!
Dm Dm(7M) Dm7 G7 C
Na, na - na! Na, na - na! Na, na! Na, na - na! Na, na, na!
Who, The - Pinball Wizard
B4 B
Ever since I was a young boy,I´ve played the silver ball
A4 A
From Soho down to Brighton, I must have played them all
G4 G
But I ain´t seen nothing like him, in any amusement hall
F#4 F# B B A D E E (2X)
That deaf, dumb and blind kid, sure plays a mean pinball
B4 B
He stands like a statue, becomes part of the machine
A4 A
Feeling all the bumpers, always playing clean
G4 G
He plays by intuition, the digit counters fall
F#4 F#
That deaf, dumb and blind kid, sure plays mean pinball B B A D E E (2X)
E F# B E F# B
He´s a pinball wizard, There´s got to be a twist
E F# B G D D4 D
A pinball wizard, He´s got such a supple wrist
D C9 G D C9 G
How do you think He does it? (I don´t know), What makes him so good?
B4 B
He ain´t got no disctractions, can´t hear those buzzers and bells
A4 A
Don´t see lights a flashin´, plays by sense of smell
G4 G
Always gets a replay, never tilts at all
F#4 F# B B A D E E (2X)
That deaf, dumb and blind kid, sure plays mean pinball
E F# B E F# B E F# B G D D4 D
I thought I was the Bally table king, But I just handed my pinball crown to him
D4 D
Even on my usual table, he can beat my best
C4
His disciples lead him in, and he just does the rest
Bb4 Bb A4 (A)
He´s got crazy flipper fingers, never seen him fall That deaf, dumb and blind…
Wilson Picket - Mustang Sally
C7
Mustang Sally - Guess you better slow the Mustang down
F7
Mustang Sally now Baby - Guess you better slow the Mustang down
G7 G7 E7 F7
You been running all over the town now
C7
Oh I guess you gotta put your flat feet on the ground
(C7 F7)
All you wanna do is ride around Sally - Ride, Sally, Ride 4x

G7 G7 F#7 F7 C7
One of these early mornings, oh, I´m gonna be wiping those weeping eyes

C7M
I bought you a brand new mustang

about nineteen sixty five

Now you come around signifying a woman

But baby, you don't wanna let me ride.


F7
Mustang Sally, now baby
C7
think you better slow your mustang down
G7 G7 F#7 F7
You been running all over the town now
C7
Oh! I guess I'll have to put your flat feet on the ground